  0
SECTION
  2
HEADER
  9
$ACADVER
  1
AC1009
  9
$INSBASE
 10
3507.7022773203598263
 20
159.8476899031599032
 30
0.0
  9
$EXTMIN
 10
3498.1016588313291322
 20
159.8441895022502877
 30
-0.0000000349181948
  9
$EXTMAX
 10
3515.2655133089738229
 20
164.461860137710886
 30
0.0000000814935746
  9
$LIMMIN
 10
0.0
 20
0.0
  9
$LIMMAX
 10
11.6929133858000007
 20
8.2677165353999982
  9
$ORTHOMODE
 70
     0
  9
$REGENMODE
 70
     1
  9
$FILLMODE
 70
     1
  9
$QTEXTMODE
 70
     0
  9
$MIRRTEXT
 70
     0
  9
$DRAGMODE
 70
     2
  9
$LTSCALE
 40
0.6431102362
  9
$OSMODE
 70
  4095
  9
$ATTMODE
 70
     1
  9
$TEXTSIZE
 40
0.2
  9
$TRACEWID
 40
0.05
  9
$TEXTSTYLE
  7
STANDARD
  9
$CLAYER
  8
0
  9
$CELTYPE
  6
BYLAYER
  9
$CECOLOR
 62
   256
  9
$DIMSCALE
 40
1.0
  9
$DIMASZ
 40
0.1875
  9
$DIMEXO
 40
0.0625
  9
$DIMDLI
 40
0.4443307087
  9
$DIMRND
 40
0.0
  9
$DIMDLE
 40
0.0
  9
$DIMEXE
 40
0.125
  9
$DIMTP
 40
0.01
  9
$DIMTM
 40
0.01
  9
$DIMTXT
 40
2.0
  9
$DIMCEN
 40
0.1052362205
  9
$DIMTSZ
 40
0.0
  9
$DIMTOL
 70
     1
  9
$DIMLIM
 70
     0
  9
$DIMTIH
 70
     1
  9
$DIMTOH
 70
     1
  9
$DIMSE1
 70
     0
  9
$DIMSE2
 70
     0
  9
$DIMTAD
 70
     0
  9
$DIMZIN
 70
     0
  9
$DIMBLK
  1

  9
$DIMASO
 70
     1
  9
$DIMSHO
 70
     1
  9
$DIMPOST
  1
\X
  9
$DIMAPOST
  1

  9
$DIMALT
 70
     1
  9
$DIMALTD
 70
     2
  9
$DIMALTF
 40
25.3999999999999986
  9
$DIMLFAC
 40
1.0
  9
$DIMTOFL
 70
     0
  9
$DIMTVP
 40
0.0
  9
$DIMTIX
 70
     0
  9
$DIMSOXD
 70
     0
  9
$DIMSAH
 70
     0
  9
$DIMBLK1
  1

  9
$DIMBLK2
  1

  9
$DIMSTYLE
  2
STANDARD
  9
$DIMCLRD
 70
     0
  9
$DIMCLRE
 70
     0
  9
$DIMCLRT
 70
     0
  9
$DIMTFAC
 40
1.0
  9
$DIMGAP
 40
0.09
  9
$LUNITS
 70
     2
  9
$LUPREC
 70
     4
  9
$SKETCHINC
 40
0.1
  9
$FILLETRAD
 40
0.0
  9
$AUNITS
 70
     0
  9
$AUPREC
 70
     0
  9
$MENU
  1
.
  9
$ELEVATION
 40
0.0
  9
$PELEVATION
 40
0.0
  9
$THICKNESS
 40
0.0
  9
$LIMCHECK
 70
     0
  9
$BLIPMODE
 70
     0
  9
$CHAMFERA
 40
0.0
  9
$CHAMFERB
 40
0.0
  9
$SKPOLY
 70
     0
  9
$TDCREATE
 40
2458060.468368056230247
  9
$TDUPDATE
 40
2459102.8172800932079554
  9
$TDINDWG
 40
0.5651459491
  9
$TDUSRTIMER
 40
0.5651459491
  9
$USRTIMER
 70
     1
  9
$ANGBASE
 50
0.0
  9
$ANGDIR
 70
     0
  9
$PDMODE
 70
     0
  9
$PDSIZE
 40
0.3125
  9
$PLINEWID
 40
0.0
  9
$COORDS
 70
     1
  9
$SPLFRAME
 70
     0
  9
$SPLINETYPE
 70
     6
  9
$SPLINESEGS
 70
     8
  9
$ATTDIA
 70
     1
  9
$ATTREQ
 70
     1
  9
$HANDLING
 70
     1
  9
$HANDSEED
  5
13150
  9
$SURFTAB1
 70
     6
  9
$SURFTAB2
 70
     6
  9
$SURFTYPE
 70
     6
  9
$SURFU
 70
     6
  9
$SURFV
 70
     6
  9
$UCSNAME
  2

  9
$UCSORG
 10
0.0
 20
0.0
 30
0.0
  9
$UCSXDIR
 10
1.0
 20
0.0
 30
0.0
  9
$UCSYDIR
 10
0.0
 20
1.0
 30
0.0
  9
$PUCSNAME
  2

  9
$PUCSORG
 10
0.0
 20
0.0
 30
0.0
  9
$PUCSXDIR
 10
1.0
 20
0.0
 30
0.0
  9
$PUCSYDIR
 10
0.0
 20
1.0
 30
0.0
  9
$USERI1
 70
     0
  9
$USERI2
 70
     0
  9
$USERI3
 70
     0
  9
$USERI4
 70
     0
  9
$USERI5
 70
     0
  9
$USERR1
 40
0.0
  9
$USERR2
 40
0.0
  9
$USERR3
 40
0.0
  9
$USERR4
 40
0.0
  9
$USERR5
 40
0.0
  9
$WORLDVIEW
 70
     1
  9
$SHADEDGE
 70
     3
  9
$SHADEDIF
 70
    70
  9
$TILEMODE
 70
     1
  9
$MAXACTVP
 70
    64
  9
$PLIMCHECK
 70
     0
  9
$PEXTMIN
 10
1.0000000000000000E+20
 20
1.0000000000000000E+20
 30
1.0000000000000000E+20
  9
$PEXTMAX
 10
-1.0000000000000000E+20
 20
-1.0000000000000000E+20
 30
-1.0000000000000000E+20
  9
$PLIMMIN
 10
0.0
 20
0.0
  9
$PLIMMAX
 10
12.0
 20
9.0
  9
$UNITMODE
 70
     0
  9
$VISRETAIN
 70
     1
  9
$PLINEGEN
 70
     0
  9
$PSLTSCALE
 70
     1
  0
ENDSEC
  0
SECTION
  2
TABLES
  0
TABLE
  2
VPORT
 70
     1
  0
VPORT
  2
*ACTIVE
 70
     0
 10
0.0
 20
0.0
 11
1.0
 21
1.0
 12
202.9904708357761933
 22
-33.1084867559071725
 13
0.0
 23
0.0
 14
1.0
 24
1.0
 15
0.0
 25
0.0
 16
0.0
 26
0.0
 36
96.5995694866707311
 17
3303.693115234375
 27
195.2615115758877096
 37
0.0
 40
6.5006833937056347
 41
2.6486111111111108
 42
50.0
 43
0.0
 44
0.0
 50
0.0
 51
0.0
 71
     0
 72
   100
 73
     1
 74
     1
 75
     0
 76
     0
 77
     0
 78
     0
  0
ENDTAB
  0
TABLE
  2
LTYPE
 70
     2
  0
LTYPE
  2
CONTINUOUS
 70
     0
  3
Solid line
 72
    65
 73
     0
 40
0.0
  0
LTYPE
  2
PHANTOM2
 70
     0
  3
___ _ _ ___ _ _ ___ _ _ ___ _ _
 72
    65
 73
     6
 40
1.25
 49
0.625
 49
-0.125
 49
0.125
 49
-0.125
 49
0.125
 49
-0.125
  0
ENDTAB
  0
TABLE
  2
LAYER
 70
     2
  0
LAYER
  2
0
 70
     0
 62
   255
  6
CONTINUOUS
  0
LAYER
  2
DEFPOINTS
 70
     0
 62
     7
  6
CONTINUOUS
  0
ENDTAB
  0
TABLE
  2
STYLE
 70
     1
  0
STYLE
  2
STANDARD
 70
     0
 40
0.0
 41
0.8
 50
0.0
 71
     0
 42
0.2
  3
txt
  4

  0
ENDTAB
  0
TABLE
  2
VIEW
 70
     0
  0
ENDTAB
  0
TABLE
  2
UCS
 70
     0
  0
ENDTAB
  0
TABLE
  2
APPID
 70
     9
  0
APPID
  2
ACAD
 70
     0
  0
APPID
  2
ACAD_MLEADERVER
 70
     0
  0
APPID
  2
ACAD_EXEMPT_FROM_CAD_STANDARDS
 70
     0
  0
APPID
  2
ACAD_NAV_VCDISPLAY
 70
     0
  0
APPID
  2
ACAECLAYERSTANDARD
 70
     0
  0
APPID
  2
ACCMTRANSPARENCY
 70
     0
  0
APPID
  2
ACAD_DSTYLE_DIMJAG
 70
     0
  0
APPID
  2
ACAD_DSTYLE_DIMTALN
 70
     0
  0
APPID
  2
ACDBATTR
 70
     0
  0
ENDTAB
  0
TABLE
  2
DIMSTYLE
 70
     1
  0
DIMSTYLE
  2
STANDARD
 70
     0
  3

  4

  5

  6

  7

 40
1.0
 41
0.1875
 42
0.0625
 43
0.38
 44
0.125
 45
0.0
 46
0.0
 47
0.01
 48
0.01
140
0.15625
141
0.09
142
0.0
143
25.3999999999999986
144
1.0
145
0.0
146
1.0
147
0.09
 71
     1
 72
     0
 73
     1
 74
     1
 75
     0
 76
     0
 77
     0
 78
     4
170
     0
171
     2
172
     0
173
     0
174
     0
175
     0
176
     0
177
     0
178
     0
  0
ENDTAB
  0
ENDSEC
  0
SECTION
  2
BLOCKS
  0
BLOCK
  8
0
  2
$MODEL_SPACE
 70
     0
 10
0.0
 20
0.0
 30
0.0
  3
$MODEL_SPACE
  1

  0
ENDBLK
  5
21
  8
0
  0
BLOCK
 67
     1
  8
0
  2
$PAPER_SPACE
 70
     0
 10
0.0
 20
0.0
 30
0.0
  3
$PAPER_SPACE
  1

  0
ENDBLK
  5
1D
 67
     1
  8
0
  0
BLOCK
  8
0
  2
_FILLED
 70
     0
 10
0.0
 20
0.0
 30
0.0
  3
_FILLED
  1

  0
SOLID
  5
12341
  8
0
  6
BYBLOCK
 62
     0
 10
0.0
 20
0.0
 30
0.0
 11
-1.0
 21
0.1666666667
 31
0.0
 12
-1.0
 22
-0.1666666667
 32
0.0
 13
-1.0
 23
-0.1666666667
 33
0.0
  0
ENDBLK
  5
12342
  8
0
  6
BYBLOCK
 62
     0
  0
ENDSEC
  0
SECTION
  2
ENTITIES
  0
ATTDEF
  5
1273D
  8
DEFPOINTS
 10
3507.702702217110982
 20
159.8517148304516127
 30
0.0
 40
0.001
  1
K-96001IN
  3

  2
MODELNUMBER
 70
     0
1001
ACDBATTR
1070
     0
1070
     1
  0
ATTDEF
  5
1273E
  8
DEFPOINTS
 10
3507.702702217110982
 20
159.8500481637848907
 30
0.0
 40
0.001
  1
PURECLEAN
  3

  2
TRADENAME
 70
     0
1001
ACDBATTR
1070
     0
1070
     1
  0
ATTDEF
  5
1273F
  8
DEFPOINTS
 10
3507.702702217110982
 20
159.8483814971183108
 30
0.0
 40
0.001
  1
TOILET SEAT
  3

  2
PRODUCT
 70
     0
1001
ACDBATTR
1070
     0
1070
     1
  0
ARC
  5
12E15
  8
0
 10
3507.7151890658469711
 20
130.2211024931322072
 30
0.0
 40
34.2371473842818617
 50
90.0216085345602011
 51
101.3932184465184037
  0
ARC
  5
12E16
  8
0
 10
3501.0854266450601244
 20
163.0460595545781075
 30
0.0
 40
0.7495153083008097
 50
100.2591076328874067
 51
126.2135795089321988
  0
ARC
  5
12E17
  8
0
 10
3500.8387321979321314
 20
163.3895226040231137
 30
0.0
 40
0.3266790558276557
 50
126.8938956295048968
 51
171.4325703407058086
  0
ARC
  5
12E18
  8
0
 10
4856.479687260252831
 20
90.0642677412953248
 30
0.0
 40
1357.9477424396029619
 50
176.9026316523716105
 51
176.9706812388924959
  0
LINE
  5
12E19
  8
0
 10
3500.4295094415260792
 20
161.8276736987600088
 30
0.0
 11
3500.3535309314261212
 21
160.3988955595598895
 31
0.0
  0
ARC
  5
12E1A
  8
0
 10
3500.3929010104270674
 20
160.3988955595598895
 30
0.0
 40
0.0393700789999988
 50
179.9999999999967031
 51
270.0
  0
LINE
  5
12E1B
  8
0
 10
3500.3929010129259041
 20
160.3595254803599062
 30
0.0
 11
3515.0115927640467817
 21
160.3595254803599062
 31
0.0
  0
ARC
  5
12E1C
  8
0
 10
3501.9915865576149372
 20
160.913532101258312
 30
0.0
 40
0.6225524903348572
 50
242.88681775478139
 51
276.0272210994315856
  0
ARC
  5
12E1D
  8
0
 10
3496.8185295662569843
 20
197.1811556905464897
 30
0.0
 40
35.5374149960738492
 50
273.7515028836407964
 51
275.8319264798461745
  0
ARC
  5
12E1E
  8
0
 10
3499.338897203536817
 20
158.5379456496291084
 30
0.0
 40
3.1879248515032161
 50
93.5101047814280832
 51
99.9364253061660435
  0
ARC
  5
12E1F
  8
0
 10
3498.9918700461839762
 20
160.5188851461711863
 30
0.0
 40
1.1768184055632021
 50
99.9364253061660435
 51
113.2855794235184987
  0
ARC
  5
12E20
  8
0
 10
3498.7783883372389937
 20
160.9995257174091137
 30
0.0
 40
0.6509640731038964
 50
112.7496685518494957
 51
160.0405490454917867
  0
ARC
  5
12E21
  8
0
 10
3498.6458368534540568
 20
161.0682486479055058
 30
0.0
 40
0.5032874859595154
 50
162.2437196637480952
 51
207.3204763456490127
  0
ARC
  5
12E22
  8
0
 10
3498.8045027553707769
 20
161.1659274310484875
 30
0.0
 40
0.6892274757058915
 50
208.4811068785263899
 51
249.3192125765137064
  0
ARC
  5
12E23
  8
0
 10
3499.0358350018041165
 20
161.7459759631767042
 30
0.0
 40
1.313647694169771
 50
248.8143458539965991
 51
262.2794179451846048
  0
ARC
  5
12E24
  8
0
 10
3499.4998996121630626
 20
164.6525583517324094
 30
0.0
 40
4.2567908295084376
 50
261.3455144318156158
 51
264.2936120593773808
  0
ARC
  5
12E25
  8
0
 10
3500.2331584916241809
 20
172.2439247597664007
 30
0.0
 40
11.88347328224277
 50
264.415062891012326
 51
268.0744874047248913
  0
ARC
  5
12E26
  8
0
 10
3500.3297885339611639
 20
172.3852336883140026
 30
0.0
 40
12.0282997344921601
 50
267.6370708325342207
 51
270.2293134759079862
  0
ARC
  5
12E27
  8
0
 10
3500.2968506565198368
 20
174.1274576574803916
 30
0.0
 40
13.7706660546050301
 50
270.3373454880838267
 51
270.5627817469656975
  0
ARC
  5
12E28
  8
0
 10
3500.4252716553178288
 20
160.5937092031140878
 30
0.0
 40
0.2363522421785849
 50
271.6578151201961759
 51
277.7673350222261206
  0
ARC
  5
12E29
  8
0
 10
3498.8545930372929433
 20
160.7615609338485001
 30
0.0
 40
0.8548445691813105
 50
89.9177053278808103
 51
106.6423682787337981
  0
ARC
  5
12E2A
  8
0
 10
3498.8054614525881334
 20
160.9016865488133021
 30
0.0
 40
0.7065516366956306
 50
106.0794202523454004
 51
134.3662534857834885
  0
ARC
  5
12E2B
  8
0
 10
3498.6331349919319109
 20
161.0661193032300105
 30
0.0
 40
0.4685752372272394
 50
133.3616770229550923
 51
190.225301652600109
  0
ARC
  5
12E2C
  8
0
 10
3498.7016746607610003
 20
161.1069861696919077
 30
0.0
 40
0.5440046450559137
 50
193.1809717681859979
 51
240.7318713961660137
  0
ARC
  5
12E2D
  8
0
 10
3498.8468525382900225
 20
161.3270337402566952
 30
0.0
 40
0.8071634748558023
 50
239.3785038653722097
 51
270.6366214702318871
  0
ARC
  5
12E2E
  8
0
 10
3498.8614830648411953
 20
161.3403055303955966
 30
0.0
 40
0.8204049800373736
 50
269.6045575270359791
 51
299.6798712339777921
  0
ARC
  5
12E2F
  8
0
 10
3499.0145426909170965
 20
161.1013158580578875
 30
0.0
 40
0.5371810265729661
 50
298.1179093167904171
 51
350.8834141104005084
  0
ARC
  5
12E30
  8
0
 10
3499.0301819443798195
 20
161.0473417613025902
 30
0.0
 40
0.5156970716365389
 50
356.5382452235857045
 51
46.7879567739057975
  0
ARC
  5
12E31
  8
0
 10
3498.897615950430918
 20
160.8864250722639895
 30
0.0
 40
0.7238721727810861
 50
47.8615026144128493
 51
76.1060192819723369
  0
ARC
  5
12E32
  8
0
 10
3498.8563328633417768
 20
160.754922757262392
 30
0.0
 40
0.8614820161459162
 50
75.5408164031491793
 51
90.0340524369980955
  0
ARC
  5
12E33
  8
0
 10
3498.7384345147629574
 20
160.571660814870512
 30
0.0
 40
0.0007244778450519
 50
124.6331486186468993
 51
232.2303607946909949
  0
ARC
  5
12E34
  8
0
 10
3498.7411021841799084
 20
160.5677985903876106
 30
0.0
 40
0.0054184354576274
 50
94.4303432710449471
 51
124.633148618646004
  0
ARC
  5
12E35
  8
0
 10
3498.7584520059717761
 20
160.4081147059924035
 30
0.0
 40
0.1660395900685097
 50
88.501048581604195
 51
96.1431514273340611
  0
ARC
  5
12E36
  8
0
 10
3498.8975391408730502
 20
169.4346662516225877
 30
0.0
 40
8.8615932469548042
 50
269.1287631657187944
 51
269.539345831424896
  0
ARC
  5
12E37
  8
0
 10
3498.8355636748901816
 20
162.6637964029301884
 30
0.0
 40
2.0904575462365269
 50
269.7459144776046855
 51
271.3646416684184146
  0
ARC
  5
12E38
  8
0
 10
3498.7824240194818231
 20
164.5879697299124018
 30
0.0
 40
4.0153573026128031
 50
271.4688057040377771
 51
272.1327085659229965
  0
ARC
  5
12E39
  8
0
 10
3498.9674010151497896
 20
159.6564757233803959
 30
0.0
 40
0.9196054447438998
 50
90.656474478688466
 51
92.2154058108438619
  0
ARC
  5
12E3A
  8
0
 10
3498.95852359131095
 20
160.429878670532986
 30
0.0
 40
0.1461515509823302
 50
86.3387395537579323
 51
90.6503346538579251
  0
ARC
  5
12E3B
  8
0
 10
3498.9660255444068753
 20
160.5486553101376046
 30
0.0
 40
0.0271384527939107
 50
76.7699866611708472
 51
86.1315297664278745
  0
ARC
  5
12E3C
  8
0
 10
3498.971185855488784
 20
160.5709413928763922
 30
0.0
 40
0.0042635649530493
 50
55.7652392597298387
 51
75.7343707381373719
  0
ARC
  5
12E3D
  8
0
 10
3498.9732129249900936
 20
160.5738558566563938
 30
0.0
 40
0.0007145826318062
 50
335.2924561308765874
 51
58.6709911099009602
  0
ARC
  5
12E3E
  8
0
 10
3498.9716869838721323
 20
160.5747710412292975
 30
0.0
 40
0.0024908969828343
 50
306.5355980717434932
 51
330.835239304344725
  0
ARC
  5
12E3F
  8
0
 10
3498.955332447436831
 20
160.6035487869094993
 30
0.0
 40
0.0355742839290668
 50
284.5748097916376196
 51
300.093553610874892
  0
ARC
  5
12E40
  8
0
 10
3498.8664346688919977
 20
160.9556991343870038
 30
0.0
 40
0.3987713223179634
 50
272.7185626537424241
 51
284.2041912026344903
  0
LINE
  5
12E41
  8
0
 10
3498.8853484198261867
 20
160.5739286542273874
 30
0.0
 11
3498.8853484198261867
 21
160.5559427778599115
 31
0.0
  0
LINE
  5
12E42
  8
0
 10
3498.8853484198261867
 20
160.5559427778599115
 30
0.0
 11
3498.8262933016721945
 21
160.5554788190331124
 31
0.0
  0
LINE
  5
12E43
  8
0
 10
3498.8262933016721945
 20
160.5554788190331124
 30
0.0
 11
3498.8262933017258547
 21
160.5733488019548076
 31
0.0
  0
ARC
  5
12E44
  8
0
 10
3498.847867247412978
 20
161.0689942836380908
 30
0.0
 40
0.5125453158745163
 50
262.521195491924118
 51
267.5876058302279148
  0
ARC
  5
12E45
  8
0
 10
3498.8210204049250933
 20
160.8644876936251933
 30
0.0
 40
0.3062840778526911
 50
256.2722989949893986
 51
262.521195491924118
  0
ARC
  5
12E46
  8
0
 10
3498.7603569302191318
 20
160.6161579583501862
 30
0.0
 40
0.050652087317334
 50
246.3212152165498878
 51
256.2722989949893986
  0
ARC
  5
12E47
  8
0
 10
3498.7414932722640515
 20
160.5742537314706908
 30
0.0
 40
0.0047210678402882
 50
222.1077218279075112
 51
251.7475272455222921
  0
ARC
  5
12E48
  8
0
 10
3502.3622854832938174
 20
160.8338481401341085
 30
0.0
 40
0.6198453364965567
 50
229.9272302898118028
 51
240.488967145120597
  0
ARC
  5
12E49
  8
0
 10
3502.3623990758210311
 20
160.8340488240683896
 30
0.0
 40
0.6200759385421927
 50
240.488967145120597
 51
268.5850220843327065
  0
LINE
  5
12E4A
  8
0
 10
3502.3470872224320374
 20
160.2141619660814911
 30
0.0
 11
3502.8529321881560463
 21
160.2141128035225108
 31
0.0
  0
ARC
  5
12E4B
  8
0
 10
3502.8556939926588711
 20
160.6065198069184987
 30
0.0
 40
0.3924167222205446
 50
219.0274934219183933
 51
269.5967525356214765
  0
ARC
  5
12E4C
  8
0
 10
3502.8228970470090644
 20
160.5862170865773919
 30
0.0
 40
0.3733144882957798
 50
274.614738712530027
 51
322.5877550170773134
  0
ARC
  5
12E4D
  8
0
 10
3502.8431092398300279
 20
160.8131405110968046
 30
0.0
 40
0.5991082412681868
 50
270.9394607890466204
 51
287.3818965021796998
  0
ARC
  5
12E4E
  8
0
 10
3502.8337587316441386
 20
160.8430110899255112
 30
0.0
 40
0.6304081371612886
 50
287.3818965146838877
 51
309.9200512273521895
  0
LINE
  5
12E4F
  8
0
 10
3503.0220863985828146
 20
160.2413906869599032
 30
0.0
 11
3507.5795027693829979
 21
160.2413906909604862
 31
0.0
  0
ARC
  5
12E50
  8
0
 10
3507.7865434783061573
 20
160.3470972328753135
 30
0.0
 40
0.2324644664342231
 50
185.0490681389923111
 51
217.5455263436521989
  0
ARC
  5
12E51
  8
0
 10
3507.625705716307948
 20
160.2245596025819907
 30
0.0
 40
0.0302798506677637
 50
219.1670817113941041
 51
284.2584916451601202
  0
ARC
  5
12E52
  8
0
 10
3507.7009206716979861
 20
159.9285808789898056
 30
0.0
 40
0.2751062890532283
 50
89.7174526329479676
 51
104.2583378900451976
  0
LINE
  5
12E53
  8
0
 10
3507.2177108495261564
 20
160.2413906855695132
 30
0.0
 11
3507.2177108499258793
 21
159.8476899031599032
 31
0.0
  0
LINE
  5
12E54
  8
0
 10
3507.2177108499258793
 20
159.8476899031599032
 30
0.0
 11
3507.1586557317259576
 21
159.8476899031149117
 31
0.0
  0
LINE
  5
12E55
  8
0
 10
3507.1586557317259576
 20
159.8476899031149117
 30
0.0
 11
3507.1586557313808044
 21
160.2413906905910039
 31
0.0
  0
LINE
  5
12E56
  8
0
 10
3512.2091687243491833
 20
160.3266383019598891
 30
0.0
 11
3503.1954769348258196
 21
160.3266383019598891
 31
0.0
  0
LINE
  5
12E57
  8
0
 10
3503.212607795725944
 20
160.3266383019598891
 30
0.0
 11
3503.2112511585260108
 21
160.2413911764598993
 31
0.0
  0
LINE
  5
12E58
  8
0
 10
3503.2899340918270354
 20
160.2413906810598974
 30
0.0
 11
3503.2899340918270354
 21
160.3266383019598891
 31
0.0
  0
ARC
  5
12E59
  8
0
 10
3507.6893646658058969
 20
130.2211024931322072
 30
0.0
 40
34.2371473842818617
 50
78.6067815534815679
 51
89.9783914654397847
  0
ARC
  5
12E5A
  8
0
 10
3514.3191270865918341
 20
163.0460595545781075
 30
0.0
 40
0.7495153083008097
 50
53.7864204910677586
 51
79.7408923671125649
  0
ARC
  5
12E5B
  8
0
 10
3514.5658215337211914
 20
163.3895226040231137
 30
0.0
 40
0.3266790558276557
 50
8.5674296592942074
 51
53.106104370495089
  0
ARC
  5
12E5C
  8
0
 10
2158.924866471400037
 20
90.0642677412953248
 30
0.0
 40
1357.9477424396029619
 50
3.029318761107513
 51
3.0973683476283811
  0
LINE
  5
12E5D
  8
0
 10
3514.9750442901258793
 20
161.8276736987600088
 30
0.0
 11
3515.0510228002258373
 21
160.3988955595598895
 31
0.0
  0
ARC
  5
12E5E
  8
0
 10
3515.0116526431497732
 20
160.3988955919001
 30
0.0
 40
0.0393701570760102
 50
269.9128573149944259
 51
359.9999529350811827
  0
ARC
  5
12E5F
  8
0
 10
3513.4129671740370213
 20
160.913532101258312
 30
0.0
 40
0.6225524903348572
 50
263.9727789005684144
 51
297.1131822452185816
  0
ARC
  5
12E60
  8
0
 10
3513.0422682483581411
 20
160.8338481401341085
 30
0.0
 40
0.6198453364965567
 50
299.5110328548793746
 51
310.0727697101881972
  0
ARC
  5
12E61
  8
0
 10
3513.0421546558318369
 20
160.8340488240683896
 30
0.0
 40
0.6200759385421927
 50
271.4149779156672935
 51
299.5110328548793746
  0
LINE
  5
12E62
  8
0
 10
3513.0574665092199211
 20
160.2141619660814911
 30
0.0
 11
3512.5516215434959122
 21
160.2141128035225108
 31
0.0
  0
ARC
  5
12E63
  8
0
 10
3512.5488597389939969
 20
160.6065198069184987
 30
0.0
 40
0.3924167222205446
 50
270.4032474643785235
 51
320.9725065780816067
  0
ARC
  5
12E64
  8
0
 10
3512.5816566846428941
 20
160.5862170865773919
 30
0.0
 40
0.3733144882957798
 50
217.4122449829226014
 51
265.385261287469973
  0
ARC
  5
12E65
  8
0
 10
3512.5614444918219306
 20
160.8131405110968046
 30
0.0
 40
0.5991082412681868
 50
252.6181034978204138
 51
269.0605392109533796
  0
ARC
  5
12E66
  8
0
 10
3512.5707950000091842
 20
160.8430110899255112
 30
0.0
 40
0.6304081371612886
 50
230.0799487726478958
 51
252.6181034853159986
  0
LINE
  5
12E67
  8
0
 10
3512.3824673330700534
 20
160.2413906869599032
 30
0.0
 11
3507.8250509622689606
 21
160.2413906909604862
 31
0.0
  0
ARC
  5
12E68
  8
0
 10
3507.6180102533471654
 20
160.3470972328753135
 30
0.0
 40
0.2324644664342231
 50
322.4544736563477727
 51
354.9509318610076889
  0
ARC
  5
12E69
  8
0
 10
3507.77884801534492
 20
160.2245596025819907
 30
0.0
 40
0.0302798506677631
 50
255.7415083548399082
 51
320.8329182886046169
  0
ARC
  5
12E6A
  8
0
 10
3507.70363311143592
 20
159.9285811534682864
 30
0.0
 40
0.2751060103503228
 50
75.7416584222459619
 51
90.2823690436234045
  0
LINE
  5
12E6B
  8
0
 10
3508.1868428821258021
 20
160.2413906855695132
 30
0.0
 11
3508.1868428817260792
 21
159.8476899031599032
 31
0.0
  0
LINE
  5
12E6C
  8
0
 10
3508.1868428817260792
 20
159.8476899031599032
 30
0.0
 11
3508.2458979999260009
 21
159.8476899031149117
 31
0.0
  0
LINE
  5
12E6D
  8
0
 10
3508.2458979999260009
 20
159.8476899031149117
 30
0.0
 11
3508.2458980002720637
 21
160.2413906905910039
 31
0.0
  0
LINE
  5
12E6E
  8
0
 10
3512.1919459359260145
 20
160.3266383019598891
 30
0.0
 11
3512.1933025731259477
 21
160.2413911764598993
 31
0.0
  0
LINE
  5
12E6F
  8
0
 10
3512.1146196398258326
 20
160.2413906810598974
 30
0.0
 11
3512.1146196398258326
 21
160.3266383019598891
 31
0.0
  0
ARC
  5
12E70
  8
0
 10
3498.418491604645169
 20
161.0664093924212068
 30
0.0
 40
0.1742187889785403
 50
152.2199806427676094
 51
186.1730933531140124
  0
ARC
  5
12E71
  8
0
 10
3498.5288119726478726
 20
161.0082932180139892
 30
0.0
 40
0.2989107026059525
 50
117.6602006611056055
 51
152.2199806427676094
  0
ARC
  5
12E72
  8
0
 10
3498.8117530004537912
 20
160.4990418080197117
 30
0.0
 40
0.8814261660457219
 50
88.9394651090861572
 51
118.5831128185790959
  0
ARC
  5
12E73
  8
0
 10
3498.8254932530289807
 20
160.3087566667232977
 30
0.0
 40
1.071563408505732
 50
71.9559530222414594
 51
89.8623772665429357
  0
ARC
  5
12E74
  8
0
 10
3499.0020563304060488
 20
160.85074385780581
 30
0.0
 40
0.50154179874841
 50
45.80340639232125
 51
71.9559530222414594
  0
ARC
  5
12E75
  8
0
 10
3499.2039052897998772
 20
161.0583343895812902
 30
0.0
 40
0.211995893421518
 50
20.6117861094551209
 51
45.80340639232125
  0
ARC
  5
12E76
  8
0
 10
3499.2335088720928979
 20
161.0694685951704059
 30
0.0
 40
0.1803677000076925
 50
345.2169427840951244
 51
20.6117861094551209
  0
ARC
  5
12E77
  8
0
 10
3499.1366556773859884
 20
161.1202534184596971
 30
0.0
 40
0.288007850984286
 50
300.0157186246977972
 51
340.3588721809152844
  0
ARC
  5
12E78
  8
0
 10
3498.8994650547938363
 20
161.4950173502213033
 30
0.0
 40
0.7313824887014131
 50
279.7929205008014151
 51
301.4188763358474148
  0
ARC
  5
12E79
  8
0
 10
3498.8275796678608458
 20
161.8147714302371867
 30
0.0
 40
1.0588320476116491
 50
270.1618658697706792
 51
280.683194233424274
  0
ARC
  5
12E7A
  8
0
 10
3498.822208376234812
 20
161.7763563702488909
 30
0.0
 40
1.0204470286431071
 50
254.731523487680505
 51
270.4695454372441077
  0
ARC
  5
12E7B
  8
0
 10
3498.7183159465348581
 20
161.4094555940255873
 30
0.0
 40
0.6391478419204928
 50
236.1468914116306905
 51
255.05467211703359
  0
ARC
  5
12E7C
  8
0
 10
3498.5379856598478909
 20
161.139759999856409
 30
0.0
 40
0.314718714345378
 50
211.8681104672573952
 51
236.0595911941275915
  0
ARC
  5
12E7D
  8
0
 10
3498.4321041944122044
 20
161.0703917174353137
 30
0.0
 40
0.1881972215175752
 50
186.9328403248588018
 51
210.9515946928135008
  0
LINE
  5
12E7E
  8
0
 10
3500.4415085873952194
 20
162.0540529779183032
 30
0.0
 11
3514.9630451442571939
 21
162.0540529779183032
 31
0.0
  0
ENDSEC
  0
EOF
