  0
SECTION
  2
HEADER
  9
$ACADVER
  1
AC1009
  9
$INSBASE
 10
3507.702461559909807
 20
188.4448337643613058
 30
0.0
  9
$EXTMIN
 10
3497.994900354146921
 20
168.6144584137446998
 30
-0.0015258207003583
  9
$EXTMAX
 10
3515.158231008545954
 20
188.4555128010545104
 30
0.0000000349246037
  9
$LIMMIN
 10
0.0
 20
0.0
  9
$LIMMAX
 10
11.6929133858000007
 20
8.2677165353999982
  9
$ORTHOMODE
 70
     0
  9
$REGENMODE
 70
     1
  9
$FILLMODE
 70
     1
  9
$QTEXTMODE
 70
     0
  9
$MIRRTEXT
 70
     0
  9
$DRAGMODE
 70
     2
  9
$LTSCALE
 40
0.6431102362
  9
$OSMODE
 70
  4095
  9
$ATTMODE
 70
     1
  9
$TEXTSIZE
 40
0.2
  9
$TRACEWID
 40
0.05
  9
$TEXTSTYLE
  7
STANDARD
  9
$CLAYER
  8
0
  9
$CELTYPE
  6
BYLAYER
  9
$CECOLOR
 62
   256
  9
$DIMSCALE
 40
1.0
  9
$DIMASZ
 40
0.1875
  9
$DIMEXO
 40
0.0625
  9
$DIMDLI
 40
0.4443307087
  9
$DIMRND
 40
0.0
  9
$DIMDLE
 40
0.0
  9
$DIMEXE
 40
0.125
  9
$DIMTP
 40
0.01
  9
$DIMTM
 40
0.01
  9
$DIMTXT
 40
2.0
  9
$DIMCEN
 40
0.1052362205
  9
$DIMTSZ
 40
0.0
  9
$DIMTOL
 70
     1
  9
$DIMLIM
 70
     0
  9
$DIMTIH
 70
     1
  9
$DIMTOH
 70
     1
  9
$DIMSE1
 70
     0
  9
$DIMSE2
 70
     0
  9
$DIMTAD
 70
     0
  9
$DIMZIN
 70
     0
  9
$DIMBLK
  1

  9
$DIMASO
 70
     1
  9
$DIMSHO
 70
     1
  9
$DIMPOST
  1
\X
  9
$DIMAPOST
  1

  9
$DIMALT
 70
     1
  9
$DIMALTD
 70
     2
  9
$DIMALTF
 40
25.3999999999999986
  9
$DIMLFAC
 40
1.0
  9
$DIMTOFL
 70
     0
  9
$DIMTVP
 40
0.0
  9
$DIMTIX
 70
     0
  9
$DIMSOXD
 70
     0
  9
$DIMSAH
 70
     0
  9
$DIMBLK1
  1

  9
$DIMBLK2
  1

  9
$DIMSTYLE
  2
STANDARD
  9
$DIMCLRD
 70
     0
  9
$DIMCLRE
 70
     0
  9
$DIMCLRT
 70
     0
  9
$DIMTFAC
 40
1.0
  9
$DIMGAP
 40
0.09
  9
$LUNITS
 70
     2
  9
$LUPREC
 70
     4
  9
$SKETCHINC
 40
0.1
  9
$FILLETRAD
 40
0.0
  9
$AUNITS
 70
     0
  9
$AUPREC
 70
     0
  9
$MENU
  1
.
  9
$ELEVATION
 40
0.0
  9
$PELEVATION
 40
0.0
  9
$THICKNESS
 40
0.0
  9
$LIMCHECK
 70
     0
  9
$BLIPMODE
 70
     0
  9
$CHAMFERA
 40
0.0
  9
$CHAMFERB
 40
0.0
  9
$SKPOLY
 70
     0
  9
$TDCREATE
 40
2458060.468368056230247
  9
$TDUPDATE
 40
2459102.8169097220525146
  9
$TDINDWG
 40
0.5643936343
  9
$TDUSRTIMER
 40
0.5643936343
  9
$USRTIMER
 70
     1
  9
$ANGBASE
 50
0.0
  9
$ANGDIR
 70
     0
  9
$PDMODE
 70
     0
  9
$PDSIZE
 40
0.3125
  9
$PLINEWID
 40
0.0
  9
$COORDS
 70
     1
  9
$SPLFRAME
 70
     0
  9
$SPLINETYPE
 70
     6
  9
$SPLINESEGS
 70
     8
  9
$ATTDIA
 70
     1
  9
$ATTREQ
 70
     1
  9
$HANDLING
 70
     1
  9
$HANDSEED
  5
130CD
  9
$SURFTAB1
 70
     6
  9
$SURFTAB2
 70
     6
  9
$SURFTYPE
 70
     6
  9
$SURFU
 70
     6
  9
$SURFV
 70
     6
  9
$UCSNAME
  2

  9
$UCSORG
 10
0.0
 20
0.0
 30
0.0
  9
$UCSXDIR
 10
1.0
 20
0.0
 30
0.0
  9
$UCSYDIR
 10
0.0
 20
1.0
 30
0.0
  9
$PUCSNAME
  2

  9
$PUCSORG
 10
0.0
 20
0.0
 30
0.0
  9
$PUCSXDIR
 10
1.0
 20
0.0
 30
0.0
  9
$PUCSYDIR
 10
0.0
 20
1.0
 30
0.0
  9
$USERI1
 70
     0
  9
$USERI2
 70
     0
  9
$USERI3
 70
     0
  9
$USERI4
 70
     0
  9
$USERI5
 70
     0
  9
$USERR1
 40
0.0
  9
$USERR2
 40
0.0
  9
$USERR3
 40
0.0
  9
$USERR4
 40
0.0
  9
$USERR5
 40
0.0
  9
$WORLDVIEW
 70
     1
  9
$SHADEDGE
 70
     3
  9
$SHADEDIF
 70
    70
  9
$TILEMODE
 70
     1
  9
$MAXACTVP
 70
    64
  9
$PLIMCHECK
 70
     0
  9
$PEXTMIN
 10
1.0000000000000000E+20
 20
1.0000000000000000E+20
 30
1.0000000000000000E+20
  9
$PEXTMAX
 10
-1.0000000000000000E+20
 20
-1.0000000000000000E+20
 30
-1.0000000000000000E+20
  9
$PLIMMIN
 10
0.0
 20
0.0
  9
$PLIMMAX
 10
12.0
 20
9.0
  9
$UNITMODE
 70
     0
  9
$VISRETAIN
 70
     1
  9
$PLINEGEN
 70
     0
  9
$PSLTSCALE
 70
     1
  0
ENDSEC
  0
SECTION
  2
TABLES
  0
TABLE
  2
VPORT
 70
     1
  0
VPORT
  2
*ACTIVE
 70
     0
 10
0.0
 20
0.0
 11
1.0
 21
1.0
 12
202.8834504469714091
 22
-16.7265259684881507
 13
0.0
 23
0.0
 14
1.0
 24
1.0
 15
0.0
 25
0.0
 16
0.0
 26
0.0
 36
96.5995694866707311
 17
3303.693115234375
 27
195.2615115758877096
 37
0.0
 40
20.0061671838754691
 41
2.6486111111111108
 42
50.0
 43
0.0
 44
0.0
 50
0.0
 51
0.0
 71
     0
 72
   100
 73
     1
 74
     1
 75
     0
 76
     0
 77
     0
 78
     0
  0
ENDTAB
  0
TABLE
  2
LTYPE
 70
     2
  0
LTYPE
  2
CONTINUOUS
 70
     0
  3
Solid line
 72
    65
 73
     0
 40
0.0
  0
LTYPE
  2
PHANTOM2
 70
     0
  3
___ _ _ ___ _ _ ___ _ _ ___ _ _
 72
    65
 73
     6
 40
1.25
 49
0.625
 49
-0.125
 49
0.125
 49
-0.125
 49
0.125
 49
-0.125
  0
ENDTAB
  0
TABLE
  2
LAYER
 70
     2
  0
LAYER
  2
0
 70
     0
 62
   255
  6
CONTINUOUS
  0
LAYER
  2
DEFPOINTS
 70
     0
 62
     7
  6
CONTINUOUS
  0
ENDTAB
  0
TABLE
  2
STYLE
 70
     1
  0
STYLE
  2
STANDARD
 70
     0
 40
0.0
 41
0.8
 50
0.0
 71
     0
 42
0.2
  3
txt
  4

  0
ENDTAB
  0
TABLE
  2
VIEW
 70
     0
  0
ENDTAB
  0
TABLE
  2
UCS
 70
     0
  0
ENDTAB
  0
TABLE
  2
APPID
 70
     9
  0
APPID
  2
ACAD
 70
     0
  0
APPID
  2
ACAD_MLEADERVER
 70
     0
  0
APPID
  2
ACAD_EXEMPT_FROM_CAD_STANDARDS
 70
     0
  0
APPID
  2
ACAD_NAV_VCDISPLAY
 70
     0
  0
APPID
  2
ACAECLAYERSTANDARD
 70
     0
  0
APPID
  2
ACCMTRANSPARENCY
 70
     0
  0
APPID
  2
ACAD_DSTYLE_DIMJAG
 70
     0
  0
APPID
  2
ACAD_DSTYLE_DIMTALN
 70
     0
  0
APPID
  2
ACDBATTR
 70
     0
  0
ENDTAB
  0
TABLE
  2
DIMSTYLE
 70
     1
  0
DIMSTYLE
  2
STANDARD
 70
     0
  3

  4

  5

  6

  7

 40
1.0
 41
0.1875
 42
0.0625
 43
0.38
 44
0.125
 45
0.0
 46
0.0
 47
0.01
 48
0.01
140
0.15625
141
0.09
142
0.0
143
25.3999999999999986
144
1.0
145
0.0
146
1.0
147
0.09
 71
     1
 72
     0
 73
     1
 74
     1
 75
     0
 76
     0
 77
     0
 78
     4
170
     0
171
     2
172
     0
173
     0
174
     0
175
     0
176
     0
177
     0
178
     0
  0
ENDTAB
  0
ENDSEC
  0
SECTION
  2
BLOCKS
  0
BLOCK
  8
0
  2
$MODEL_SPACE
 70
     0
 10
0.0
 20
0.0
 30
0.0
  3
$MODEL_SPACE
  1

  0
ENDBLK
  5
21
  8
0
  0
BLOCK
 67
     1
  8
0
  2
$PAPER_SPACE
 70
     0
 10
0.0
 20
0.0
 30
0.0
  3
$PAPER_SPACE
  1

  0
ENDBLK
  5
1D
 67
     1
  8
0
  0
BLOCK
  8
0
  2
_FILLED
 70
     0
 10
0.0
 20
0.0
 30
0.0
  3
_FILLED
  1

  0
SOLID
  5
12341
  8
0
  6
BYBLOCK
 62
     0
 10
0.0
 20
0.0
 30
0.0
 11
-1.0
 21
0.1666666667
 31
0.0
 12
-1.0
 22
-0.1666666667
 32
0.0
 13
-1.0
 23
-0.1666666667
 33
0.0
  0
ENDBLK
  5
12342
  8
0
  6
BYBLOCK
 62
     0
  0
ENDSEC
  0
SECTION
  2
ENTITIES
  0
ATTDEF
  5
12740
  8
DEFPOINTS
 10
3507.7027181703338101
 20
188.4487613319647892
 30
0.0
 40
0.001
  1
K-96001IN
  3

  2
MODELNUMBER
 70
     0
1001
ACDBATTR
1070
     0
1070
     1
  0
ATTDEF
  5
12741
  8
DEFPOINTS
 10
3507.7027181703338101
 20
188.4470946652980956
 30
0.0
 40
0.001
  1
PURECLEAN
  3

  2
TRADENAME
 70
     0
1001
ACDBATTR
1070
     0
1070
     1
  0
ATTDEF
  5
12742
  8
DEFPOINTS
 10
3507.7027181703338101
 20
188.4454279986314873
 30
0.0
 40
0.001
  1
TOILET SEAT
  3

  2
PRODUCT
 70
     0
1001
ACDBATTR
1070
     0
1070
     1
  0
ARC
  5
12DB3
  8
0
 10
3507.7404560676081928
 20
322.2870775454325099
 30
0.0
 40
153.6600405709637016
 50
267.7152184427098973
 51
269.9858330390080141
  0
ARC
  5
12DB4
  8
0
 10
3501.6737993600540904
 20
169.9931785582182044
 30
0.0
 40
1.245393370448973
 50
179.8393914002357121
 51
267.2747224628723188
  0
ARC
  5
12DB5
  8
0
 10
3507.7985105897550966
 20
152.2061789303525075
 30
0.0
 40
36.2387821119161018
 50
90.1518581265693228
 51
97.1599168696996429
  0
ARC
  5
12DB6
  8
0
 10
3503.2924589703529819
 20
188.0849286272211032
 30
0.0
 40
0.0781856881078175
 50
97.8798060358158892
 51
179.9943063453573018
  0
LINE
  5
12DB7
  8
0
 10
3500.4284108825308977
 20
169.9966695766690066
 30
0.0
 11
3500.5145474875312175
 21
186.3216335726689863
 31
0.0
  0
ARC
  5
12DB8
  8
0
 10
3500.9913350295469172
 20
186.2764340694297118
 30
0.0
 40
0.479216251413267
 50
94.5759218114687314
 51
174.3306423405146859
  0
LINE
  5
12DB9
  8
0
 10
3500.9531031439519211
 20
186.7541228159398941
 30
0.0
 11
3502.7436402526309394
 21
186.8200932987689953
 31
0.0
  0
ARC
  5
12DBA
  8
0
 10
3502.4891530760642127
 20
187.7151652469104874
 30
0.0
 40
0.1675915346159749
 50
15.9803026625881106
 51
69.6159343263531696
  0
ARC
  5
12DBB
  8
0
 10
3502.4131752964731277
 20
187.5106931189345971
 30
0.0
 40
0.3857233161393486
 50
69.6159343263531696
 51
83.3169427129273856
  0
ARC
  5
12DBC
  8
0
 10
3502.369974299137084
 20
187.1419996964341124
 30
0.0
 40
0.7569391104772528
 50
83.3169427129273856
 51
100.997832861462399
  0
ARC
  5
12DBD
  8
0
 10
3504.6931787915818859
 20
171.97045014475529
 30
0.0
 40
16.1047559821373305
 50
98.8137079495266448
 51
103.8112106299113009
  0
ARC
  5
12DBE
  8
0
 10
3500.9675215834290611
 20
187.1025864167002055
 30
0.0
 40
0.5207539474487337
 50
103.2012844567420018
 51
177.4866648353128937
  0
ARC
  5
12DBF
  8
0
 10
3520.3587864648361574
 20
186.5179349033500102
 30
0.0
 40
19.9207827570865099
 50
178.2524847979487959
 51
182.3842870363025952
  0
ARC
  5
12DC0
  8
0
 10
3493.678612367470123
 20
185.5027604904034888
 30
0.0
 40
6.7792013439813381
 50
354.7200843977103091
 51
1.5759082601520831
  0
ARC
  5
12DC1
  8
0
 10
3499.7109581235490623
 20
184.945289393977788
 30
0.0
 40
0.7211513818047829
 50
348.128137365865598
 51
354.7200843977103091
  0
ARC
  5
12DC2
  8
0
 10
3500.460142285296115
 20
184.7597206876276914
 30
0.0
 40
0.0572123539697774
 50
139.4283451545828996
 51
173.8683283493344049
  0
ARC
  5
12DC3
  8
0
 10
3501.9774732253581533
 20
170.2795638019015882
 30
0.0
 40
1.623860139069748
 50
180.8578356636699027
 51
201.6879643485461031
  0
ARC
  5
12DC4
  8
0
 10
3498.2462210086378036
 20
187.1828894403585934
 30
0.0
 40
4.441868535667008
 50
5.0246529658580776
 51
7.4822376388920091
  0
ARC
  5
12DC5
  8
0
 10
3478.5259224060628185
 20
185.4490364413580039
 30
0.0
 40
24.2382425268021997
 50
3.4008949173347491
 51
5.0246529658580776
  0
ARC
  5
12DC6
  8
0
 10
3502.8461660843208847
 20
186.8911826277804948
 30
0.0
 40
0.124760726444908
 50
181.9687144491907986
 51
214.7366531170274015
  0
ARC
  5
12DC7
  8
0
 10
3502.9466995213479095
 20
186.9608904708051114
 30
0.0
 40
0.247096965309289
 50
214.7366531170274015
 51
228.4373913043255016
  0
ARC
  5
12DC8
  8
0
 10
3502.9353837855651363
 20
186.9481284855847889
 30
0.0
 40
0.230040759896918
 50
228.4373913043255016
 51
250.0673494423726027
  0
ARC
  5
12DC9
  8
0
 10
3503.0570735997180236
 20
190.5006467551212097
 30
0.0
 40
3.7740872930640621
 50
266.9605683251368191
 51
272.3618309063998026
  0
LINE
  5
12DCA
  8
0
 10
3503.2126039351310283
 20
186.7297655304691091
 30
0.0
 11
3503.2508415641082138
 21
186.7299214954593936
 31
0.0
  0
ARC
  5
12DCB
  8
0
 10
3478.9863869981718381
 20
186.7788268209637863
 30
0.0
 40
24.2272672311772688
 50
0.8855882882090913
 51
2.363178036326139
  0
ARC
  5
12DCC
  8
0
 10
3503.1342707826279366
 20
187.7802116909552979
 30
0.0
 40
0.0588283576390652
 50
357.6533243795531121
 51
96.7232186035929544
  0
LINE
  5
12DCD
  8
0
 10
3503.127383558487054
 20
187.8386355029340962
 30
0.0
 11
3502.8280811097420155
 21
187.8049403845292886
 31
0.0
  0
ARC
  5
12DCE
  8
0
 10
3502.8362736273297742
 20
187.7274274483744989
 30
0.0
 40
0.0779446766350845
 50
96.0333213123344933
 51
165.8100445485470118
  0
ARC
  5
12DCF
  8
0
 10
3502.8460304415398241
 20
187.7248650254757933
 30
0.0
 40
0.088031988581335
 50
165.7498545561722096
 51
181.7272750437867899
  0
LINE
  5
12DD0
  8
0
 10
3502.7580384525322188
 20
187.7222115590697058
 30
0.0
 11
3502.7709195026000089
 21
186.7872290321544142
 31
0.0
  0
ARC
  5
12DD1
  8
0
 10
3498.4249853018359318
 20
185.1076051315639006
 30
0.0
 40
4.9077361152369461
 50
29.8764654562752092
 51
30.0891899972150014
  0
ARC
  5
12DD2
  8
0
 10
3502.6866989098070917
 20
187.5563617840157065
 30
0.0
 40
0.0074172151833688
 50
213.1699068716465888
 51
326.939163599375604
  0
ARC
  5
12DD3
  8
0
 10
3504.5931328749561544
 20
186.4739282265670113
 30
0.0
 40
2.184890433872384
 50
149.0069966299379018
 51
150.4247763873183033
  0
LINE
  5
12DD4
  8
0
 10
3502.7201789477830971
 20
187.5990012835690948
 30
0.0
 11
3502.72411584593101
 21
187.5990012835690948
 31
0.0
  0
LINE
  5
12DD5
  8
0
 10
3502.72411584593101
 20
187.5990012835690948
 30
0.0
 11
3502.751277879481222
 21
187.5523177081689994
 31
0.0
  0
ARC
  5
12DD6
  8
0
 10
3502.7574719322669807
 20
187.5559216110009118
 30
0.0
 40
0.0071661988206075
 50
210.1922470103162937
 51
294.2864621289460274
  0
LINE
  5
12DD7
  8
0
 10
3502.7339583857310572
 20
186.836562277369012
 30
0.0
 11
3502.7339566534310507
 21
187.3360654587690135
 31
0.0
  0
ARC
  5
12DD8
  8
0
 10
3488.1872361308551262
 20
186.9131220284762946
 30
0.0
 40
14.55286772794895
 50
1.6653958922697949
 51
2.3324022988591109
  0
ARC
  5
12DD9
  8
0
 10
3499.3988073050518324
 20
187.2727150309027877
 30
0.0
 40
3.3373599714088491
 50
3.9975994867304219
 51
5.6106433591221423
  0
LINE
  5
12DDA
  8
0
 10
3502.6904926859301668
 20
187.3374071617031973
 30
0.0
 11
3502.7339231244582152
 21
187.337180708687697
 31
0.0
  0
ARC
  5
12DDB
  8
0
 10
3502.2829733917310477
 20
187.4701710747627033
 30
0.0
 40
0.4184968938964756
 50
359.9942658623958209
 51
11.3949946384302301
  0
ARC
  5
12DDC
  8
0
 10
3488.6891178795781343
 20
186.8387875555798132
 30
0.0
 40
14.0265680818280494
 50
2.036844456407445
 51
2.5797783343844221
  0
ARC
  5
12DDD
  8
0
 10
3500.7631053530240024
 20
184.0418075137187088
 30
0.0
 40
2.4467017983833128
 50
97.6341190008549944
 51
100.9770475871765001
  0
ARC
  5
12DDE
  8
0
 10
3500.830103894720196
 20
183.6963911948440114
 30
0.0
 40
2.7985557992619801
 50
100.9770475871765001
 51
112.0118866757348997
  0
ARC
  5
12DDF
  8
0
 10
3500.7695967401100461
 20
183.8460622509174129
 30
0.0
 40
2.6371168300349201
 50
112.0118866757348997
 51
137.5503477169098971
  0
ARC
  5
12DE0
  8
0
 10
3501.561466097111861
 20
183.5631151557240059
 30
0.0
 40
3.4278939625366012
 50
143.0022996273320928
 51
175.8099865209478025
  0
LINE
  5
12DE1
  8
0
 10
3498.1427341158992022
 20
183.8135720562690096
 30
0.0
 11
3498.2547375882240885
 21
179.0569663284508977
 31
0.0
  0
ARC
  5
12DE2
  8
0
 10
3503.7223163470707732
 20
179.025044266588111
 30
0.0
 40
5.477966761740916
 50
179.6685027368789065
 51
184.4773206586326921
  0
ARC
  5
12DE3
  8
0
 10
3499.1902764223741542
 20
178.629602352525211
 30
0.0
 40
0.9297672870836478
 50
181.98423361962341
 51
212.7689496508533011
  0
ARC
  5
12DE4
  8
0
 10
3498.7384650950548348
 20
178.3773706698347894
 30
0.0
 40
0.4146081625840451
 50
217.2582385679829997
 51
248.5744927492592069
  0
ARC
  5
12DE5
  8
0
 10
3498.8119093196228278
 20
178.6309832877267922
 30
0.0
 40
0.6779576678236924
 50
250.6263608864983894
 51
271.3496564032433866
  0
ARC
  5
12DE6
  8
0
 10
3500.7113109016208909
 20
183.7711153265082089
 30
0.0
 40
1.143317046205393
 50
104.2922965052390936
 51
123.0292150817723069
  0
ARC
  5
12DE7
  8
0
 10
3500.7118252627178663
 20
183.7703241633510913
 30
0.0
 40
1.1442607127139011
 50
123.0292150817723069
 51
177.8307873346940085
  0
ARC
  5
12DE8
  8
0
 10
1896.5428199552279693
 20
233.2571492038854899
 30
0.0
 40
1603.7878979868798979
 50
358.0633028471260104
 51
358.2333364585849722
  0
ARC
  5
12DE9
  8
0
 10
3406.7848626809118286
 20
182.188886459775091
 30
0.0
 40
92.6826749544305528
 50
357.8042344270908188
 51
358.0633028471260104
  0
ARC
  5
12DEA
  8
0
 10
3498.2958572425968669
 20
178.6801617092505978
 30
0.0
 40
1.104439139125299
 50
331.3762819288734249
 51
357.8042344270908188
  0
ARC
  5
12DEB
  8
0
 10
3498.9156177787981505
 20
178.3799299439016863
 30
0.0
 40
0.4179288058780909
 50
291.4480266684932985
 51
326.7978413303018215
  0
ARC
  5
12DEC
  8
0
 10
3498.8739368960500542
 20
178.5054431778108892
 30
0.0
 40
0.5500369439236107
 50
275.0992028722953933
 51
290.7083842629714923
  0
ARC
  5
12DED
  8
0
 10
3498.817534887689817
 20
179.2117364874202963
 30
0.0
 40
1.258565282388393
 50
270.4708620684685911
 51
274.7988809546263269
  0
ARC
  5
12DEE
  8
0
 10
3507.664469057343922
 20
322.2870769353472724
 30
0.0
 40
153.6600399606342933
 50
270.014166592885374
 51
272.2847815595325756
  0
ARC
  5
12DEF
  8
0
 10
3513.7311261529939657
 20
169.9931776699420993
 30
0.0
 40
1.2453924638550551
 50
272.7252608050270055
 51
0.1606495646487998
  0
ARC
  5
12DF0
  8
0
 10
3507.4625412408468037
 20
149.9544298661473931
 30
0.0
 40
38.4911516326432732
 50
83.045360788258435
 51
89.6428642154808557
  0
ARC
  5
12DF1
  8
0
 10
3512.1124660439018044
 20
188.0849284563769004
 30
0.0
 40
0.0781858700075935
 50
359.7691026219678747
 51
82.1201440498572452
  0
ARC
  5
12DF2
  8
0
 10
3514.4205350134448054
 20
186.2902481618951072
 30
0.0
 40
0.4711214439350079
 50
4.0810815319161531
 51
86.1700744599623931
  0
LINE
  5
12DF3
  8
0
 10
3514.452003590197819
 20
186.7603174585021009
 30
0.0
 11
3512.6661236082481992
 21
186.8275362168500067
 31
0.0
  0
ARC
  5
12DF4
  8
0
 10
3512.9157720305988732
 20
187.7151652469104874
 30
0.0
 40
0.1675915346159749
 50
110.384065673646802
 51
164.0196973374119125
  0
ARC
  5
12DF5
  8
0
 10
3512.9917498101890487
 20
187.5106931189345971
 30
0.0
 40
0.3857233161393486
 50
96.683057287072657
 51
110.384065673646802
  0
ARC
  5
12DF6
  8
0
 10
3513.0349508075250924
 20
187.1419996964341124
 30
0.0
 40
0.7569391104772528
 50
79.0021671385375583
 51
96.683057287072657
  0
ARC
  5
12DF7
  8
0
 10
3510.7117463150798358
 20
171.97045014475529
 30
0.0
 40
16.1047559821373305
 50
76.1887893700886991
 51
81.1862920504733552
  0
ARC
  5
12DF8
  8
0
 10
3514.4374035232331153
 20
187.1025864167002055
 30
0.0
 40
0.5207539474487337
 50
2.513335164687128
 51
76.798715543257984
  0
ARC
  5
12DF9
  8
0
 10
3513.4291216729229745
 20
170.2792282357856948
 30
0.0
 40
1.6221845713678791
 50
338.3012537328997951
 51
359.1531317583492751
  0
ARC
  5
12DFA
  8
0
 10
3517.158704098023918
 20
187.1828894403585934
 30
0.0
 40
4.441868535667008
 50
172.517762361107998
 51
174.9753470341418904
  0
ARC
  5
12DFB
  8
0
 10
3512.4695413210979495
 20
186.9481284855847889
 30
0.0
 40
0.230040759896918
 50
289.9326505576274258
 51
311.5626086956744984
  0
ARC
  5
12DFC
  8
0
 10
3512.3478515069441528
 20
190.5006467551212097
 30
0.0
 40
3.7740872930640621
 50
267.6381690936000837
 51
273.0394316748631809
  0
LINE
  5
12DFD
  8
0
 10
3512.1923211715311481
 20
186.7297655304691091
 30
0.0
 11
3512.1581110778961374
 21
186.7299214954593936
 31
0.0
  0
ARC
  5
12DFE
  8
0
 10
3512.2848547253261131
 20
187.7648824612319061
 30
0.0
 40
0.0741147334904586
 50
95.6628030346614935
 51
169.9608478655812007
  0
LINE
  5
12DFF
  8
0
 10
3512.2775415481751224
 20
187.8386355029340962
 30
0.0
 11
3512.5768439969201609
 21
187.8049403845292886
 31
0.0
  0
ARC
  5
12E00
  8
0
 10
3512.568651479332857
 20
187.7274274483744989
 30
0.0
 40
0.0779446766350845
 50
14.1899554514530202
 51
83.9666786876655067
  0
ARC
  5
12E01
  8
0
 10
3512.5588946651218976
 20
187.7248650254757933
 30
0.0
 40
0.088031988581335
 50
358.2727249562115048
 51
14.25014544382773
  0
LINE
  5
12E02
  8
0
 10
3512.6468866541299576
 20
187.7222115590697058
 30
0.0
 11
3512.6340056040621675
 21
186.7872290321544142
 31
0.0
  0
ARC
  5
12E03
  8
0
 10
2216.5740531069827739
 20
157.8442395398566873
 30
0.0
 40
1298.7137364735231131
 50
1.1977727902335
 51
1.291917013375278
  0
ARC
  5
12E04
  8
0
 10
2145.906236128735145
 20
165.3135798783596044
 30
0.0
 40
1369.239194360322017
 50
0.6721694751135935
 51
0.8234703039078436
  0
LINE
  5
12E05
  8
0
 10
3514.9765137214308197
 20
169.9966695762689994
 30
0.0
 11
3514.8904618518208736
 21
186.3237769780025133
 31
0.0
  0
ARC
  5
12E06
  8
0
 10
3513.0969171373699282
 20
186.2867901758120865
 30
0.0
 40
0.6817082488917661
 50
132.7691703635883869
 51
134.1408047029551938
  0
ARC
  5
12E07
  8
0
 10
3512.5362913362650943
 20
186.8980406644083132
 30
0.0
 40
0.1477406375166985
 50
311.4060137078283788
 51
353.6081039525398069
  0
ARC
  5
12E08
  8
0
 10
3535.1464347413570977
 20
185.5758819569959996
 30
0.0
 40
22.5012372819066115
 50
174.9107010318599862
 51
176.6733483617869922
  0
LINE
  5
12E09
  8
0
 10
3512.1906512790310444
 20
188.0846133744690007
 30
0.0
 11
3512.1906512790310444
 21
187.5857858221689867
 31
0.0
  0
ARC
  5
12E0A
  8
0
 10
3514.8291647370729152
 20
187.4371921290560863
 30
0.0
 40
2.6426943360709951
 50
176.7766669205198014
 51
179.2391909391691058
  0
LINE
  5
12E0B
  8
0
 10
3512.2018154985307774
 20
187.4733690926690031
 30
0.0
 11
3512.1749033424312074
 21
187.4709572450690018
 31
0.0
  0
LINE
  5
12E0C
  8
0
 10
3512.1749033424312074
 20
187.4709572450690018
 30
0.0
 11
3512.1749033424312074
 21
186.7298449389494124
 31
0.0
  0
LINE
  5
12E0D
  8
0
 10
3512.2118747726399306
 20
187.7778022223110952
 30
0.0
 11
3512.1920713913100371
 21
186.7297666692255973
 31
0.0
  0
LINE
  5
12E0E
  8
0
 10
3512.6465608636308389
 20
187.6956208482689874
 30
0.0
 11
3512.74622516695581
 21
187.6930127303913878
 31
0.0
  0
LINE
  5
12E0F
  8
0
 10
3512.7454185588539985
 20
187.6859866853355925
 30
0.0
 11
3512.6464229381967925
 21
187.688552323814605
 31
0.0
  0
LINE
  5
12E10
  8
0
 10
3512.6461311261068658
 20
187.6673708825375968
 30
0.0
 11
3512.7430803228130571
 21
187.66503336487159
 31
0.0
  0
LINE
  5
12E11
  8
0
 10
3512.6456581171860307
 20
187.6330371074620871
 30
0.0
 11
3512.7395390518308886
 21
187.6309839592690878
 31
0.0
  0
LINE
  5
12E12
  8
0
 10
3512.6450360577109677
 20
187.5878843646233918
 30
0.0
 11
3512.7352220017819491
 21
187.5858081304691041
 31
0.0
  0
LINE
  5
12E13
  8
0
 10
3512.6443341743311066
 20
187.536937532449798
 30
0.0
 11
3512.7306907463139396
 21
187.5354993597966882
 31
0.0
  0
LINE
  5
12E14
  8
0
 10
3512.6435001673139595
 20
187.4764003880555947
 30
0.0
 11
3512.7254629012968508
 21
187.4747502946958946
 31
0.0
  0
LINE
  5
12E15
  8
0
 10
3512.7142659828009528
 20
187.3375527560660032
 30
0.0
 11
3512.6709662183311593
 21
187.3371804009690891
 31
0.0
  0
LINE
  5
12E16
  8
0
 10
3512.6709662183311593
 20
187.3371804009690891
 30
0.0
 11
3512.6709662181310705
 21
186.8372955233010089
 31
0.0
  0
LINE
  5
12E17
  8
0
 10
3512.6709662183288856
 20
187.3307365334119936
 30
0.0
 11
3512.641498981075074
 21
187.3311424971039116
 31
0.0
  0
LINE
  5
12E18
  8
0
 10
3512.6422857357429166
 20
187.3882497876078901
 30
0.0
 11
3512.7182724877948203
 21
187.3878469523976094
 31
0.0
  0
ARC
  5
12E19
  8
0
 10
3502.8853481131591252
 20
187.0276751575094067
 30
0.0
 40
0.1363763737688225
 50
125.9319822489490974
 51
150.4753629921636957
  0
ARC
  5
12E1A
  8
0
 10
3502.8577225921358149
 20
187.0457208679034125
 30
0.0
 40
0.1062083814973339
 50
94.7433674545942068
 51
119.5644553984720062
  0
LINE
  5
12E1B
  8
0
 10
3502.8489399189297728
 20
187.1515654943690095
 30
0.0
 11
3503.1443260223318248
 21
187.2043714403691013
 31
0.0
  0
ARC
  5
12E1C
  8
0
 10
3503.1570932586059826
 20
187.1478753815104881
 30
0.0
 40
0.0579206956851039
 50
22.7928508059262285
 51
102.7340643828716935
  0
LINE
  5
12E1D
  8
0
 10
3503.2107484340908741
 20
187.1531980826885047
 30
0.0
 11
3503.2128324885229631
 21
186.7297665724518083
 31
0.0
  0
LINE
  5
12E1E
  8
0
 10
3503.2142732826309839
 20
188.0849363967689953
 30
0.0
 11
3503.2182242040307756
 21
187.4721262310690975
 31
0.0
  0
LINE
  5
12E1F
  8
0
 10
3503.2036981641281272
 20
187.473317556767114
 30
0.0
 11
3503.2300212614309203
 21
187.470957245469009
 31
0.0
  0
LINE
  5
12E20
  8
0
 10
3503.2300212614309203
 20
187.470957245469009
 30
0.0
 11
3503.2300213030312079
 21
186.7300733751376924
 31
0.0
  0
ARC
  5
12E21
  8
0
 10
3503.204457808179086
 20
188.0778701177625862
 30
0.0
 40
0.0119153757729101
 50
9.1228789909234713
 51
34.5193019754978678
  0
ARC
  5
12E22
  8
0
 10
3503.0428653277308513
 20
188.0396669828218137
 30
0.0
 40
0.1779328298387422
 50
6.3449273034002447
 51
13.0218680376068594
  0
ARC
  5
12E23
  8
0
 10
3499.1912992144611962
 20
187.6996638591980968
 30
0.0
 40
4.0444331856185602
 50
1.681069972885219
 51
5.1019924818523954
  0
ARC
  5
12E24
  8
0
 10
3476.9193288261599264
 20
186.8697436743181015
 30
0.0
 40
26.3317538916608704
 50
1.239695584957371
 51
2.0644536481678002
  0
ARC
  5
12E25
  8
0
 10
3441.2929550232997826
 20
186.0261134506187943
 30
0.0
 40
61.9680833790351784
 50
1.0426414632789931
 51
1.306870907368421
  0
LINE
  5
12E26
  8
0
 10
3503.2508415641082138
 20
186.7299214954593936
 30
0.0
 11
3503.2507783486307744
 21
187.1537208567690129
 31
0.0
  0
ARC
  5
12E27
  8
0
 10
3503.2930339433469271
 20
187.1508496033063977
 30
0.0
 40
0.0425955951534901
 50
148.4284136584381883
 51
173.1931713166476072
  0
ARC
  5
12E28
  8
0
 10
3503.3044573068891623
 20
187.1438297098272017
 30
0.0
 40
0.0560035084532637
 50
112.6716135348074062
 51
148.4284136584381883
  0
ARC
  5
12E29
  8
0
 10
3503.3287105124491063
 20
187.1005413643310078
 30
0.0
 40
0.1054491265812511
 50
94.9669341240660998
 51
115.7667869282446986
  0
ARC
  5
12E2A
  8
0
 10
3512.0787580059600259
 20
187.1113071544299942
 30
0.0
 40
0.0945218992416507
 50
51.0689982176153308
 51
86.0048647926282115
  0
ARC
  5
12E2B
  8
0
 10
3512.1070318585311725
 20
187.1481158570531136
 30
0.0
 40
0.0481348507340774
 50
22.8871529312541284
 51
49.7170523347616111
  0
ARC
  5
12E2C
  8
0
 10
3512.1134944023219759
 20
187.1515915738883962
 30
0.0
 40
0.0408351270736346
 50
5.0202054867688322
 51
21.9208099703246191
  0
ARC
  5
12E2D
  8
0
 10
3512.2079257140599111
 20
188.0747485055665891
 30
0.0
 40
0.0198988587683986
 50
150.2399662713212081
 51
168.623823308623713
  0
ARC
  5
12E2E
  8
0
 10
3512.5462545178202163
 20
188.0066758348891938
 30
0.0
 40
0.365007925510361
 50
168.623823308623713
 51
177.5597282815710116
  0
ARC
  5
12E2F
  8
0
 10
3468.8416255547481342
 20
189.8692162391982947
 30
0.0
 40
43.3792905550635624
 50
357.1503876437017766
 51
357.5597282815709832
  0
ARC
  5
12E30
  8
0
 10
3522.7829347148281158
 20
187.1842246477241076
 30
0.0
 40
10.6288015585231594
 50
177.1503876437033966
 51
180.156649923418712
  0
ARC
  5
12E31
  8
0
 10
3544.7328092759339597
 20
187.2442370040585899
 30
0.0
 40
32.5787581582794203
 50
180.156649923418712
 51
180.9045566440113078
  0
ARC
  5
12E32
  8
0
 10
3512.2494284391691508
 20
187.1369300506860895
 30
0.0
 40
0.0683600996189343
 50
80.5928338403682432
 51
135.5001941235283027
  0
LINE
  5
12E33
  8
0
 10
3512.2606018533310817
 20
187.2043708249690042
 30
0.0
 11
3512.5562605441409687
 21
187.1515386752305972
 31
0.0
  0
ARC
  5
12E34
  8
0
 10
3512.5527811877877866
 20
187.0636901386079956
 30
0.0
 40
0.0879174118554179
 50
13.9481099057798907
 51
87.7319110666454378
  0
LINE
  5
12E36
  8
0
 10
3512.1581110778961374
 20
186.7299214954593936
 30
0.0
 11
3503.2508415641082138
 21
186.7299214954593936
 31
0.0
  0
LINE
  5
12E37
  8
0
 10
3503.3195806410308251
 20
187.2055945115691031
 30
0.0
 11
3512.0853435143308161
 21
187.2055993625691031
 31
0.0
  0
LINE
  5
12E38
  8
0
 10
3515.0512075486308277
 20
181.3765375174941141
 30
0.0
 11
3515.0511290503791315
 21
170.255252184025295
 31
0.0
  0
LINE
  5
12E39
  8
0
 10
3500.3537165888978961
 20
181.3765375174941141
 30
0.0
 11
3500.3537950871491375
 21
170.255252184025295
 31
0.0
  0
ARC
  5
12E3A
  8
0
 10
3501.2122833506359711
 20
184.6546697652520095
 30
0.0
 40
0.8166273534310223
 50
172.1764218522799013
 51
178.1155632329206071
  0
ARC
  5
12E3B
  8
0
 10
3535.5260310627340914
 20
183.5256963219387956
 30
0.0
 40
35.148942496532861
 50
178.1155632329206071
 51
179.94321545449219
  0
ARC
  5
12E3C
  8
0
 10
3387.9993055651511895
 20
183.6719067561367069
 30
0.0
 40
112.3778554539765935
 50
358.8296260358005725
 51
359.94321545449219
  0
LINE
  5
12E3D
  8
0
 10
3512.1749033424312074
 20
187.431668586080491
 30
0.0
 11
3512.1570138574229532
 21
187.431668586080491
 31
0.0
  0
ENDSEC
  0
EOF
