  0
SECTION
  2
HEADER
  9
$ACADVER
  1
AC1009
  9
$INSBASE
 10
4587.0124617185356328
 20
229.9390550332317957
 30
0.0
  9
$EXTMIN
 10
4575.3982884901861325
 20
223.9654385265274925
 30
0.0
  9
$EXTMAX
 10
4598.6266349468869521
 20
229.9435059484563908
 30
0.0
  9
$LIMMIN
 10
0.0
 20
0.0
  9
$LIMMAX
 10
11.6929133858000007
 20
8.2677165353999982
  9
$ORTHOMODE
 70
     0
  9
$REGENMODE
 70
     1
  9
$FILLMODE
 70
     1
  9
$QTEXTMODE
 70
     0
  9
$MIRRTEXT
 70
     0
  9
$DRAGMODE
 70
     2
  9
$LTSCALE
 40
0.6431102362
  9
$OSMODE
 70
  4095
  9
$ATTMODE
 70
     1
  9
$TEXTSIZE
 40
0.2
  9
$TRACEWID
 40
0.05
  9
$TEXTSTYLE
  7
STANDARD
  9
$CLAYER
  8
0
  9
$CELTYPE
  6
BYLAYER
  9
$CECOLOR
 62
   256
  9
$DIMSCALE
 40
1.0
  9
$DIMASZ
 40
0.1875
  9
$DIMEXO
 40
0.0625
  9
$DIMDLI
 40
0.4443307087
  9
$DIMRND
 40
0.0
  9
$DIMDLE
 40
0.0
  9
$DIMEXE
 40
0.125
  9
$DIMTP
 40
0.01
  9
$DIMTM
 40
0.01
  9
$DIMTXT
 40
2.0
  9
$DIMCEN
 40
0.1052362205
  9
$DIMTSZ
 40
0.0
  9
$DIMTOL
 70
     1
  9
$DIMLIM
 70
     0
  9
$DIMTIH
 70
     1
  9
$DIMTOH
 70
     1
  9
$DIMSE1
 70
     0
  9
$DIMSE2
 70
     0
  9
$DIMTAD
 70
     0
  9
$DIMZIN
 70
     0
  9
$DIMBLK
  1

  9
$DIMASO
 70
     1
  9
$DIMSHO
 70
     1
  9
$DIMPOST
  1
\X
  9
$DIMAPOST
  1

  9
$DIMALT
 70
     1
  9
$DIMALTD
 70
     2
  9
$DIMALTF
 40
25.3999999999999986
  9
$DIMLFAC
 40
1.0
  9
$DIMTOFL
 70
     0
  9
$DIMTVP
 40
0.0
  9
$DIMTIX
 70
     0
  9
$DIMSOXD
 70
     0
  9
$DIMSAH
 70
     0
  9
$DIMBLK1
  1

  9
$DIMBLK2
  1

  9
$DIMSTYLE
  2
STANDARD
  9
$DIMCLRD
 70
     0
  9
$DIMCLRE
 70
     0
  9
$DIMCLRT
 70
     0
  9
$DIMTFAC
 40
1.0
  9
$DIMGAP
 40
0.09
  9
$LUNITS
 70
     2
  9
$LUPREC
 70
     4
  9
$SKETCHINC
 40
0.1
  9
$FILLETRAD
 40
0.0
  9
$AUNITS
 70
     0
  9
$AUPREC
 70
     0
  9
$MENU
  1
.
  9
$ELEVATION
 40
0.0
  9
$PELEVATION
 40
0.0
  9
$THICKNESS
 40
0.0
  9
$LIMCHECK
 70
     0
  9
$BLIPMODE
 70
     0
  9
$CHAMFERA
 40
0.0
  9
$CHAMFERB
 40
0.0
  9
$SKPOLY
 70
     0
  9
$TDCREATE
 40
2458060.468368056230247
  9
$TDUPDATE
 40
2459797.6299999998882413
  9
$TDINDWG
 40
0.5376575231
  9
$TDUSRTIMER
 40
0.5376575231
  9
$USRTIMER
 70
     1
  9
$ANGBASE
 50
0.0
  9
$ANGDIR
 70
     0
  9
$PDMODE
 70
     0
  9
$PDSIZE
 40
0.3125
  9
$PLINEWID
 40
0.0
  9
$COORDS
 70
     1
  9
$SPLFRAME
 70
     0
  9
$SPLINETYPE
 70
     6
  9
$SPLINESEGS
 70
     8
  9
$ATTDIA
 70
     1
  9
$ATTREQ
 70
     1
  9
$HANDLING
 70
     1
  9
$HANDSEED
  5
118EE
  9
$SURFTAB1
 70
     6
  9
$SURFTAB2
 70
     6
  9
$SURFTYPE
 70
     6
  9
$SURFU
 70
     6
  9
$SURFV
 70
     6
  9
$UCSNAME
  2

  9
$UCSORG
 10
0.0
 20
0.0
 30
0.0
  9
$UCSXDIR
 10
1.0
 20
0.0
 30
0.0
  9
$UCSYDIR
 10
0.0
 20
1.0
 30
0.0
  9
$PUCSNAME
  2

  9
$PUCSORG
 10
0.0
 20
0.0
 30
0.0
  9
$PUCSXDIR
 10
1.0
 20
0.0
 30
0.0
  9
$PUCSYDIR
 10
0.0
 20
1.0
 30
0.0
  9
$USERI1
 70
     0
  9
$USERI2
 70
     0
  9
$USERI3
 70
     0
  9
$USERI4
 70
     0
  9
$USERI5
 70
     0
  9
$USERR1
 40
0.0
  9
$USERR2
 40
0.0
  9
$USERR3
 40
0.0
  9
$USERR4
 40
0.0
  9
$USERR5
 40
0.0
  9
$WORLDVIEW
 70
     1
  9
$SHADEDGE
 70
     3
  9
$SHADEDIF
 70
    70
  9
$TILEMODE
 70
     1
  9
$MAXACTVP
 70
    64
  9
$PLIMCHECK
 70
     0
  9
$PEXTMIN
 10
1.0000000000000000E+20
 20
1.0000000000000000E+20
 30
1.0000000000000000E+20
  9
$PEXTMAX
 10
-1.0000000000000000E+20
 20
-1.0000000000000000E+20
 30
-1.0000000000000000E+20
  9
$PLIMMIN
 10
0.0
 20
0.0
  9
$PLIMMAX
 10
12.0
 20
9.0
  9
$UNITMODE
 70
     0
  9
$VISRETAIN
 70
     1
  9
$PLINEGEN
 70
     0
  9
$PSLTSCALE
 70
     1
  0
ENDSEC
  0
SECTION
  2
TABLES
  0
TABLE
  2
VPORT
 70
     1
  0
VPORT
  2
*ACTIVE
 70
     0
 10
0.0
 20
0.0
 11
1.0
 21
1.0
 12
786.9681730734663461
 22
104.4718709348046985
 13
0.0
 23
0.0
 14
1.0
 24
1.0
 15
0.0
 25
0.0
 16
0.0
 26
0.0
 36
17.1152628219792007
 17
3803.5440673828129547
 27
125.9952621967499056
 37
0.0
 40
36.6794234049273413
 41
2.0416666666666661
 42
50.0
 43
0.0
 44
0.0
 50
0.0
 51
0.0
 71
     0
 72
   100
 73
     1
 74
     1
 75
     0
 76
     0
 77
     0
 78
     0
  0
ENDTAB
  0
TABLE
  2
LTYPE
 70
     2
  0
LTYPE
  2
CONTINUOUS
 70
     0
  3
Solid line
 72
    65
 73
     0
 40
0.0
  0
LTYPE
  2
PHANTOM2
 70
     0
  3
___ _ _ ___ _ _ ___ _ _ ___ _ _
 72
    65
 73
     6
 40
1.25
 49
0.625
 49
-0.125
 49
0.125
 49
-0.125
 49
0.125
 49
-0.125
  0
ENDTAB
  0
TABLE
  2
LAYER
 70
     2
  0
LAYER
  2
0
 70
     0
 62
   255
  6
CONTINUOUS
  0
LAYER
  2
DEFPOINTS
 70
     0
 62
     7
  6
CONTINUOUS
  0
ENDTAB
  0
TABLE
  2
STYLE
 70
     1
  0
STYLE
  2
STANDARD
 70
     0
 40
0.0
 41
0.8
 50
0.0
 71
     0
 42
0.2
  3
txt
  4

  0
ENDTAB
  0
TABLE
  2
VIEW
 70
     0
  0
ENDTAB
  0
TABLE
  2
UCS
 70
     0
  0
ENDTAB
  0
TABLE
  2
APPID
 70
     9
  0
APPID
  2
ACAD
 70
     0
  0
APPID
  2
ACAD_MLEADERVER
 70
     0
  0
APPID
  2
ACAD_EXEMPT_FROM_CAD_STANDARDS
 70
     0
  0
APPID
  2
ACAD_NAV_VCDISPLAY
 70
     0
  0
APPID
  2
ACAECLAYERSTANDARD
 70
     0
  0
APPID
  2
ACCMTRANSPARENCY
 70
     0
  0
APPID
  2
ACAD_DSTYLE_DIMJAG
 70
     0
  0
APPID
  2
ACAD_DSTYLE_DIMTALN
 70
     0
  0
APPID
  2
ACDBATTR
 70
     0
  0
ENDTAB
  0
TABLE
  2
DIMSTYLE
 70
     1
  0
DIMSTYLE
  2
STANDARD
 70
     0
  3

  4

  5

  6

  7

 40
1.0
 41
0.1875
 42
0.0625
 43
0.38
 44
0.125
 45
0.0
 46
0.0
 47
0.01
 48
0.01
140
0.15625
141
0.09
142
0.0
143
25.3999999999999986
144
1.0
145
0.0
146
1.0
147
0.09
 71
     1
 72
     0
 73
     1
 74
     1
 75
     0
 76
     0
 77
     0
 78
     4
170
     0
171
     2
172
     0
173
     0
174
     0
175
     0
176
     0
177
     0
178
     0
  0
ENDTAB
  0
ENDSEC
  0
SECTION
  2
BLOCKS
  0
BLOCK
  8
0
  2
$MODEL_SPACE
 70
     0
 10
0.0
 20
0.0
 30
0.0
  3
$MODEL_SPACE
  1

  0
ENDBLK
  5
21
  8
0
  0
BLOCK
 67
     1
  8
0
  2
$PAPER_SPACE
 70
     0
 10
0.0
 20
0.0
 30
0.0
  3
$PAPER_SPACE
  1

  0
ENDBLK
  5
1D
 67
     1
  8
0
  0
ENDSEC
  0
SECTION
  2
ENTITIES
  0
ATTDEF
  5
3930
  8
DEFPOINTS
 10
4587.0059993417089572
 20
229.9425059484563008
 30
0.0
 40
0.001
  1
K-96106T-R
  3

  2
MODELNUMBER
 70
     0
1001
ACDBATTR
1070
     0
1070
     1
  0
ATTDEF
  5
3931
  8
DEFPOINTS
 10
4587.0059993417089572
 20
229.9408392817896072
 30
0.0
 40
0.001
  1

  3

  2
TRADENAME
 70
     0
1001
ACDBATTR
1070
     0
1070
     1
  0
ATTDEF
  5
3932
  8
DEFPOINTS
 10
4587.0059993417089572
 20
229.9391726151229136
 30
0.0
 40
0.001
  1
MIRROR CABINET
  3

  2
PRODUCT
 70
     0
1001
ACDBATTR
1070
     0
1070
     1
  0
LINE
  5
1168D
  8
0
 10
4575.3982884901861325
 20
223.9654385265318126
 30
0.0
 11
4575.3982884901861325
 21
224.7133857419318019
 31
0.0
  0
LINE
  5
1168E
  8
0
 10
4575.3982884901861325
 20
224.836644797031795
 30
0.0
 11
4575.3982884901861325
 21
229.8603148757318024
 31
0.0
  0
LINE
  5
1168F
  8
0
 10
4575.3982884901861325
 20
223.9654385265318126
 30
0.0
 11
4598.6266349468860426
 21
223.9654385265274925
 31
0.0
  0
LINE
  5
11690
  8
0
 10
4575.6660050255159149
 20
229.9390550332317957
 30
0.0
 11
4575.7132491200864024
 21
229.9390550332317957
 31
0.0
  0
LINE
  5
11691
  8
0
 10
4575.3982884901861325
 20
229.8603148757318024
 30
0.0
 11
4575.4376585689851709
 21
229.8996849545316934
 31
0.0
  0
LINE
  5
11692
  8
0
 10
4575.4376585689851709
 20
229.8996849545316934
 30
0.0
 11
4575.4770286476859837
 21
229.8996849545316934
 31
0.0
  0
LINE
  5
11693
  8
0
 10
4575.4770286476859837
 20
229.8996849545316934
 30
0.0
 11
4575.5163987263867966
 21
229.8603148757318024
 31
0.0
  0
LINE
  5
11694
  8
0
 10
4575.5163987263867966
 20
229.8603148757318024
 30
0.0
 11
4575.5163987263867966
 21
225.1752755057316904
 31
0.0
  0
LINE
  5
11695
  8
0
 10
4575.5163987263867966
 20
225.1752755057316904
 30
0.0
 11
4575.4770286476859837
 21
225.1359054269317994
 31
0.0
  0
LINE
  5
11696
  8
0
 10
4575.5203357342861636
 20
225.1359054269317994
 30
0.0
 11
4575.4140365216871942
 21
225.1359054269317994
 31
0.0
  0
LINE
  5
11697
  8
0
 10
4575.4376585689851709
 20
225.1359054269317994
 30
0.0
 11
4575.3982884901861325
 21
225.1752755057316904
 31
0.0
  0
LINE
  5
11698
  8
0
 10
4575.5360837657854063
 20
224.9390550332317957
 30
0.0
 11
4575.5360837657854063
 21
228.7185825923318134
 31
0.0
  0
LINE
  5
11699
  8
0
 10
4575.5360837657854063
 20
228.7185825923318134
 30
0.0
 11
4575.5951388838857383
 21
228.7185825923318134
 31
0.0
  0
LINE
  5
1169A
  8
0
 10
4575.5951388838857383
 20
228.1280314112318024
 30
0.0
 11
4575.9888396712858594
 21
228.1280314112318024
 31
0.0
  0
LINE
  5
1169B
  8
0
 10
4575.9888396712858594
 20
228.1280314112318024
 30
0.0
 11
4575.9888396712858594
 21
227.6047400142317088
 31
0.0
  0
LINE
  5
1169C
  8
0
 10
4575.6502569941858383
 20
229.9233070017318141
 30
0.0
 11
4575.6502569941858383
 21
229.6673534584317906
 31
0.0
  0
LINE
  5
1169D
  8
0
 10
4575.6659569941857626
 20
229.6516534584318094
 30
0.0
 11
4575.9928247106863637
 21
229.6516534584318094
 31
0.0
  0
ARC
  5
1169E
  8
0
 10
4575.6659569941857626
 20
229.6673534584317906
 30
0.0
 40
0.0157
 50
180.0
 51
270.0
  0
LINE
  5
1169F
  8
0
 10
4576.008524710686288
 20
229.6359534584316862
 30
0.0
 11
4576.008524710686288
 21
229.5748818049318061
 31
0.0
  0
ARC
  5
116A0
  8
0
 10
4575.9928247106863637
 20
229.6359534584316862
 30
0.0
 40
0.0157
 50
0.0
 51
90.0
  0
LINE
  5
116A1
  8
0
 10
4576.008524710686288
 20
229.5748818049318061
 30
0.0
 11
4575.9888396712858594
 21
229.5748818049318061
 31
0.0
  0
LINE
  5
116A2
  8
0
 10
4575.9888396712858594
 20
229.5748818049318061
 30
0.0
 11
4575.9888396712858594
 21
229.4587400726317981
 31
0.0
  0
LINE
  5
116A3
  8
0
 10
4575.9888396712858594
 20
229.4587400726317981
 30
0.0
 11
4576.000650694885735
 21
229.4469290490316951
 31
0.0
  0
LINE
  5
116A4
  8
0
 10
4576.000650694885735
 20
229.4469290490316951
 30
0.0
 11
4575.9888396712858594
 21
229.4351180254317057
 31
0.0
  0
LINE
  5
116A5
  8
0
 10
4575.9888396712858594
 20
229.4351180254317057
 30
0.0
 11
4575.9888396712858594
 21
229.3189762931318114
 31
0.0
  0
LINE
  5
116A6
  8
0
 10
4575.9888396712858594
 20
229.3189762931318114
 30
0.0
 11
4576.008524710686288
 21
229.3189762931318114
 31
0.0
  0
LINE
  5
116A7
  8
0
 10
4576.008524710686288
 20
229.3189762931318114
 30
0.0
 11
4576.008524710686288
 21
229.059133773431796
 31
0.0
  0
ARC
  5
116A8
  8
0
 10
4575.9927766791861359
 20
229.059133773431796
 30
0.0
 40
0.0157480315000012
 50
270.0
 51
359.9999999999935199
  0
LINE
  5
116A9
  8
0
 10
4575.9927766791861359
 20
229.0433857419317007
 30
0.0
 11
4575.9888396712858594
 21
229.0433857419317007
 31
0.0
  0
LINE
  5
116AA
  8
0
 10
4575.9888396712858594
 20
229.0433857419317007
 30
0.0
 11
4575.9888396712858594
 21
228.9272440096318064
 31
0.0
  0
LINE
  5
116AB
  8
0
 10
4575.9888396712858594
 20
228.9272440096318064
 30
0.0
 11
4576.000650694885735
 21
228.9154329860317887
 31
0.0
  0
LINE
  5
116AC
  8
0
 10
4576.000650694885735
 20
228.9154329860317887
 30
0.0
 11
4575.9888396712858594
 21
228.9036219624317994
 31
0.0
  0
LINE
  5
116AD
  8
0
 10
4575.9888396712858594
 20
228.9036219624317994
 30
0.0
 11
4575.9888396712858594
 21
228.7874802301317914
 31
0.0
  0
LINE
  5
116AE
  8
0
 10
4575.9888396712858594
 20
228.7874802301317914
 30
0.0
 11
4575.9927766791861359
 21
228.7874802301317914
 31
0.0
  0
ARC
  5
116AF
  8
0
 10
4575.9927766791861359
 20
228.7717000556511948
 30
0.0
 40
0.0157801744805113
 50
356.342380293764279
 51
90.0000000001042082
  0
LINE
  5
116B0
  8
0
 10
4576.008524710686288
 20
228.7706933727266119
 30
0.0
 11
4576.008524710686288
 21
227.5237007025316984
 31
0.0
  0
ARC
  5
116B1
  8
0
 10
4575.9927766791861359
 20
227.5237007025316984
 30
0.0
 40
0.0157480315000065
 50
270.0000000022407107
 51
359.9999999999740226
  0
LINE
  5
116B2
  8
0
 10
4575.9927766791870454
 20
227.5079526710318021
 30
0.0
 11
4575.9888396712858594
 21
227.5079526710316031
 31
0.0
  0
LINE
  5
116B3
  8
0
 10
4575.9888396712858594
 20
227.5079526710316031
 30
0.0
 11
4575.9888396712858594
 21
227.3918109387317088
 31
0.0
  0
LINE
  5
116B4
  8
0
 10
4575.9888396712858594
 20
227.3918109387317088
 30
0.0
 11
4576.000650694885735
 21
227.3799999151318048
 31
0.0
  0
LINE
  5
116B5
  8
0
 10
4576.000650694885735
 20
227.3799999151318048
 30
0.0
 11
4575.9888396712858594
 21
227.368188891531787
 31
0.0
  0
LINE
  5
116B6
  8
0
 10
4575.9888396712858594
 20
227.368188891531787
 30
0.0
 11
4575.9888396712858594
 21
227.2520471592318074
 31
0.0
  0
LINE
  5
116B7
  8
0
 10
4575.9888396712858594
 20
227.2520471592318074
 30
0.0
 11
4575.9927766791861359
 21
227.2520471592318074
 31
0.0
  0
ARC
  5
116B8
  8
0
 10
4575.9927766791861359
 20
227.2362991277317974
 30
0.0
 40
0.0157480315000029
 50
0.0
 51
90.0
  0
LINE
  5
116B9
  8
0
 10
4576.008524710686288
 20
227.2362991277317974
 30
0.0
 11
4576.008524710686288
 21
226.4902361356317044
 31
0.0
  0
ARC
  5
116BA
  8
0
 10
4575.9927766791861359
 20
226.4902361356317044
 30
0.0
 40
0.0157480315000029
 50
270.000000002188699
 51
0.0
  0
LINE
  5
116BB
  8
0
 10
4575.9927766791870454
 20
226.4744881041316944
 30
0.0
 11
4575.9888396712858594
 21
226.4744881041316091
 31
0.0
  0
ARC
  5
116BC
  8
0
 10
4575.971506148397566
 20
227.6075105579558056
 30
0.0
 40
0.0175535446057605
 50
308.1112231398267909
 51
350.918811917015887
  0
ARC
  5
116BD
  8
0
 10
4575.9203387022153038
 20
227.6727405028163957
 30
0.0
 40
0.1004574242220146
 50
284.6907734089163
 51
308.1112231398267909
  0
ARC
  5
116BE
  8
0
 10
4576.902628244753032
 20
223.9260174505878069
 30
0.0
 40
3.7728907883042471
 50
104.6907734089163
 51
106.3707382659311946
  0
LINE
  5
116BF
  8
0
 10
4575.8392333720248644
 20
227.5459478705164997
 30
0.0
 11
4575.8392333720248644
 21
227.2140519597469961
 31
0.0
  0
ARC
  5
116C0
  8
0
 10
4576.1797654547499405
 20
228.2328461587061099
 30
0.0
 40
1.074199105838177
 50
251.5177890091343897
 51
257.42069917798608
  0
ARC
  5
116C1
  8
0
 10
4575.9272829931505839
 20
227.101384647545899
 30
0.0
 40
0.0850905666130065
 50
49.5429107604360581
 51
77.4206991779860942
  0
ARC
  5
116C2
  8
0
 10
4575.9701278615857518
 20
227.1516256869792016
 30
0.0
 40
0.0190614458057671
 50
10.9909171003995905
 51
49.5429107604788896
  0
LINE
  5
116C3
  8
0
 10
4575.9888396712858594
 20
227.1552598160317018
 30
0.0
 11
4575.9888396712858594
 21
225.4803936159318027
 31
0.0
  0
LINE
  5
116C4
  8
0
 10
4575.9888396712858594
 20
226.2894487340317937
 30
0.0
 11
4576.000650694885735
 21
226.2776377104318044
 31
0.0
  0
LINE
  5
116C5
  8
0
 10
4576.000650694885735
 20
226.2776377104318044
 30
0.0
 11
4575.9888396712858594
 21
226.2658266868317867
 31
0.0
  0
LINE
  5
116C6
  8
0
 10
4576.008524710686288
 20
226.0650392852317907
 30
0.0
 11
4576.008524710686288
 21
225.7520471592318074
 31
0.0
  0
ARC
  5
116C7
  8
0
 10
4575.9921878613167792
 20
226.0647953888843915
 30
0.0
 40
0.0163386698588006
 50
0.85531750746593
 51
101.8250660553097049
  0
ARC
  5
116C8
  8
0
 10
4575.9921878613167792
 20
225.7522910555790929
 30
0.0
 40
0.0163386698588083
 50
258.1749339446899967
 51
359.1446824925096735
  0
LINE
  5
116C9
  8
0
 10
4575.9888396712858594
 20
225.6201573954317894
 30
0.0
 11
4576.000650694885735
 21
225.6083463718318001
 31
0.0
  0
LINE
  5
116CA
  8
0
 10
4576.000650694885735
 20
225.6083463718318001
 30
0.0
 11
4575.9888396712858594
 21
225.5965353482316971
 31
0.0
  0
LINE
  5
116CB
  8
0
 10
4575.9888396712858594
 20
225.4803936159318027
 30
0.0
 11
4575.9927766791861359
 21
225.4803936159318027
 31
0.0
  0
ARC
  5
116CC
  8
0
 10
4575.9927766791861359
 20
225.4646455844317074
 30
0.0
 40
0.0157480314999958
 50
359.9999999999740226
 51
90.0
  0
LINE
  5
116CD
  8
0
 10
4576.008524710686288
 20
225.4646455844317074
 30
0.0
 11
4576.008524710686288
 21
224.9193699939318094
 31
0.0
  0
LINE
  5
116CE
  8
0
 10
4576.008524710686288
 20
224.9193699939318094
 30
0.0
 11
4575.512461718585655
 21
224.9193699939318094
 31
0.0
  0
ARC
  5
116CF
  8
0
 10
4575.512461718585655
 20
224.9351180254321889
 30
0.0
 40
0.0157480315004932
 50
180.000000003981512
 51
270.0
  0
LINE
  5
116D0
  8
0
 10
4575.4967136870864124
 20
224.9351180254311942
 30
0.0
 11
4575.4967136870800459
 21
225.0217321986318098
 31
0.0
  0
ARC
  5
116D1
  8
0
 10
4575.5124617185792886
 20
225.0217321986328898
 30
0.0
 40
0.0157480314989016
 50
89.9999999741012289
 51
180.000000003981512
  0
LINE
  5
116D2
  8
0
 10
4575.512461718585655
 20
225.0374802301317914
 30
0.0
 11
4575.5203357342870731
 21
225.0374802301282102
 31
0.0
  0
ARC
  5
116D3
  8
0
 10
4575.5203357342943491
 20
225.0532282616204895
 30
0.0
 40
0.0157480314922793
 50
269.999999974101172
 51
0.0000000388286187
  0
ARC
  5
116D4
  8
0
 10
4575.4140365216862847
 20
225.1201573954317894
 30
0.0
 40
0.0157480315000065
 50
90.0
 51
180.0
  0
ARC
  5
116D5
  8
0
 10
4575.5203357342861636
 20
225.1201573954317894
 30
0.0
 40
0.0157480314999958
 50
0.0000000021723443
 51
90.0000000014590853
  0
ARC
  5
116D6
  8
0
 10
4575.9888396712858594
 20
227.3799999151318048
 30
0.0
 40
0.1870078740000016
 50
83.9576715712348545
 51
143.1301023541624886
  0
ARC
  5
116D7
  8
0
 10
4575.9888396712858594
 20
227.3799999151318048
 30
0.0
 40
0.1870078740000016
 50
216.8698976458375114
 51
276.0423284287650745
  0
ARC
  5
116D8
  8
0
 10
4575.9888396712858594
 20
227.3799999151318048
 30
0.0
 40
0.1673228346000014
 50
83.2436729572442573
 51
153.3953183321820859
  0
ARC
  5
116D9
  8
0
 10
4575.9888396712858594
 20
227.3799999151318048
 30
0.0
 40
0.1673228346000014
 50
206.6046816678179141
 51
276.7563270427557995
  0
ARC
  5
116DA
  8
0
 10
4575.9888396712858594
 20
227.3799999151318048
 30
0.0
 40
0.0787401574999992
 50
90.0
 51
270.0
  0
ARC
  5
116DB
  8
0
 10
4575.9888396712858594
 20
227.3799999151318048
 30
0.0
 40
0.0708661416999998
 50
90.0
 51
270.0
  0
LINE
  5
116DC
  8
0
 10
4575.5360837657854063
 20
224.9390550332317957
 30
0.0
 11
4575.5951388838857383
 21
224.9390550332317957
 31
0.0
  0
LINE
  5
116DD
  8
0
 10
4575.5951388838857383
 20
224.9390550332317957
 30
0.0
 11
4575.5951388838857383
 21
228.7185825923318134
 31
0.0
  0
LINE
  5
116DE
  8
0
 10
4576.008524710686288
 20
228.1674014899317058
 30
0.0
 11
4575.9888396713868133
 21
228.1674014899818133
 31
0.0
  0
ARC
  5
116DF
  8
0
 10
4575.9888396712858594
 20
228.1280314112900953
 30
0.0
 40
0.0393700786916753
 50
89.9999998544561919
 51
180.0000000848858974
  0
LINE
  5
116E0
  8
0
 10
4575.5951388838857383
 20
225.5296062143318068
 30
0.0
 11
4575.9888396712858594
 21
225.5296062143318068
 31
0.0
  0
ARC
  5
116E1
  8
0
 10
4575.3982884896286123
 20
229.8603148753597054
 30
0.0
 40
0.0393700793568346
 50
0.0000005414967116
 51
44.9999998098716034
  0
ARC
  5
116E2
  8
0
 10
4575.5163987263867966
 20
229.8603148757316887
 30
0.0
 40
0.0393700786999896
 50
135.0000000001392948
 51
180.0000000002783906
  0
LINE
  5
116E3
  8
0
 10
4575.4770286476859837
 20
229.8603148757314898
 30
0.0
 11
4575.4770286477096306
 21
225.1752755057324009
 31
0.0
  0
ARC
  5
116E4
  8
0
 10
4575.5163987264659227
 20
225.1752755057324862
 30
0.0
 40
0.0393700787570328
 50
180.0000000002800959
 51
224.999999991383504
  0
LINE
  5
116E5
  8
0
 10
4575.4770286476859837
 20
229.8603148757314898
 30
0.0
 11
4575.4376585689851709
 21
229.8603148753597054
 31
0.0
  0
LINE
  5
116E6
  8
0
 10
4575.4376585689851709
 20
229.8603148753597054
 30
0.0
 11
4575.4376585688860359
 21
225.1752755057308946
 31
0.0
  0
ARC
  5
116E7
  8
0
 10
4575.3982884901861325
 20
225.1752755057316904
 30
0.0
 40
0.0393700787000011
 50
314.9999999995670237
 51
359.9999999987787191
  0
LINE
  5
116E8
  8
0
 10
4575.4376585689851709
 20
225.1752755057316904
 30
0.0
 11
4575.4770286477096306
 21
225.1752755057316051
 31
0.0
  0
LINE
  5
116E9
  8
0
 10
4575.9888396712858594
 20
228.9735521028318033
 30
0.0
 11
4575.9211214047863905
 21
228.9723700761317957
 31
0.0
  0
LINE
  5
116EA
  8
0
 10
4575.9211214047863905
 20
228.9723700761317957
 30
0.0
 11
4575.9069499074857958
 21
228.9579503484318082
 31
0.0
  0
LINE
  5
116EB
  8
0
 10
4575.9069499074857958
 20
228.9579503484318082
 30
0.0
 11
4575.9069499074857958
 21
228.8729156235318101
 31
0.0
  0
LINE
  5
116EC
  8
0
 10
4575.9069499074857958
 20
228.8729156235318101
 30
0.0
 11
4575.9211214047863905
 21
228.8584958959316964
 31
0.0
  0
LINE
  5
116ED
  8
0
 10
4575.9211214047863905
 20
228.8584958959316964
 30
0.0
 11
4575.9888396712858594
 21
228.8573138691317013
 31
0.0
  0
LINE
  5
116EE
  8
0
 10
4575.9189407993862915
 20
228.9701512748700907
 30
0.0
 11
4575.9189407993862915
 21
228.9185294922320111
 31
0.0
  0
LINE
  5
116EF
  8
0
 10
4575.9189407755857246
 20
228.9123364798317937
 30
0.0
 11
4575.9189407993862915
 21
228.8607146971781106
 31
0.0
  0
LINE
  5
116F0
  8
0
 10
4575.9189407993862915
 20
228.9185294922320111
 30
0.0
 11
4575.9205649209197873
 21
228.9168351873871075
 31
0.0
  0
ARC
  5
116F1
  8
0
 10
4575.9190958551098447
 20
228.9154269799093981
 30
0.0
 40
0.0020349945103341
 50
316.211704778024
 51
43.7882952221127084
  0
LINE
  5
116F2
  8
0
 10
4575.9205649209197873
 20
228.9140187724318025
 30
0.0
 11
4575.9189407755857246
 21
228.9123364798317937
 31
0.0
  0
LINE
  5
116F3
  8
0
 10
4575.9189407993862915
 20
228.9185294922320111
 30
0.0
 11
4575.997554188686081
 21
228.9185294922320111
 31
0.0
  0
LINE
  5
116F4
  8
0
 10
4575.9189407755247885
 20
228.9123364798014109
 30
0.0
 11
4575.9975541886551582
 21
228.9123364798014109
 31
0.0
  0
ARC
  5
116F5
  8
0
 10
4575.6660050255159149
 20
229.9233070019024012
 30
0.0
 40
0.0157480313293022
 50
89.9999997449726408
 51
180.0000006210835863
  0
ARC
  5
116F6
  8
0
 10
4575.7132491200864024
 20
229.9233070017318141
 30
0.0
 40
0.01574803150001
 50
0.0000000000260551
 51
89.9999999977592609
  0
LINE
  5
116F7
  8
0
 10
4575.728997151585645
 20
229.9233070017318141
 30
0.0
 11
4575.728997151585645
 21
229.7657786553317862
 31
0.0
  0
LINE
  5
116F8
  8
0
 10
4576.1069499074856139
 20
229.7500786553318051
 30
0.0
 11
4575.7446971515873884
 21
229.7500786553318051
 31
0.0
  0
ARC
  5
116F9
  8
0
 10
4575.7446971515873884
 20
229.7657786553317862
 30
0.0
 40
0.0157
 50
180.0000000000260059
 51
270.0
  0
LINE
  5
116FA
  8
0
 10
4575.8274223484868344
 20
229.7500786553318051
 30
0.0
 11
4575.7880522696850676
 21
229.7894487340317937
 31
0.0
  0
LINE
  5
116FB
  8
0
 10
4575.7880522696850676
 20
229.7894487340317937
 30
0.0
 11
4575.7880522696850676
 21
229.8288188128317984
 31
0.0
  0
LINE
  5
116FC
  8
0
 10
4575.7880522696850676
 20
229.8288188128317984
 30
0.0
 11
4575.8274223484868344
 21
229.8681888915317018
 31
0.0
  0
LINE
  5
116FD
  8
0
 10
4575.8274223484868344
 20
229.8681888915317018
 30
0.0
 11
4576.1069499074856139
 21
229.8681888915317018
 31
0.0
  0
LINE
  5
116FE
  8
0
 10
4576.1069499074856139
 20
229.9390550332317957
 30
0.0
 11
4576.1069499074856139
 21
224.8209447970317001
 31
0.0
  0
LINE
  5
116FF
  8
0
 10
4575.4139884901851474
 20
224.8209447970317001
 30
0.0
 11
4576.0912499074865991
 21
224.8209447970317001
 31
0.0
  0
LINE
  5
11700
  8
0
 10
4576.1069499074856139
 20
224.8209447970317001
 30
0.0
 11
4598.6109349468852088
 21
224.8209447970317001
 31
0.0
  0
ARC
  5
11701
  8
0
 10
4575.4139884901851474
 20
224.836644797031795
 30
0.0
 40
0.0157
 50
180.0
 51
270.0
  0
ARC
  5
11702
  8
0
 10
4576.0912499074865991
 20
224.836644797031795
 30
0.0
 40
0.0157
 50
270.0
 51
0.0
  0
LINE
  5
11703
  8
0
 10
4575.7880522696850676
 20
229.8288188128317984
 30
0.0
 11
4576.1069499074856139
 21
229.8288188128317984
 31
0.0
  0
LINE
  5
11704
  8
0
 10
4575.7880522696850676
 20
229.7894487340317937
 30
0.0
 11
4576.1069499074856139
 21
229.7894487340317937
 31
0.0
  0
LINE
  5
11705
  8
0
 10
4598.6266349468860426
 20
224.7028345608318034
 30
0.0
 11
4575.3982884901861325
 21
224.7028345608318034
 31
0.0
  0
LINE
  5
11706
  8
0
 10
4575.5458295934477064
 20
224.7133857419318019
 30
0.0
 11
4575.3982884901861325
 21
224.7133857419318019
 31
0.0
  0
LINE
  5
11707
  8
0
 10
4576.0381489617338957
 20
224.7133857419318019
 30
0.0
 11
4576.1239561271868297
 21
224.7133857419318019
 31
0.0
  0
LINE
  5
11708
  8
0
 10
4576.5238038107863758
 20
224.7133857419318019
 30
0.0
 11
4576.8398201100008009
 21
224.7133857419318019
 31
0.0
  0
LINE
  5
11709
  8
0
 10
4575.5419892775862536
 20
224.7028345608318034
 30
0.0
 11
4575.5802636146809164
 21
224.8079924376156953
 31
0.0
  0
ARC
  5
1170A
  8
0
 10
4575.5987615009707952
 20
224.8012597576010023
 30
0.0
 40
0.0196850394307632
 50
90.000000245960166
 51
159.9999999777938058
  0
LINE
  5
1170B
  8
0
 10
4576.0419892775862536
 20
224.7028345608318034
 30
0.0
 11
4576.0037149405852688
 21
224.8079924376322936
 31
0.0
  0
ARC
  5
1170C
  8
0
 10
4575.9852170543363172
 20
224.8012597576498877
 30
0.0
 40
0.019685039381911
 50
19.9999999741034884
 51
90.0000001447100288
  0
LINE
  5
1170D
  8
0
 10
4576.1239561271868297
 20
224.7028345608318034
 30
0.0
 11
4576.1239561271868297
 21
224.8209447970317001
 31
0.0
  0
ARC
  5
1170E
  8
0
 10
4576.1924552087430129
 20
224.6803926650335086
 30
0.0
 40
0.0299099390322794
 50
48.651757895174228
 51
90.0503176348898933
  0
LINE
  5
1170F
  8
0
 10
4576.1924289415856038
 20
224.7103025925316899
 30
0.0
 11
4576.1324265266493967
 21
224.7103025522318092
 31
0.0
  0
ARC
  5
11710
  8
0
 10
4576.1463457314575862
 20
224.7101690614879033
 30
0.0
 40
0.013919844907981
 50
179.4505273929140969
 51
211.7968893700054025
  0
LINE
  5
11711
  8
0
 10
4576.1324265266493967
 20
224.7103025522318092
 30
0.0
 11
4576.1324264031864004
 21
224.7550437741317921
 31
0.0
  0
ARC
  5
11712
  8
0
 10
4576.1472391261504526
 20
224.7550438150072978
 30
0.0
 40
0.0148127229641602
 50
89.2844285692749224
 51
180.0001581072446868
  0
LINE
  5
11713
  8
0
 10
4576.1474241185860592
 20
224.7698553827640922
 30
0.0
 11
4576.5004881357863269
 21
224.7698553836318069
 31
0.0
  0
ARC
  5
11714
  8
0
 10
4576.5005443213804028
 20
224.7549133905920087
 30
0.0
 40
0.0149420986752545
 50
0.4999646644910538
 51
90.2154453027379617
  0
LINE
  5
11715
  8
0
 10
4576.5154858511859857
 20
224.7550437741317921
 30
0.0
 11
4576.5154858511859857
 21
224.7028345608318034
 31
0.0
  0
LINE
  5
11716
  8
0
 10
4576.5238038107863758
 20
224.7028345608318034
 30
0.0
 11
4576.5238038107863758
 21
224.8209447970317001
 31
0.0
  0
ARC
  5
11717
  8
0
 10
4576.3255664044336299
 20
224.6802095164343882
 30
0.0
 40
0.0301196912793124
 50
87.5851517427554143
 51
131.271931380359689
  0
LINE
  5
11718
  8
0
 10
4576.3268354848542003
 20
224.7103024597541037
 30
0.0
 11
4576.4374286877864506
 21
224.7103024597541037
 31
0.0
  0
ARC
  5
11719
  8
0
 10
4576.437469567478729
 20
224.680430236374292
 30
0.0
 40
0.0298722513514447
 50
48.6248255668293226
 51
90.0784083711953656
  0
LINE
  5
1171A
  8
0
 10
4576.8392189382857396
 20
224.7028345608318034
 30
0.0
 11
4576.8422956812855773
 21
224.7568345607317895
 31
0.0
  0
LINE
  5
1171B
  8
0
 10
4576.8422956812855773
 20
224.7568345607317895
 30
0.0
 11
4583.6756165731867441
 21
224.7568345599316899
 31
0.0
  0
LINE
  5
1171C
  8
0
 10
4583.6756165731867441
 20
224.7568345599316899
 30
0.0
 11
4583.6786933161856723
 21
224.7028345608316897
 31
0.0
  0
ARC
  5
1171D
  8
0
 10
4579.8158347106864312
 20
225.0007873167317882
 30
0.0
 40
0.5905511811004163
 50
197.7332503806954946
 51
204.3993019052907982
  0
ARC
  5
1171E
  8
0
 10
4579.8158347106864312
 20
225.0007873167317882
 30
0.0
 40
0.511811023600103
 50
200.5765394139015996
 51
208.4665852073680981
  0
LINE
  5
1171F
  8
0
 10
4580.485826302687201
 20
224.8209447970317001
 30
0.0
 11
4580.4217160659873116
 21
224.7568345603318107
 31
0.0
  0
LINE
  5
11720
  8
0
 10
4580.5971817012859901
 20
224.8209447970317001
 30
0.0
 11
4580.5330714645861008
 21
224.7568345603318107
 31
0.0
  0
LINE
  5
11721
  8
0
 10
4581.3179522869859284
 20
224.8209447970317001
 30
0.0
 11
4581.3820625237858621
 21
224.7568345602317947
 31
0.0
  0
LINE
  5
11722
  8
0
 10
4581.429307685587446
 20
224.8209447970317001
 30
0.0
 11
4581.4934179224301261
 21
224.7568345601872011
 31
0.0
  0
LINE
  5
11723
  8
0
 10
4583.6354326018863503
 20
224.8209447970317001
 30
0.0
 11
4583.5713223648863277
 21
224.7568345599316899
 31
0.0
  0
LINE
  5
11724
  8
0
 10
4583.7467880004851395
 20
224.8209447970317001
 30
0.0
 11
4583.6759972092868338
 21
224.7501540057317868
 31
0.0
  0
LINE
  5
11725
  8
0
 10
4584.4675585861859872
 20
224.8209447970317001
 30
0.0
 11
4584.5856688223866513
 21
224.7028345608318034
 31
0.0
  0
LINE
  5
11726
  8
0
 10
4584.5789139847865954
 20
224.8209447970317001
 30
0.0
 11
4584.6639502863863527
 21
224.7359084954318007
 31
0.0
  0
ARC
  5
11727
  8
0
 10
4584.6361114367000482
 20
224.7080696457452973
 30
0.0
 40
0.0393700787875476
 50
352.3586819723417989
 51
44.9999999999965397
  0
ARC
  5
11728
  8
0
 10
4585.2489055767855461
 20
225.0007873167317882
 30
0.0
 40
0.5118110236001281
 50
324.3978242682222799
 51
339.4234614616001977
  0
ARC
  5
11729
  8
0
 10
4585.2489055767855461
 20
225.0007873167317882
 30
0.0
 40
0.5905511811000662
 50
329.6964663367032813
 51
342.2667496192997874
  0
LINE
  5
1172A
  8
0
 10
4585.7646749420855485
 20
224.7133857419318019
 30
0.0
 11
4586.685311472999274
 21
224.7133857419318019
 31
0.0
  0
ARC
  5
1172B
  8
0
 10
4587.2011906652351172
 20
225.0007773360767942
 30
0.0
 40
0.5905296678159641
 50
197.7297410331744913
 51
210.3004770513886967
  0
ARC
  5
1172C
  8
0
 10
4587.2012097500855816
 20
225.0007873167317882
 30
0.0
 40
0.4724409449001455
 50
202.3763957591949065
 51
219.1085815862051902
  0
ARC
  5
1172D
  8
0
 10
4587.814003890087406
 20
224.708069645731797
 30
0.0
 40
0.0393700787000119
 50
134.9999999955068972
 51
187.6520040163765088
  0
LINE
  5
1172E
  8
0
 10
4587.7861650404638567
 20
224.7359084953585864
 30
0.0
 11
4587.8712013421509255
 21
224.8209447970317001
 31
0.0
  0
LINE
  5
1172F
  8
0
 10
4587.8644465044862955
 20
224.7028345608318034
 30
0.0
 11
4587.98255674068605
 21
224.8209447970317001
 31
0.0
  0
LINE
  5
11730
  8
0
 10
4588.7033273262850344
 20
224.8209447970317001
 30
0.0
 11
4588.8214375625857429
 21
224.7028345608318034
 31
0.0
  0
LINE
  5
11731
  8
0
 10
4588.8146827249856869
 20
224.8209447970317001
 30
0.0
 11
4588.8997190265863537
 21
224.7359084954318007
 31
0.0
  0
ARC
  5
11732
  8
0
 10
4588.8718801770783102
 20
224.7080696459235014
 30
0.0
 40
0.0393700785354797
 50
352.3586816614034092
 51
44.9999999999953886
  0
ARC
  5
11733
  8
0
 10
4590.9636101894629974
 20
224.7080696457146871
 30
0.0
 40
0.0393700788730477
 50
135.0000001644883127
 51
187.6520039575162002
  0
LINE
  5
11734
  8
0
 10
4590.9357713396357212
 20
224.7359084953818069
 30
0.0
 11
4591.0208076407980116
 21
224.8209447970317001
 31
0.0
  0
LINE
  5
11735
  8
0
 10
4591.0140528036863543
 20
224.7028345608318034
 30
0.0
 11
4591.1321630398861089
 21
224.8209447970317001
 31
0.0
  0
LINE
  5
11736
  8
0
 10
4591.9710438617867112
 20
224.7028345608318034
 30
0.0
 11
4591.8529336255851376
 21
224.8209447970317001
 31
0.0
  0
ARC
  5
11737
  8
0
 10
4592.0214232702655863
 20
224.7080482837075976
 30
0.0
 40
0.0394298882972083
 50
352.3909905130686866
 51
44.9570054722525327
  0
LINE
  5
11738
  8
0
 10
4592.0493253257091055
 20
224.7359084953571937
 30
0.0
 11
4591.9644165501777024
 21
224.8209447970317001
 31
0.0
  0
LINE
  5
11739
  8
0
 10
4591.9604926806860021
 20
224.7133857419318019
 30
0.0
 11
4592.0604959905413125
 21
224.7133857419318019
 31
0.0
  0
LINE
  5
1173A
  8
0
 10
4590.9246064317858327
 20
224.7133857419318019
 30
0.0
 11
4591.0246039847861539
 21
224.7133857419318019
 31
0.0
  0
ARC
  5
1173B
  8
0
 10
4592.634280616185606
 20
225.0007873167315893
 30
0.0
 40
0.4724409448996533
 50
320.9006748652817009
 51
337.6236063924019959
  0
ARC
  5
1173C
  8
0
 10
4592.634280616185606
 20
225.0007873167317882
 30
0.0
 40
0.5905511811001239
 50
329.6996211104918757
 51
342.2667496192981957
  0
LINE
  5
1173D
  8
0
 10
4593.1501788932728232
 20
224.7133857419318019
 30
0.0
 11
4598.6266349468860426
 21
224.7133857419318019
 31
0.0
  0
ARC
  5
1173E
  8
0
 10
4598.5872648677950565
 20
224.6740156625110103
 30
0.0
 40
0.0393700794207975
 50
47.0673492403255693
 51
89.9999994310607292
  0
LINE
  5
1173F
  8
0
 10
4598.350010714486416
 20
224.7133857419318019
 30
0.0
 11
4598.350010714486416
 21
224.7370077891316953
 31
0.0
  0
LINE
  5
11740
  8
0
 10
4598.350010714486416
 20
224.7370077891316953
 30
0.0
 11
4598.2626341427867374
 21
224.7370077891316953
 31
0.0
  0
LINE
  5
11741
  8
0
 10
4598.2626341427867374
 20
224.7370077891316953
 30
0.0
 11
4598.2626341427867374
 21
224.7133857419318019
 31
0.0
  0
LINE
  5
11742
  8
0
 10
4598.2606157766867909
 20
224.7133857419318019
 30
0.0
 11
4598.2606157766867909
 21
224.7370077891316953
 31
0.0
  0
LINE
  5
11743
  8
0
 10
4598.2606157766867909
 20
224.7370077891316953
 30
0.0
 11
4597.7309656555862603
 21
224.737007789131809
 31
0.0
  0
LINE
  5
11744
  8
0
 10
4597.7309656555862603
 20
224.7133857419318019
 30
0.0
 11
4597.7309656555862603
 21
224.7606298364316899
 31
0.0
  0
ARC
  5
11745
  8
0
 10
4597.6915955768863569
 20
224.7606298364316899
 30
0.0
 40
0.0393700787000029
 50
0.0
 51
90.0000001454395715
  0
LINE
  5
11746
  8
0
 10
4597.6915955767863124
 20
224.7999999151317922
 30
0.0
 11
4596.5695483326862814
 21
224.7999999122839085
 31
0.0
  0
ARC
  5
11747
  8
0
 10
4596.5695483327863258
 20
224.7606298334839039
 30
0.0
 40
0.0393700787999265
 50
90.0000001454395715
 51
179.9999957094603928
  0
LINE
  5
11748
  8
0
 10
4596.5301782539872875
 20
224.7606298364320878
 30
0.0
 11
4596.5301782504484436
 21
224.7133857419318019
 31
0.0
  0
ARC
  5
11749
  8
0
 10
4596.5007613199677508
 20
224.6738399899172975
 30
0.0
 40
0.0395740685661291
 50
92.1675960996658716
 51
132.8766576676736122
  0
LINE
  5
1174A
  8
0
 10
4596.6278381318861648
 20
224.8209447970317001
 30
0.0
 11
4596.658487352323391
 21
224.7999999125096053
 31
0.0
  0
LINE
  5
1174B
  8
0
 10
4596.7073436009986835
 20
224.7999999126336093
 30
0.0
 11
4596.7684328471859772
 21
224.8209447970317001
 31
0.0
  0
ARC
  5
1174C
  8
0
 10
4597.0223042381858249
 20
224.870866056831801
 30
0.0
 40
0.0767716535001045
 50
220.5693849027308033
 51
247.3801350518590993
  0
ARC
  5
1174D
  8
0
 10
4597.0223042381858249
 20
224.870866056831801
 30
0.0
 40
0.0767716535000229
 50
292.6198649480284075
 51
319.4379387297856852
  0
ARC
  5
1174E
  8
0
 10
4597.0223042381858249
 20
224.870866056831801
 30
0.0
 40
0.0590551181000044
 50
237.707667328068311
 51
302.2923326719316037
  0
LINE
  5
1174F
  8
0
 10
4597.2761756292866266
 20
224.8209447970317001
 30
0.0
 11
4597.3372648681861392
 21
224.7999999151317922
 31
0.0
  0
LINE
  5
11750
  8
0
 10
4597.6354037417868312
 20
224.8209447970317001
 30
0.0
 11
4597.6350773864860457
 21
224.7999999151317922
 31
0.0
  0
LINE
  5
11751
  8
0
 10
4598.2964333830859687
 20
224.7370077891316953
 30
0.0
 11
4598.2964333830859687
 21
224.7133857419318019
 31
0.0
  0
LINE
  5
11752
  8
0
 10
4598.2248955264867618
 20
224.7370077891316953
 30
0.0
 11
4598.2248955264867618
 21
224.7133857419318019
 31
0.0
  0
LINE
  5
11753
  8
0
 10
4576.1069499074856139
 20
225.1359054269317994
 30
0.0
 11
4597.9179735295856517
 21
225.1359054269317994
 31
0.0
  0
LINE
  5
11754
  8
0
 10
4598.4219105374868377
 20
225.1359054269317994
 30
0.0
 11
4598.4225791253857096
 21
225.1359054269317994
 31
0.0
  0
LINE
  5
11755
  8
0
 10
4598.5045877027860115
 20
225.1359054269317994
 30
0.0
 11
4598.6108869153868
 21
225.1359054269317994
 31
0.0
  0
LINE
  5
11756
  8
0
 10
4598.6266349468860426
 20
223.9654385265318126
 30
0.0
 11
4598.6266349468860426
 21
224.7133857419318019
 31
0.0
  0
LINE
  5
11757
  8
0
 10
4598.6266349468860426
 20
224.836644797031795
 30
0.0
 11
4598.6266349468860426
 21
229.8603148757318024
 31
0.0
  0
LINE
  5
11758
  8
0
 10
4598.3589184115571697
 20
229.9390550332317957
 30
0.0
 11
4598.3116743169857727
 21
229.9390550332317957
 31
0.0
  0
LINE
  5
11759
  8
0
 10
4598.6266349468860426
 20
229.8603148757318024
 30
0.0
 11
4598.5872648680851853
 21
229.8996849545316934
 31
0.0
  0
LINE
  5
1175A
  8
0
 10
4598.5872648680851853
 20
229.8996849545316934
 30
0.0
 11
4598.5478947893861914
 21
229.8996849545316934
 31
0.0
  0
LINE
  5
1175B
  8
0
 10
4598.5478947893861914
 20
229.8996849545316934
 30
0.0
 11
4598.5085247106871975
 21
229.8603148757318024
 31
0.0
  0
LINE
  5
1175C
  8
0
 10
4598.5085247106871975
 20
229.8603148757318024
 30
0.0
 11
4598.5085247106871975
 21
225.1752755057316904
 31
0.0
  0
LINE
  5
1175D
  8
0
 10
4598.5085247106871975
 20
225.1752755057316904
 30
0.0
 11
4598.5478947893861914
 21
225.1359054269317994
 31
0.0
  0
LINE
  5
1175E
  8
0
 10
4598.504587702786921
 20
225.1359054269317994
 30
0.0
 11
4598.6108869153858905
 21
225.1359054269317994
 31
0.0
  0
LINE
  5
1175F
  8
0
 10
4598.5872648680851853
 20
225.1359054269317994
 30
0.0
 11
4598.6266349468860426
 21
225.1752755057316904
 31
0.0
  0
LINE
  5
11760
  8
0
 10
4598.4809656555862603
 20
224.9390550332317957
 30
0.0
 11
4598.4809656555862603
 21
228.7185825923318134
 31
0.0
  0
LINE
  5
11761
  8
0
 10
4598.4809656555862603
 20
228.7185825923318134
 30
0.0
 11
4598.4219105374868377
 21
228.7185825923318134
 31
0.0
  0
LINE
  5
11762
  8
0
 10
4598.4219105374868377
 20
228.1280314112318024
 30
0.0
 11
4598.0282097500858072
 21
228.1280314112318024
 31
0.0
  0
LINE
  5
11763
  8
0
 10
4598.0282097500858072
 20
228.1280314112318024
 30
0.0
 11
4598.0282097500858072
 21
227.604740014231794
 31
0.0
  0
LINE
  5
11764
  8
0
 10
4598.3746664428863369
 20
229.9233070017318141
 30
0.0
 11
4598.3746664428863369
 21
229.6673534584317906
 31
0.0
  0
LINE
  5
11765
  8
0
 10
4598.3589664428864126
 20
229.6516534584318094
 30
0.0
 11
4598.0320987263858115
 21
229.6516534584318094
 31
0.0
  0
ARC
  5
11766
  8
0
 10
4598.3589664428864126
 20
229.6673534584317906
 30
0.0
 40
0.0157
 50
270.0
 51
0.0
  0
LINE
  5
11767
  8
0
 10
4598.0163987263867966
 20
229.6359534584316862
 30
0.0
 11
4598.0163987263867966
 21
229.5748818049318061
 31
0.0
  0
ARC
  5
11768
  8
0
 10
4598.0320987263858115
 20
229.6359534584316862
 30
0.0
 40
0.0157
 50
90.0
 51
180.0
  0
LINE
  5
11769
  8
0
 10
4598.0163987263867966
 20
229.5748818049318061
 30
0.0
 11
4598.0282097500858072
 21
229.5748818049318061
 31
0.0
  0
LINE
  5
1176A
  8
0
 10
4598.0282097500858072
 20
229.5748818049318061
 30
0.0
 11
4598.0282097500858072
 21
229.4548030647318058
 31
0.0
  0
LINE
  5
1176B
  8
0
 10
4598.0282097500858072
 20
229.4390550332317105
 30
0.0
 11
4598.0282097500858072
 21
229.3189762931318114
 31
0.0
  0
LINE
  5
1176C
  8
0
 10
4598.0282097500858072
 20
229.3189762931318114
 30
0.0
 11
4598.0163987263867966
 21
229.3189762931318114
 31
0.0
  0
LINE
  5
1176D
  8
0
 10
4598.0163987263867966
 20
229.3189762931318114
 30
0.0
 11
4598.0163987263867966
 21
229.059133773431796
 31
0.0
  0
ARC
  5
1176E
  8
0
 10
4598.0321570824062292
 20
229.0586493908560897
 30
0.0
 40
0.0157657987723249
 50
178.2393885825931079
 51
255.5004070584157887
  0
LINE
  5
1176F
  8
0
 10
4598.0282097500858072
 20
229.0433857419317007
 30
0.0
 11
4598.0282097500858072
 21
228.9233070017318141
 31
0.0
  0
LINE
  5
11770
  8
0
 10
4598.0282097500858072
 20
228.9075589702318041
 30
0.0
 11
4598.0282097500858072
 21
228.7874802301317914
 31
0.0
  0
ARC
  5
11771
  8
0
 10
4598.0322425652120728
 20
228.7720943184041005
 30
0.0
 40
0.0159056555202757
 50
104.6874451173282949
 51
185.0530720316814097
  0
LINE
  5
11772
  8
0
 10
4598.0163987263867966
 20
228.7706933727266119
 30
0.0
 11
4598.0163987263867966
 21
227.5237007025316984
 31
0.0
  0
ARC
  5
11773
  8
0
 10
4598.0321574452573259
 20
227.5232165920945988
 30
0.0
 40
0.0157661530938766
 50
178.2404176077139937
 51
255.4993780331984112
  0
ARC
  5
11774
  8
0
 10
4598.0321574451572815
 20
227.2367832382957999
 30
0.0
 40
0.0157661529973318
 50
104.5006216802900951
 51
181.7595828642521951
  0
LINE
  5
11775
  8
0
 10
4598.0163987263867966
 20
227.2362991277317974
 30
0.0
 11
4598.0163987263867966
 21
226.4744881041316944
 31
0.0
  0
ARC
  5
11776
  8
0
 10
4598.0529909441183918
 20
227.6115816243753045
 30
0.0
 40
0.0257082711788001
 50
195.4338030478504038
 51
238.548863765628596
  0
ARC
  5
11777
  8
0
 10
4598.092884332567337
 20
227.6653233033356116
 30
0.0
 40
0.0925638581019261
 50
234.8375441848351102
 51
261.1911030208347029
  0
ARC
  5
11778
  8
0
 10
4597.8412865757327381
 20
226.5406224180927097
 30
0.0
 40
1.0601562865138421
 50
71.4921952390560023
 51
77.0588250320984258
  0
LINE
  5
11779
  8
0
 10
4598.177816049285866
 20
227.54594787050371
 30
0.0
 11
4598.1778160493477117
 21
227.2140519597469961
 31
0.0
  0
ARC
  5
1177A
  8
0
 10
4597.837284862253
 20
228.232842936678594
 30
0.0
 40
1.0741957660718231
 50
282.5792916238809198
 51
288.4822201639483978
  0
ARC
  5
1177B
  8
0
 10
4598.089828296286214
 20
227.1000400110137036
 30
0.0
 40
0.0864167128099043
 50
102.4251714610249024
 51
125.7188369758585935
  0
ARC
  5
1177C
  8
0
 10
4598.0564873876819547
 20
227.1457680253531066
 30
0.0
 40
0.0298281557981852
 50
125.0026890623484945
 51
161.4449412604614054
  0
LINE
  5
1177D
  8
0
 10
4598.0163987263867966
 20
226.0807873167318007
 30
0.0
 11
4598.0163987263867966
 21
225.7520471592318074
 31
0.0
  0
ARC
  5
1177E
  8
0
 10
4598.0321574451572815
 20
225.4651296949957953
 30
0.0
 40
0.0157661529972743
 50
104.5006216801838974
 51
181.7595828644394089
  0
LINE
  5
1177F
  8
0
 10
4598.0163987263867966
 20
225.4646455844317074
 30
0.0
 11
4598.0163987263867966
 21
224.9193699939318094
 31
0.0
  0
LINE
  5
11780
  8
0
 10
4598.0163987263867966
 20
224.9193699939318094
 30
0.0
 11
4598.5124617184856106
 21
224.9193699939318094
 31
0.0
  0
ARC
  5
11781
  8
0
 10
4598.5124617184856106
 20
224.9351180254321889
 30
0.0
 40
0.0157480315004932
 50
270.0
 51
359.9999999960185164
  0
LINE
  5
11782
  8
0
 10
4598.5282097499866723
 20
224.9351180254311942
 30
0.0
 11
4598.5282097499930387
 21
225.0296062143312952
 31
0.0
  0
ARC
  5
11783
  8
0
 10
4598.5124617184937961
 20
225.0296062143324036
 30
0.0
 40
0.0157480314989016
 50
359.9999999960185164
 51
90.0000000258987853
  0
LINE
  5
11784
  8
0
 10
4598.5124617184856106
 20
225.0453542458313052
 30
0.0
 11
4598.5045877027860115
 21
225.0453542458276956
 31
0.0
  0
ARC
  5
11785
  8
0
 10
4598.5045877027787355
 20
225.0611022773200034
 30
0.0
 40
0.0157480314922793
 50
179.9999999611713122
 51
270.000000025898828
  0
ARC
  5
11786
  8
0
 10
4598.6108869153868
 20
225.1201573954317894
 30
0.0
 40
0.0157480315000065
 50
0.0
 51
90.0
  0
ARC
  5
11787
  8
0
 10
4598.5045877027860115
 20
225.1201573954317894
 30
0.0
 40
0.0157480314999958
 50
89.9999999985409147
 51
179.9999999978275866
  0
LINE
  5
11788
  8
0
 10
4598.4809656555862603
 20
224.9390550332317957
 30
0.0
 11
4598.4219105374868377
 21
224.9390550332317957
 31
0.0
  0
LINE
  5
11789
  8
0
 10
4598.4219105374868377
 20
224.9390550332317957
 30
0.0
 11
4598.4219105374868377
 21
228.7185825923318134
 31
0.0
  0
LINE
  5
1178A
  8
0
 10
4598.4219105374868377
 20
225.5296062143318068
 30
0.0
 11
4598.0282097500858072
 21
225.5296062143318068
 31
0.0
  0
ARC
  5
1178B
  8
0
 10
4598.6266349474426534
 20
229.8603148753597054
 30
0.0
 40
0.0393700793568346
 50
135.0000001901283895
 51
179.9999994585033107
  0
ARC
  5
1178C
  8
0
 10
4598.5085247106871975
 20
229.8603148757316887
 30
0.0
 40
0.0393700786999896
 50
359.9999999997198756
 51
44.9999999998606697
  0
LINE
  5
1178D
  8
0
 10
4598.5478947893861914
 20
229.8603148757314898
 30
0.0
 11
4598.547894789363454
 21
225.1752755057324009
 31
0.0
  0
ARC
  5
1178E
  8
0
 10
4598.5085247106062525
 20
225.1752755057324862
 30
0.0
 40
0.0393700787570328
 50
315.0000000086166096
 51
359.9999999997198756
  0
LINE
  5
1178F
  8
0
 10
4598.5478947893861914
 20
229.8603148757314898
 30
0.0
 11
4598.5872648680851853
 21
229.8603148753597054
 31
0.0
  0
LINE
  5
11790
  8
0
 10
4598.5872648680851853
 20
229.8603148753597054
 30
0.0
 11
4598.5872648681861392
 21
225.1752755057308946
 31
0.0
  0
ARC
  5
11791
  8
0
 10
4598.6266349468860426
 20
225.1752755057316904
 30
0.0
 40
0.0393700787000011
 50
180.0000000012213093
 51
225.0000000004328911
  0
LINE
  5
11792
  8
0
 10
4598.5872648680851853
 20
225.1752755057316904
 30
0.0
 11
4598.547894789363454
 21
225.1752755057316051
 31
0.0
  0
LINE
  5
11793
  8
0
 10
4598.0282097500858072
 20
228.9736895442825926
 30
0.0
 11
4598.1038020322857847
 21
228.9723700761317957
 31
0.0
  0
LINE
  5
11794
  8
0
 10
4598.1038020322857847
 20
228.9723700761317957
 30
0.0
 11
4598.1179735295863793
 21
228.9579503484318082
 31
0.0
  0
LINE
  5
11795
  8
0
 10
4598.1179735295863793
 20
228.9579503484318082
 30
0.0
 11
4598.1179735295863793
 21
228.8729156235318101
 31
0.0
  0
LINE
  5
11796
  8
0
 10
4598.1179735295863793
 20
228.8729156235318101
 30
0.0
 11
4598.1038020322857847
 21
228.8584958959316964
 31
0.0
  0
LINE
  5
11797
  8
0
 10
4598.1038020322857847
 20
228.8584958959316964
 30
0.0
 11
4598.0282097500858072
 21
228.8571764276692875
 31
0.0
  0
LINE
  5
11798
  8
0
 10
4598.1059826376867932
 20
228.9701512748700907
 30
0.0
 11
4598.1059826376867932
 21
228.9185294922320111
 31
0.0
  0
LINE
  5
11799
  8
0
 10
4598.1059826614864505
 20
228.9123364798317937
 30
0.0
 11
4598.1059826376867932
 21
228.8607146971781106
 31
0.0
  0
LINE
  5
1179A
  8
0
 10
4598.1059826376867932
 20
228.9185294922320111
 30
0.0
 11
4598.1043585161523879
 21
228.9168351873871075
 31
0.0
  0
ARC
  5
1179B
  8
0
 10
4598.1058275819632399
 20
228.9154269799093981
 30
0.0
 40
0.0020349945103341
 50
136.2117047778872916
 51
223.7882952219758863
  0
LINE
  5
1179C
  8
0
 10
4598.1043585161523879
 20
228.9140187724318025
 30
0.0
 11
4598.1059826614864505
 21
228.9123364798317937
 31
0.0
  0
LINE
  5
1179D
  8
0
 10
4598.1059826376867932
 20
228.9185294922320111
 30
0.0
 11
4598.0234322405258354
 21
228.9185294922318974
 31
0.0
  0
LINE
  5
1179E
  8
0
 10
4598.1059826615473867
 20
228.9123364798014109
 30
0.0
 11
4598.0234322405158309
 21
228.9123364798014109
 31
0.0
  0
ARC
  5
1179F
  8
0
 10
4598.3589184115571697
 20
229.9233070019024012
 30
0.0
 40
0.0157480313293022
 50
359.9999993789164137
 51
90.000000255027345
  0
ARC
  5
117A0
  8
0
 10
4598.3116743169857727
 20
229.9233070017318141
 30
0.0
 40
0.01574803150001
 50
90.0000000022407391
 51
179.9999999999739089
  0
LINE
  5
117A1
  8
0
 10
4598.2959262854856206
 20
229.9233070017318141
 30
0.0
 11
4598.2959262854856206
 21
229.7657786553317862
 31
0.0
  0
LINE
  5
117A2
  8
0
 10
4597.9179735295856517
 20
229.7500786553318051
 30
0.0
 11
4598.2802262854866058
 21
229.7500786553318051
 31
0.0
  0
ARC
  5
117A3
  8
0
 10
4598.2802262854866058
 20
229.7657786553317862
 30
0.0
 40
0.0157
 50
270.0
 51
359.9999999999740226
  0
LINE
  5
117A4
  8
0
 10
4598.1975010885862503
 20
229.7500786553318051
 30
0.0
 11
4598.2368711673861981
 21
229.7894487340317937
 31
0.0
  0
LINE
  5
117A5
  8
0
 10
4598.2368711673861981
 20
229.7894487340317937
 30
0.0
 11
4598.2368711673861981
 21
229.8288188128317984
 31
0.0
  0
LINE
  5
117A6
  8
0
 10
4598.2368711673861981
 20
229.8288188128317984
 30
0.0
 11
4598.1975010885862503
 21
229.8681888915317018
 31
0.0
  0
LINE
  5
117A7
  8
0
 10
4598.1975010885862503
 20
229.8681888915317018
 30
0.0
 11
4597.9179735295856517
 21
229.8681888915317018
 31
0.0
  0
LINE
  5
117A8
  8
0
 10
4597.9179735295856517
 20
229.9390550332317957
 30
0.0
 11
4597.9179735295856517
 21
224.8209447970317001
 31
0.0
  0
ARC
  5
117A9
  8
0
 10
4598.6109349468852088
 20
224.836644797031795
 30
0.0
 40
0.0157
 50
270.0
 51
0.0
  0
ARC
  5
117AA
  8
0
 10
4597.933673529587395
 20
224.836644797031795
 30
0.0
 40
0.0157
 50
180.0
 51
270.0
  0
LINE
  5
117AB
  8
0
 10
4598.2368711673861981
 20
229.8288188128317984
 30
0.0
 11
4597.9179735295856517
 21
229.8288188128317984
 31
0.0
  0
LINE
  5
117AC
  8
0
 10
4598.2368711673861981
 20
229.7894487340317937
 30
0.0
 11
4597.9179735295856517
 21
229.7894487340317937
 31
0.0
  0
LINE
  5
117AD
  8
0
 10
4597.9867744753373699
 20
224.7133857419318019
 30
0.0
 11
4597.900967309886255
 21
224.7133857419318019
 31
0.0
  0
LINE
  5
117AE
  8
0
 10
4598.0282097500858072
 20
228.9233070017318141
 30
0.0
 11
4598.0203357342861636
 21
228.9154329860317887
 31
0.0
  0
LINE
  5
117AF
  8
0
 10
4598.0203357342861636
 20
228.9154329860317887
 30
0.0
 11
4598.0282097500858072
 21
228.9075589702318041
 31
0.0
  0
LINE
  5
117B0
  8
0
 10
4598.0282097500858072
 20
227.5079526710786126
 30
0.0
 11
4598.0282097500858072
 21
227.3878739309317893
 31
0.0
  0
LINE
  5
117B1
  8
0
 10
4598.0282097500858072
 20
227.3878739309317893
 30
0.0
 11
4598.0203357342861636
 21
227.3799999151318048
 31
0.0
  0
LINE
  5
117B2
  8
0
 10
4598.0203357342861636
 20
227.3799999151318048
 30
0.0
 11
4598.0282097500858072
 21
227.3721258994318077
 31
0.0
  0
LINE
  5
117B3
  8
0
 10
4598.0282097500858072
 20
227.3721258994318077
 30
0.0
 11
4598.0282097500858072
 21
227.2520471592318074
 31
0.0
  0
LINE
  5
117B4
  8
0
 10
4598.0163987263867966
 20
226.4744881041316944
 30
0.0
 11
4598.0282097500858072
 21
226.4744881041316944
 31
0.0
  0
LINE
  5
117B5
  8
0
 10
4598.0282097500858072
 20
227.1552598160317018
 30
0.0
 11
4598.0282097500858072
 21
225.4803936159848945
 31
0.0
  0
LINE
  5
117B6
  8
0
 10
4598.0203357342861636
 20
225.6083463718318001
 30
0.0
 11
4598.0282097500858072
 21
225.6162203876318131
 31
0.0
  0
LINE
  5
117B7
  8
0
 10
4598.0203357342861636
 20
225.6083463718318001
 30
0.0
 11
4598.0282097500858072
 21
225.6004723561318031
 31
0.0
  0
LINE
  5
117B8
  8
0
 10
4598.0163987263867966
 20
226.0807873167318007
 30
0.0
 11
4598.0282097500858072
 21
226.0807873167318007
 31
0.0
  0
ARC
  5
117B9
  8
0
 10
4598.032157082527192
 20
225.7515627766954935
 30
0.0
 40
0.0157657988923301
 50
178.2393887393276088
 51
255.5004064340513992
  0
LINE
  5
117BA
  8
0
 10
4598.0282097500858072
 20
226.2855117261318014
 30
0.0
 11
4598.0203357343361859
 21
226.2776377103818106
 31
0.0
  0
LINE
  5
117BB
  8
0
 10
4598.0203357343361859
 20
226.2776377103818106
 30
0.0
 11
4598.0282097500858072
 21
226.2697636946317914
 31
0.0
  0
LINE
  5
117BC
  8
0
 10
4598.4888396712858594
 20
225.0611022773200034
 30
0.0
 11
4598.4888396712858594
 21
225.1201573954317894
 31
0.0
  0
LINE
  5
117BD
  8
0
 10
4598.0282097500858072
 20
229.4548030647318058
 30
0.0
 11
4598.0203357342861636
 21
229.4469290490316951
 31
0.0
  0
LINE
  5
117BE
  8
0
 10
4598.0203357342861636
 20
229.4469290490316951
 30
0.0
 11
4598.0282097500858072
 21
229.4390550332317957
 31
0.0
  0
LINE
  5
117BF
  8
0
 10
4575.3982884901861325
 20
224.4469290490318087
 30
0.0
 11
4598.6266349468860426
 21
224.4469290490318087
 31
0.0
  0
LINE
  5
117C0
  8
0
 10
4576.1069499074856139
 20
225.4750101968317892
 30
0.0
 11
4597.9179735295856517
 21
225.4750101968317892
 31
0.0
  0
LINE
  5
117C1
  8
0
 10
4576.1069499074856139
 20
225.5579396755317987
 30
0.0
 11
4597.9179735295856517
 21
225.5579396755317987
 31
0.0
  0
LINE
  5
117C2
  8
0
 10
4576.1069499074856139
 20
225.6587530681318015
 30
0.0
 11
4597.9179735295856517
 21
225.6587530681318015
 31
0.0
  0
LINE
  5
117C3
  8
0
 10
4576.1069499074856139
 20
225.7416825468318109
 30
0.0
 11
4597.9179735295856517
 21
225.7416825468318109
 31
0.0
  0
LINE
  5
117C4
  8
0
 10
4576.1069499074856139
 20
227.2466637401317939
 30
0.0
 11
4597.9179735295856517
 21
227.2466637401317939
 31
0.0
  0
LINE
  5
117C5
  8
0
 10
4576.1069499074856139
 20
227.5133360901317872
 30
0.0
 11
4597.9179735295856517
 21
227.513336090128206
 31
0.0
  0
LINE
  5
117C6
  8
0
 10
4576.1069499074856139
 20
227.4304066114316925
 30
0.0
 11
4597.9179735295856517
 21
227.4304066114235923
 31
0.0
  0
LINE
  5
117C7
  8
0
 10
4576.1069499074856139
 20
227.3295932188318034
 30
0.0
 11
4597.9179735295856517
 21
227.3295932188241011
 31
0.0
  0
LINE
  5
117C8
  8
0
 10
4576.1069499074856139
 20
229.3135928740317979
 30
0.0
 11
4597.9179735295856517
 21
229.3135928740317979
 31
0.0
  0
LINE
  5
117C9
  8
0
 10
4576.1069499074856139
 20
229.5802652239318036
 30
0.0
 11
4578.3904144744856239
 21
229.5802652239318036
 31
0.0
  0
LINE
  5
117CA
  8
0
 10
4579.8864774665862569
 20
229.5802652239318036
 30
0.0
 11
4594.1384459704868277
 21
229.5802652239316899
 31
0.0
  0
LINE
  5
117CB
  8
0
 10
4595.6345089626856861
 20
229.5802652239316899
 30
0.0
 11
4597.9179735295856517
 21
229.5802652239318036
 31
0.0
  0
LINE
  5
117CC
  8
0
 10
4576.1069499074856139
 20
229.4966849106318136
 30
0.0
 11
4578.3904144744856239
 21
229.4966849106318136
 31
0.0
  0
LINE
  5
117CD
  8
0
 10
4579.8864774665862569
 20
229.4966849106318136
 30
0.0
 11
4594.1384459704868277
 21
229.4966849106318136
 31
0.0
  0
LINE
  5
117CE
  8
0
 10
4595.6345089626856861
 20
229.4966849106318136
 30
0.0
 11
4597.9179735295856517
 21
229.4966849106318136
 31
0.0
  0
LINE
  5
117CF
  8
0
 10
4576.1069499074856139
 20
229.3971731874318039
 30
0.0
 11
4597.9179735295856517
 21
229.3971731874318039
 31
0.0
  0
LINE
  5
117D0
  8
0
 10
4576.1069499074856139
 20
229.9390550332317957
 30
0.0
 11
4597.9179735295856517
 21
229.9390550332317957
 31
0.0
  0
LINE
  5
117D1
  8
0
 10
4578.3904144744856239
 20
229.9233070017318141
 30
0.0
 11
4576.1069499074856139
 21
229.9233070017318141
 31
0.0
  0
LINE
  5
117D2
  8
0
 10
4579.8864774665862569
 20
229.9233070017318141
 30
0.0
 11
4594.1384459704868277
 21
229.9233070017318141
 31
0.0
  0
LINE
  5
117D3
  8
0
 10
4595.6345089626856861
 20
229.9233070017318141
 30
0.0
 11
4597.9179735295856517
 21
229.9233070017318141
 31
0.0
  0
LINE
  5
117D4
  8
0
 10
4578.3904144744856239
 20
229.9252755057318041
 30
0.0
 11
4579.8864774665862569
 21
229.9252755057318041
 31
0.0
  0
LINE
  5
117D5
  8
0
 10
4578.3904144744856239
 20
229.9252755057318041
 30
0.0
 11
4578.3904144744856239
 21
229.3971731874318039
 31
0.0
  0
LINE
  5
117D6
  8
0
 10
4579.8864774665862569
 20
229.9252755057318041
 30
0.0
 11
4579.8864774665862569
 21
229.3971731874318039
 31
0.0
  0
LINE
  5
117D7
  8
0
 10
4576.1069499074856139
 20
229.667401489931791
 30
0.0
 11
4578.3904144744856239
 21
229.667401489931791
 31
0.0
  0
LINE
  5
117D8
  8
0
 10
4579.8864774665862569
 20
229.667401489931791
 30
0.0
 11
4594.1384459704868277
 21
229.667401489931791
 31
0.0
  0
LINE
  5
117D9
  8
0
 10
4595.6345089626856861
 20
229.667401489931791
 30
0.0
 11
4597.9179735295856517
 21
229.667401489931791
 31
0.0
  0
LINE
  5
117DA
  8
0
 10
4578.3904144744856239
 20
229.7796062143316931
 30
0.0
 11
4579.8864774665862569
 21
229.7796062143316931
 31
0.0
  0
LINE
  5
117DB
  8
0
 10
4578.3904144744856239
 20
229.6851569115318057
 30
0.0
 11
4579.8864774665862569
 21
229.6851569115318057
 31
0.0
  0
LINE
  5
117DC
  8
0
 10
4594.1384459704868277
 20
229.9252755057318041
 30
0.0
 11
4594.1384459704868277
 21
229.3971731874318039
 31
0.0
  0
LINE
  5
117DD
  8
0
 10
4595.6345089625856417
 20
229.9252755057318041
 30
0.0
 11
4595.6345089625856417
 21
229.3971731874318039
 31
0.0
  0
LINE
  5
117DE
  8
0
 10
4594.1384459704868277
 20
229.7796062143316931
 30
0.0
 11
4595.6345089625856417
 21
229.7796062143316931
 31
0.0
  0
LINE
  5
117DF
  8
0
 10
4594.1384459704868277
 20
229.6851569115318057
 30
0.0
 11
4595.6345089625856417
 21
229.6851569115318057
 31
0.0
  0
LINE
  5
117E0
  8
0
 10
4594.1384459704868277
 20
229.9252755057318041
 30
0.0
 11
4595.6345089626856861
 21
229.9252755057318041
 31
0.0
  0
LINE
  5
117E1
  8
0
 10
4597.9179735295856517
 20
229.6240944033318101
 30
0.0
 11
4598.0163987263867966
 21
229.6240944033318101
 31
0.0
  0
LINE
  5
117E2
  8
0
 10
4597.9179735295856517
 20
229.5650392852317054
 30
0.0
 11
4598.0282097500858072
 21
229.5650392852317054
 31
0.0
  0
LINE
  5
117E3
  8
0
 10
4597.9179735295856517
 20
229.368188891531787
 30
0.0
 11
4598.0282097500858072
 21
229.368188891531787
 31
0.0
  0
ENDSEC
  0
EOF
