  0
SECTION
  2
HEADER
  9
$ACADVER
  1
AC1009
  9
$INSBASE
 10
4322.358350637597141
 20
280.5744073683193847
 30
0.0
  9
$EXTMIN
 10
4313.6065374808968045
 20
271.8225942116193892
 30
0.0
  9
$EXTMAX
 10
4331.1101637942965681
 20
289.3262205250193801
 30
0.0
  9
$LIMMIN
 10
0.0
 20
0.0
  9
$LIMMAX
 10
11.6929133858000007
 20
8.2677165353999982
  9
$ORTHOMODE
 70
     0
  9
$REGENMODE
 70
     1
  9
$FILLMODE
 70
     1
  9
$QTEXTMODE
 70
     0
  9
$MIRRTEXT
 70
     0
  9
$DRAGMODE
 70
     2
  9
$LTSCALE
 40
0.6431102362
  9
$OSMODE
 70
   695
  9
$ATTMODE
 70
     1
  9
$TEXTSIZE
 40
0.2
  9
$TRACEWID
 40
0.05
  9
$TEXTSTYLE
  7
STANDARD
  9
$CLAYER
  8
0
  9
$CELTYPE
  6
BYLAYER
  9
$CECOLOR
 62
   256
  9
$DIMSCALE
 40
1.0
  9
$DIMASZ
 40
0.1875
  9
$DIMEXO
 40
0.0625
  9
$DIMDLI
 40
0.4443307087
  9
$DIMRND
 40
0.0
  9
$DIMDLE
 40
0.0
  9
$DIMEXE
 40
0.125
  9
$DIMTP
 40
0.01
  9
$DIMTM
 40
0.01
  9
$DIMTXT
 40
2.0
  9
$DIMCEN
 40
0.1052362205
  9
$DIMTSZ
 40
0.0
  9
$DIMTOL
 70
     1
  9
$DIMLIM
 70
     0
  9
$DIMTIH
 70
     1
  9
$DIMTOH
 70
     1
  9
$DIMSE1
 70
     0
  9
$DIMSE2
 70
     0
  9
$DIMTAD
 70
     0
  9
$DIMZIN
 70
     0
  9
$DIMBLK
  1

  9
$DIMASO
 70
     1
  9
$DIMSHO
 70
     1
  9
$DIMPOST
  1
\X
  9
$DIMAPOST
  1

  9
$DIMALT
 70
     1
  9
$DIMALTD
 70
     2
  9
$DIMALTF
 40
25.3999999999999986
  9
$DIMLFAC
 40
1.0
  9
$DIMTOFL
 70
     0
  9
$DIMTVP
 40
0.0
  9
$DIMTIX
 70
     0
  9
$DIMSOXD
 70
     0
  9
$DIMSAH
 70
     0
  9
$DIMBLK1
  1

  9
$DIMBLK2
  1

  9
$DIMSTYLE
  2
STANDARD
  9
$DIMCLRD
 70
     0
  9
$DIMCLRE
 70
     0
  9
$DIMCLRT
 70
     0
  9
$DIMTFAC
 40
1.0
  9
$DIMGAP
 40
0.09
  9
$LUNITS
 70
     2
  9
$LUPREC
 70
     4
  9
$SKETCHINC
 40
0.1
  9
$FILLETRAD
 40
0.0
  9
$AUNITS
 70
     0
  9
$AUPREC
 70
     0
  9
$MENU
  1
.
  9
$ELEVATION
 40
0.0
  9
$PELEVATION
 40
0.0
  9
$THICKNESS
 40
0.0
  9
$LIMCHECK
 70
     0
  9
$BLIPMODE
 70
     0
  9
$CHAMFERA
 40
0.0
  9
$CHAMFERB
 40
0.0
  9
$SKPOLY
 70
     0
  9
$TDCREATE
 40
2458060.468368056230247
  9
$TDUPDATE
 40
2459329.5904861111193895
  9
$TDINDWG
 40
0.4859908565
  9
$TDUSRTIMER
 40
0.4859908565
  9
$USRTIMER
 70
     1
  9
$ANGBASE
 50
0.0
  9
$ANGDIR
 70
     0
  9
$PDMODE
 70
     0
  9
$PDSIZE
 40
0.3125
  9
$PLINEWID
 40
0.0
  9
$COORDS
 70
     1
  9
$SPLFRAME
 70
     0
  9
$SPLINETYPE
 70
     6
  9
$SPLINESEGS
 70
     8
  9
$ATTDIA
 70
     1
  9
$ATTREQ
 70
     1
  9
$HANDLING
 70
     1
  9
$HANDSEED
  5
1D133
  9
$SURFTAB1
 70
     6
  9
$SURFTAB2
 70
     6
  9
$SURFTYPE
 70
     6
  9
$SURFU
 70
     6
  9
$SURFV
 70
     6
  9
$UCSNAME
  2

  9
$UCSORG
 10
0.0
 20
0.0
 30
0.0
  9
$UCSXDIR
 10
1.0
 20
0.0
 30
0.0
  9
$UCSYDIR
 10
0.0
 20
1.0
 30
0.0
  9
$PUCSNAME
  2

  9
$PUCSORG
 10
0.0
 20
0.0
 30
0.0
  9
$PUCSXDIR
 10
1.0
 20
0.0
 30
0.0
  9
$PUCSYDIR
 10
0.0
 20
1.0
 30
0.0
  9
$USERI1
 70
     0
  9
$USERI2
 70
     0
  9
$USERI3
 70
     0
  9
$USERI4
 70
     0
  9
$USERI5
 70
     0
  9
$USERR1
 40
0.0
  9
$USERR2
 40
0.0
  9
$USERR3
 40
0.0
  9
$USERR4
 40
0.0
  9
$USERR5
 40
0.0
  9
$WORLDVIEW
 70
     1
  9
$SHADEDGE
 70
     3
  9
$SHADEDIF
 70
    70
  9
$TILEMODE
 70
     1
  9
$MAXACTVP
 70
    64
  9
$PLIMCHECK
 70
     0
  9
$PEXTMIN
 10
1.0000000000000000E+20
 20
1.0000000000000000E+20
 30
1.0000000000000000E+20
  9
$PEXTMAX
 10
-1.0000000000000000E+20
 20
-1.0000000000000000E+20
 30
-1.0000000000000000E+20
  9
$PLIMMIN
 10
0.0
 20
0.0
  9
$PLIMMAX
 10
12.0
 20
9.0
  9
$UNITMODE
 70
     0
  9
$VISRETAIN
 70
     1
  9
$PLINEGEN
 70
     0
  9
$PSLTSCALE
 70
     1
  0
ENDSEC
  0
SECTION
  2
TABLES
  0
TABLE
  2
VPORT
 70
     1
  0
VPORT
  2
*ACTIVE
 70
     0
 10
0.0
 20
0.0
 11
1.0
 21
1.0
 12
411.5823707709571977
 22
147.8409673006912897
 13
0.0
 23
0.0
 14
1.0
 24
1.0
 15
0.0
 25
0.0
 16
0.0
 26
0.0
 36
60.4960186965801583
 17
3911.3653564453120453
 27
132.5796051025390057
 37
0.0
 40
4.0454028514055258
 41
2.3467862481315391
 42
50.0
 43
0.0
 44
0.0
 50
0.0
 51
0.0
 71
     0
 72
   100
 73
     1
 74
     1
 75
     0
 76
     0
 77
     0
 78
     0
  0
ENDTAB
  0
TABLE
  2
LTYPE
 70
     2
  0
LTYPE
  2
CONTINUOUS
 70
     0
  3
Solid line
 72
    65
 73
     0
 40
0.0
  0
LTYPE
  2
PHANTOM2
 70
     0
  3
___ _ _ ___ _ _ ___ _ _ ___ _ _
 72
    65
 73
     6
 40
1.25
 49
0.625
 49
-0.125
 49
0.125
 49
-0.125
 49
0.125
 49
-0.125
  0
ENDTAB
  0
TABLE
  2
LAYER
 70
     2
  0
LAYER
  2
0
 70
     0
 62
   255
  6
CONTINUOUS
  0
LAYER
  2
DEFPOINTS
 70
     0
 62
     7
  6
CONTINUOUS
  0
ENDTAB
  0
TABLE
  2
STYLE
 70
     1
  0
STYLE
  2
STANDARD
 70
     0
 40
0.0
 41
0.8
 50
0.0
 71
     0
 42
0.2
  3
txt
  4

  0
ENDTAB
  0
TABLE
  2
VIEW
 70
     0
  0
ENDTAB
  0
TABLE
  2
UCS
 70
     0
  0
ENDTAB
  0
TABLE
  2
APPID
 70
    11
  0
APPID
  2
ACAD
 70
     0
  0
APPID
  2
ACAD_MLEADERVER
 70
     0
  0
APPID
  2
ACAD_EXEMPT_FROM_CAD_STANDARDS
 70
     0
  0
APPID
  2
ACAD_NAV_VCDISPLAY
 70
     0
  0
APPID
  2
ACAECLAYERSTANDARD
 70
     0
  0
APPID
  2
ACCMTRANSPARENCY
 70
     0
  0
APPID
  2
ACAD_DSTYLE_DIMJAG
 70
     0
  0
APPID
  2
ACAD_DSTYLE_DIMTALN
 70
     0
  0
APPID
  2
ACDBATTR
 70
     0
  0
APPID
  2
ACADANNOTATIVE
 70
     0
  0
APPID
  2
DCO15
 70
     0
  0
ENDTAB
  0
TABLE
  2
DIMSTYLE
 70
     1
  0
DIMSTYLE
  2
STANDARD
 70
     0
  3

  4

  5

  6

  7

 40
1.0
 41
0.1875
 42
0.0625
 43
0.38
 44
0.125
 45
0.0
 46
0.0
 47
0.01
 48
0.01
140
0.15625
141
0.09
142
0.0
143
25.3999999999999986
144
1.0
145
0.0
146
1.0
147
0.09
 71
     1
 72
     0
 73
     1
 74
     1
 75
     0
 76
     0
 77
     0
 78
     4
170
     0
171
     2
172
     0
173
     0
174
     0
175
     0
176
     0
177
     0
178
     0
  0
ENDTAB
  0
ENDSEC
  0
SECTION
  2
BLOCKS
  0
BLOCK
  8
0
  2
$MODEL_SPACE
 70
     0
 10
0.0
 20
0.0
 30
0.0
  3
$MODEL_SPACE
  1

  0
ENDBLK
  5
21
  8
0
  0
BLOCK
 67
     1
  8
0
  2
$PAPER_SPACE
 70
     0
 10
0.0
 20
0.0
 30
0.0
  3
$PAPER_SPACE
  1

  0
ENDBLK
  5
1D
 67
     1
  8
0
  0
ENDSEC
  0
SECTION
  2
ENTITIES
  0
LINE
  5
1CF48
  8
0
 10
4321.9856980321956144
 20
273.7292423490193869
 30
0.0
 11
4322.7310032429968487
 21
273.7292423490193869
 31
0.0
  0
CIRCLE
  5
1CF49
  8
0
 10
4322.358350637597141
 20
280.5744073683193847
 30
0.0
 40
8.751813156699999
  0
CIRCLE
  5
1CF4A
  8
0
 10
4322.358350637597141
 20
280.5744073683193847
 30
0.0
 40
8.6139500000000009
  0
CIRCLE
  5
1CF4B
  8
0
 10
4322.358350637597141
 20
280.5744073683193847
 30
0.0
 40
1.3366572253999991
  0
ARC
  5
1CF4D
  8
0
 10
4322.358350637597141
 20
280.5744073683193847
 30
0.0
 40
0.8984073537
 50
279.5997394689957218
 51
260.4002605310042782
  0
ARC
  5
1CF4E
  8
0
 10
4322.358350637597141
 20
280.571738855619401
 30
0.0
 40
0.8957748284
 50
260.3717965593820054
 51
279.6282040146742247
  0
ARC
  5
1CF4F
  8
0
 10
4322.2341152233702815
 20
273.5347149991847004
 30
0.0
 40
0.3155186059553588
 50
127.1957820546387978
 51
157.6552796814430906
  0
ARC
  5
1CF50
  8
0
 10
4322.3281891740989522
 20
273.4122573257694739
 30
0.0
 40
0.4699376414577318
 50
104.5357279237450001
 51
127.3062780551120028
  0
ARC
  5
1CF51
  8
0
 10
4322.4825860518240006
 20
273.5347149991847004
 30
0.0
 40
0.3155186059553588
 50
22.3447203185569094
 51
52.804217945361188
  0
ARC
  5
1CF52
  8
0
 10
4322.3885121010944204
 20
273.4122573257694739
 30
0.0
 40
0.4699376414577318
 50
52.6937219448879404
 51
75.464272076254943
  0
ARC
  5
1CF53
  8
0
 10
4322.358350637597141
 20
273.307633230200679
 30
0.0
 40
0.5787903449662437
 50
75.173520961073649
 51
104.8264790389263936
  0
ARC
  5
1CF54
  8
0
 10
4322.1731223929837142
 20
273.7449008742415231
 30
0.0
 40
0.2478436842684786
 50
161.5565369928206962
 51
201.3503933299730022
  0
ARC
  5
1CF55
  8
0
 10
4322.2231468073678116
 20
273.7203489812550856
 30
0.0
 40
0.3031580258179494
 50
125.8776897748986983
 51
160.1456011847066918
  0
ARC
  5
1CF56
  8
0
 10
4322.3318002804044227
 20
273.5707702905307883
 30
0.0
 40
0.4880343997170723
 50
99.2673509195063417
 51
125.9219519398365037
  0
ARC
  5
1CF57
  8
0
 10
4322.2430364700339851
 20
273.7724462340407854
 30
0.0
 40
0.3229881712310843
 50
201.3861031997736859
 51
226.7552372149492896
  0
ARC
  5
1CF58
  8
0
 10
4322.3297681694148196
 20
273.8658657660794233
 30
0.0
 40
0.450460162891201
 50
226.860168492247908
 51
252.7315387369303892
  0
ARC
  5
1CF59
  8
0
 10
4322.3559971683916956
 20
273.9362895766050201
 30
0.0
 40
0.5255119527103485
 50
252.2799977117437891
 51
263.1941420142259744
  0
ARC
  5
1CF5A
  8
0
 10
4322.5435788822096583
 20
273.7449008742415231
 30
0.0
 40
0.2478436842684786
 50
338.6496066700270262
 51
18.4434630071792682
  0
ARC
  5
1CF5B
  8
0
 10
4322.4935544678246515
 20
273.7203489812550856
 30
0.0
 40
0.3031580258179494
 50
19.8543988152933117
 51
54.1223102251013017
  0
ARC
  5
1CF5C
  8
0
 10
4322.3849009947889499
 20
273.5707702905307883
 30
0.0
 40
0.4880343997170723
 50
54.0780480601634324
 51
80.7326490804936867
  0
ARC
  5
1CF5D
  8
0
 10
4322.473664805160297
 20
273.7724462340407854
 30
0.0
 40
0.3229881712310843
 50
313.2447627850506819
 51
338.6138968002263141
  0
ARC
  5
1CF5E
  8
0
 10
4322.3869331057776435
 20
273.8658657660794233
 30
0.0
 40
0.450460162891201
 50
287.2684612630695824
 51
313.139831507752092
  0
ARC
  5
1CF5F
  8
0
 10
4322.360704106801677
 20
273.9362895766050201
 30
0.0
 40
0.5255119527103485
 50
276.8058579857740256
 51
287.7200022882561825
  0
ARC
  5
1CF60
  8
0
 10
4322.358350637597141
 20
273.9532845894997877
 30
0.0
 40
0.5426662035761644
 50
263.1600513900127112
 51
276.8399486099872888
  0
ARC
  5
1CF61
  8
0
 10
4322.358350637597141
 20
273.4565010543798849
 30
0.0
 40
0.6051381549998071
 50
79.9939441786698922
 51
100.0060558213300936
  0
ATTDEF
  5
1CF63
  8
DEFPOINTS
 10
4322.3584708768394194
 20
280.5734305273712721
 30
0.0
 40
0.001
  1
K-96118T
  3

  2
MODELNUMBER
 70
     0
1001
ACDBATTR
1070
     0
1070
     1
  0
ATTDEF
  5
1CF64
  8
DEFPOINTS
 10
4322.3583450671821993
 20
280.5717636869920852
 30
0.0
 40
0.001
  1
CARILLON
  3

  2
TRADENAME
 70
     0
1001
ACDBATTR
1070
     0
1070
     1
  0
ATTDEF
  5
1CF65
  8
DEFPOINTS
 10
4322.3584708768394194
 20
280.5700971940379986
 30
0.0
 40
0.001
  1
BATHROOM SINK
  3

  2
PRODUCT
 70
     0
1001
ACDBATTR
1070
     0
1070
     1
  0
ENDSEC
  0
EOF
