  0
SECTION
  2
HEADER
  9
$ACADVER
  1
AC1009
  9
$INSBASE
 10
4302.0261596242426094
 20
267.3975237846987056
 30
0.0
  9
$EXTMIN
 10
4293.2743464674940697
 20
261.5548698386958222
 30
0.0
  9
$EXTMAX
 10
4310.7779727809929682
 20
268.1363037814987251
 30
0.0
  9
$LIMMIN
 10
0.0
 20
0.0
  9
$LIMMAX
 10
11.6929133858000007
 20
8.2677165353999982
  9
$ORTHOMODE
 70
     0
  9
$REGENMODE
 70
     1
  9
$FILLMODE
 70
     1
  9
$QTEXTMODE
 70
     0
  9
$MIRRTEXT
 70
     0
  9
$DRAGMODE
 70
     2
  9
$LTSCALE
 40
0.6431102362
  9
$OSMODE
 70
   695
  9
$ATTMODE
 70
     1
  9
$TEXTSIZE
 40
0.2
  9
$TRACEWID
 40
0.05
  9
$TEXTSTYLE
  7
STANDARD
  9
$CLAYER
  8
0
  9
$CELTYPE
  6
BYLAYER
  9
$CECOLOR
 62
   256
  9
$DIMSCALE
 40
1.0
  9
$DIMASZ
 40
0.1875
  9
$DIMEXO
 40
0.0625
  9
$DIMDLI
 40
0.4443307087
  9
$DIMRND
 40
0.0
  9
$DIMDLE
 40
0.0
  9
$DIMEXE
 40
0.125
  9
$DIMTP
 40
0.01
  9
$DIMTM
 40
0.01
  9
$DIMTXT
 40
2.0
  9
$DIMCEN
 40
0.1052362205
  9
$DIMTSZ
 40
0.0
  9
$DIMTOL
 70
     1
  9
$DIMLIM
 70
     0
  9
$DIMTIH
 70
     1
  9
$DIMTOH
 70
     1
  9
$DIMSE1
 70
     0
  9
$DIMSE2
 70
     0
  9
$DIMTAD
 70
     0
  9
$DIMZIN
 70
     0
  9
$DIMBLK
  1

  9
$DIMASO
 70
     1
  9
$DIMSHO
 70
     1
  9
$DIMPOST
  1
\X
  9
$DIMAPOST
  1

  9
$DIMALT
 70
     1
  9
$DIMALTD
 70
     2
  9
$DIMALTF
 40
25.3999999999999986
  9
$DIMLFAC
 40
1.0
  9
$DIMTOFL
 70
     0
  9
$DIMTVP
 40
0.0
  9
$DIMTIX
 70
     0
  9
$DIMSOXD
 70
     0
  9
$DIMSAH
 70
     0
  9
$DIMBLK1
  1

  9
$DIMBLK2
  1

  9
$DIMSTYLE
  2
STANDARD
  9
$DIMCLRD
 70
     0
  9
$DIMCLRE
 70
     0
  9
$DIMCLRT
 70
     0
  9
$DIMTFAC
 40
1.0
  9
$DIMGAP
 40
0.09
  9
$LUNITS
 70
     2
  9
$LUPREC
 70
     4
  9
$SKETCHINC
 40
0.1
  9
$FILLETRAD
 40
0.0
  9
$AUNITS
 70
     0
  9
$AUPREC
 70
     0
  9
$MENU
  1
.
  9
$ELEVATION
 40
0.0
  9
$PELEVATION
 40
0.0
  9
$THICKNESS
 40
0.0
  9
$LIMCHECK
 70
     0
  9
$BLIPMODE
 70
     0
  9
$CHAMFERA
 40
0.0
  9
$CHAMFERB
 40
0.0
  9
$SKPOLY
 70
     0
  9
$TDCREATE
 40
2458060.468368056230247
  9
$TDUPDATE
 40
2459329.5907060191966593
  9
$TDINDWG
 40
0.4864422454
  9
$TDUSRTIMER
 40
0.4864422454
  9
$USRTIMER
 70
     1
  9
$ANGBASE
 50
0.0
  9
$ANGDIR
 70
     0
  9
$PDMODE
 70
     0
  9
$PDSIZE
 40
0.3125
  9
$PLINEWID
 40
0.0
  9
$COORDS
 70
     1
  9
$SPLFRAME
 70
     0
  9
$SPLINETYPE
 70
     6
  9
$SPLINESEGS
 70
     8
  9
$ATTDIA
 70
     1
  9
$ATTREQ
 70
     1
  9
$HANDLING
 70
     1
  9
$HANDSEED
  5
1D120
  9
$SURFTAB1
 70
     6
  9
$SURFTAB2
 70
     6
  9
$SURFTYPE
 70
     6
  9
$SURFU
 70
     6
  9
$SURFV
 70
     6
  9
$UCSNAME
  2

  9
$UCSORG
 10
0.0
 20
0.0
 30
0.0
  9
$UCSXDIR
 10
1.0
 20
0.0
 30
0.0
  9
$UCSYDIR
 10
0.0
 20
1.0
 30
0.0
  9
$PUCSNAME
  2

  9
$PUCSORG
 10
0.0
 20
0.0
 30
0.0
  9
$PUCSXDIR
 10
1.0
 20
0.0
 30
0.0
  9
$PUCSYDIR
 10
0.0
 20
1.0
 30
0.0
  9
$USERI1
 70
     0
  9
$USERI2
 70
     0
  9
$USERI3
 70
     0
  9
$USERI4
 70
     0
  9
$USERI5
 70
     0
  9
$USERR1
 40
0.0
  9
$USERR2
 40
0.0
  9
$USERR3
 40
0.0
  9
$USERR4
 40
0.0
  9
$USERR5
 40
0.0
  9
$WORLDVIEW
 70
     1
  9
$SHADEDGE
 70
     3
  9
$SHADEDIF
 70
    70
  9
$TILEMODE
 70
     1
  9
$MAXACTVP
 70
    64
  9
$PLIMCHECK
 70
     0
  9
$PEXTMIN
 10
1.0000000000000000E+20
 20
1.0000000000000000E+20
 30
1.0000000000000000E+20
  9
$PEXTMAX
 10
-1.0000000000000000E+20
 20
-1.0000000000000000E+20
 30
-1.0000000000000000E+20
  9
$PLIMMIN
 10
0.0
 20
0.0
  9
$PLIMMAX
 10
12.0
 20
9.0
  9
$UNITMODE
 70
     0
  9
$VISRETAIN
 70
     1
  9
$PLINEGEN
 70
     0
  9
$PSLTSCALE
 70
     1
  0
ENDSEC
  0
SECTION
  2
TABLES
  0
TABLE
  2
VPORT
 70
     1
  0
VPORT
  2
*ACTIVE
 70
     0
 10
0.0
 20
0.0
 11
1.0
 21
1.0
 12
390.697685022679309
 22
132.4803640978107069
 13
0.0
 23
0.0
 14
1.0
 24
1.0
 15
0.0
 25
0.0
 16
0.0
 26
0.0
 36
60.4960186965801583
 17
3911.3653564453120453
 27
132.5796051025390057
 37
0.0
 40
11.6764631979141704
 41
2.3467862481315391
 42
50.0
 43
0.0
 44
0.0
 50
0.0
 51
0.0
 71
     0
 72
   100
 73
     1
 74
     1
 75
     0
 76
     0
 77
     0
 78
     0
  0
ENDTAB
  0
TABLE
  2
LTYPE
 70
     2
  0
LTYPE
  2
CONTINUOUS
 70
     0
  3
Solid line
 72
    65
 73
     0
 40
0.0
  0
LTYPE
  2
PHANTOM2
 70
     0
  3
___ _ _ ___ _ _ ___ _ _ ___ _ _
 72
    65
 73
     6
 40
1.25
 49
0.625
 49
-0.125
 49
0.125
 49
-0.125
 49
0.125
 49
-0.125
  0
ENDTAB
  0
TABLE
  2
LAYER
 70
     2
  0
LAYER
  2
0
 70
     0
 62
   255
  6
CONTINUOUS
  0
LAYER
  2
DEFPOINTS
 70
     0
 62
     7
  6
CONTINUOUS
  0
ENDTAB
  0
TABLE
  2
STYLE
 70
     1
  0
STYLE
  2
STANDARD
 70
     0
 40
0.0
 41
0.8
 50
0.0
 71
     0
 42
0.2
  3
txt
  4

  0
ENDTAB
  0
TABLE
  2
VIEW
 70
     0
  0
ENDTAB
  0
TABLE
  2
UCS
 70
     0
  0
ENDTAB
  0
TABLE
  2
APPID
 70
    11
  0
APPID
  2
ACAD
 70
     0
  0
APPID
  2
ACAD_MLEADERVER
 70
     0
  0
APPID
  2
ACAD_EXEMPT_FROM_CAD_STANDARDS
 70
     0
  0
APPID
  2
ACAD_NAV_VCDISPLAY
 70
     0
  0
APPID
  2
ACAECLAYERSTANDARD
 70
     0
  0
APPID
  2
ACCMTRANSPARENCY
 70
     0
  0
APPID
  2
ACAD_DSTYLE_DIMJAG
 70
     0
  0
APPID
  2
ACAD_DSTYLE_DIMTALN
 70
     0
  0
APPID
  2
ACDBATTR
 70
     0
  0
APPID
  2
ACADANNOTATIVE
 70
     0
  0
APPID
  2
DCO15
 70
     0
  0
ENDTAB
  0
TABLE
  2
DIMSTYLE
 70
     1
  0
DIMSTYLE
  2
STANDARD
 70
     0
  3

  4

  5

  6

  7

 40
1.0
 41
0.1875
 42
0.0625
 43
0.38
 44
0.125
 45
0.0
 46
0.0
 47
0.01
 48
0.01
140
0.15625
141
0.09
142
0.0
143
25.3999999999999986
144
1.0
145
0.0
146
1.0
147
0.09
 71
     1
 72
     0
 73
     1
 74
     1
 75
     0
 76
     0
 77
     0
 78
     4
170
     0
171
     2
172
     0
173
     0
174
     0
175
     0
176
     0
177
     0
178
     0
  0
ENDTAB
  0
ENDSEC
  0
SECTION
  2
BLOCKS
  0
BLOCK
  8
0
  2
$MODEL_SPACE
 70
     0
 10
0.0
 20
0.0
 30
0.0
  3
$MODEL_SPACE
  1

  0
ENDBLK
  5
21
  8
0
  0
BLOCK
 67
     1
  8
0
  2
$PAPER_SPACE
 70
     0
 10
0.0
 20
0.0
 30
0.0
  3
$PAPER_SPACE
  1

  0
ENDBLK
  5
1D
 67
     1
  8
0
  0
ENDSEC
  0
SECTION
  2
ENTITIES
  0
LINE
  5
1CF5F
  8
0
 10
4294.1422314771925812
 20
266.6768944575986779
 30
0.0
 11
4294.1103308354931869
 21
267.2855949605987007
 31
0.0
  0
LINE
  5
1CF60
  8
0
 10
4294.5666116727834378
 20
265.800191922363922
 30
0.0
 11
4294.4008932516926507
 21
265.999053740598697
 31
0.0
  0
LINE
  5
1CF61
  8
0
 10
4293.3201596241933657
 20
267.9723037846986813
 30
0.0
 11
4293.2913537314925634
 21
268.0086855895987128
 31
0.0
  0
LINE
  5
1CF62
  8
0
 10
4301.2590148033941659
 20
262.0102933748987084
 30
0.0
 11
4301.2590193791929778
 21
262.0461043930986875
 31
0.0
  0
LINE
  5
1CF63
  8
0
 10
4300.6703673263928067
 20
261.6524704475987164
 30
0.0
 11
4300.6570564431931416
 21
261.7279602173986746
 31
0.0
  0
LINE
  5
1CF64
  8
0
 10
4300.7866840299930118
 20
261.5548698386987212
 30
0.0
 11
4303.2656352184931166
 21
261.5548698386987212
 31
0.0
  0
LINE
  5
1CF65
  8
0
 10
4303.3819519220933216
 20
261.6524704475987164
 30
0.0
 11
4303.6119606085931082
 21
262.9569145297987234
 31
0.0
  0
LINE
  5
1CF66
  8
0
 10
4303.707451883493377
 20
263.0526648004988033
 30
0.0
 11
4301.2386085159932918
 21
263.0526648004988033
 31
0.0
  0
LINE
  5
1CF67
  8
0
 10
4310.7321596242936721
 20
267.9723037846986813
 30
0.0
 11
4310.7609655169926555
 21
268.0086855895987128
 31
0.0
  0
LINE
  5
1CF68
  8
0
 10
4293.7910986224933367
 20
267.3975237846987056
 30
0.0
 11
4310.2612195198926202
 21
267.3975237846987056
 31
0.0
  0
LINE
  5
1CF69
  8
0
 10
4310.699232559893062
 20
268.1363037814987251
 30
0.0
 11
4293.3530866756927935
 21
268.1363037814987251
 31
0.0
  0
ARC
  5
1CF6A
  8
0
 10
4391.135139430779418
 20
277.9160704668082076
 30
0.0
 40
91.2664931873016343
 50
189.4765687314360889
 51
190.0138371246142981
  0
ARC
  5
1CF6B
  8
0
 10
4293.7910986224933367
 20
267.5175237846987102
 30
0.0
 40
0.12
 50
209.9407956077066899
 51
270.0
  0
ARC
  5
1CF6C
  8
0
 10
4310.2612206259791492
 20
267.51752378471258
 30
0.0
 40
0.1200000000189862
 50
269.9994718827927045
 51
330.0592043898662951
  0
ARC
  5
1CF6D
  8
0
 10
4293.9923824652933035
 20
267.2794135484987237
 30
0.0
 40
0.1181102362
 50
3.000000001300045
 51
90.0
  0
ARC
  5
1CF6E
  8
0
 10
4300.7866832026993507
 20
261.6729800749020001
 30
0.0
 40
0.1181102362061984
 50
190.0000000010952874
 51
270.000401324004315
  0
ARC
  5
1CF6F
  8
0
 10
4303.2656360457876872
 20
261.6729800749020001
 30
0.0
 40
0.1181102362061904
 50
269.999598675995685
 51
349.9999999989046842
  0
ARC
  5
1CF70
  8
0
 10
4309.9835939404138117
 20
267.2794142958792918
 30
0.0
 40
0.1181094888194159
 50
90.0
 51
124.8042156273538978
  0
ARC
  5
1CF71
  8
0
 10
4303.7282764849933301
 20
262.9364049024986798
 30
0.0
 40
0.1181102362
 50
100.1551896834063058
 51
170.0000000000025011
  0
ARC
  5
1CF72
  8
0
 10
4293.3530866249930114
 20
268.0575636239987034
 30
0.0
 40
0.0787401575000114
 50
89.9999631078487852
 51
218.370999998796691
  0
ARC
  5
1CF73
  8
0
 10
4310.699232623493117
 20
268.0575636239987034
 30
0.0
 40
0.0787401575000283
 50
321.6290000012057817
 51
90.0000462789193136
  0
LINE
  5
1CF74
  8
0
 10
4294.3037517981920246
 20
266.5094615312987116
 30
0.0
 11
4294.2863455484930455
 21
267.2855949279987158
 31
0.0
  0
ARC
  5
1CF75
  8
0
 10
4300.4628270235307355
 20
261.6935850101710912
 30
0.0
 40
0.1972478702900456
 50
10.0364215771867809
 51
80.5851640593543834
  0
ARC
  5
1CF76
  8
0
 10
4301.1270602969798347
 20
262.081460925596673
 30
0.0
 40
0.1499226868589558
 50
292.6486396345869139
 51
331.6605062586343138
  0
ARC
  5
1CF77
  8
0
 10
4300.8870261232841585
 20
262.5505182019412018
 30
0.0
 40
0.6764775932597292
 50
280.6095133775374961
 51
296.1148318223487195
  0
ARC
  5
1CF78
  8
0
 10
4300.8492870536392729
 20
262.6857874725105262
 30
0.0
 40
0.8164737064726034
 50
267.8898496110332985
 51
281.4648952461355975
  0
ARC
  5
1CF79
  8
0
 10
4300.7922588438823368
 20
264.2708178475066916
 30
0.0
 40
2.4011018367235222
 50
262.8907178659482042
 51
270.6434609855514282
  0
ARC
  5
1CF7A
  8
0
 10
4301.327169320048597
 20
266.9149542468290974
 30
0.0
 40
5.0951792089498733
 50
237.3737818965462907
 51
260.6011265506772929
  0
ARC
  5
1CF7B
  8
0
 10
4304.300314956785769
 20
273.3738939666570218
 30
0.0
 40
12.1772926986611196
 50
230.478089227106608
 51
241.9821434925300139
  0
ARC
  5
1CF7C
  8
0
 10
4313.3270575523765729
 20
284.5488921707611212
 30
0.0
 40
26.5422696094071995
 50
227.2542905855902973
 51
230.7984572484272121
  0
ARC
  5
1CF7D
  8
0
 10
4300.3644016205189473
 20
270.8667017103568924
 30
0.0
 40
7.6996032176926157
 50
221.1492077926594106
 51
228.9861684348562108
  0
ARC
  5
1CF7E
  8
0
 10
4295.3235905841738713
 20
266.7394245863812898
 30
0.0
 40
1.18301283029888
 50
183.0298765389902087
 51
218.7435012004914086
  0
ARC
  5
1CF7F
  8
0
 10
4295.4886993097743471
 20
266.5452671093967751
 30
0.0
 40
1.185488357018301
 50
181.7307808496771031
 51
218.9392779626487879
  0
ARC
  5
1CF80
  8
0
 10
4294.1697790567322954
 20
267.2808677279173821
 30
0.0
 40
0.1166623050615387
 50
2.3222821286891748
 51
89.4070002105226251
  0
LINE
  5
1CF81
  8
0
 10
4301.1141586395660852
 20
262.8895673441297731
 30
0.0
 11
4301.154981624093125
 21
262.9840251344987223
 31
0.0
  0
ARC
  5
1CF82
  8
0
 10
4301.2552743620553883
 20
262.9470969309555244
 30
0.0
 40
0.1068752801393804
 50
98.9711624822753038
 51
159.7860830845123985
  0
ARC
  5
1CF83
  8
0
 10
4291.7649022780424275
 20
266.4752753919340762
 30
0.0
 40
2.1586846508489912
 50
27.0695331958823111
 51
43.9070916285522586
  0
ARC
  5
1CF84
  8
0
 10
4301.6450926369561785
 20
268.4047055032037861
 30
0.0
 40
5.367454613129631
 50
250.953228493870796
 51
265.6567598677995079
  0
ARC
  5
1CF85
  8
0
 10
4302.5128200316794391
 20
270.4910506060808757
 30
0.0
 40
7.624025447585244
 50
234.3868213735619008
 51
249.9058283322563909
  0
ARC
  5
1CF86
  8
0
 10
4308.3616515712055843
 20
278.7803778755304052
 30
0.0
 40
17.7689527255136817
 50
227.7866403084279057
 51
234.6191523290017074
  0
ARC
  5
1CF87
  8
0
 10
4272.709373412117202
 20
240.5528865766972899
 30
0.0
 40
34.5062205733530405
 50
46.5893847535938832
 51
50.2719298438236706
  0
ARC
  5
1CF88
  8
0
 10
4291.8633194336443921
 20
263.5208363224912773
 30
0.0
 40
4.6000222219761149
 50
50.9096511380688028
 51
56.9464175632819973
  0
ARC
  5
1CF89
  8
0
 10
4294.3067373113399299
 20
267.2853083175501183
 30
0.0
 40
0.112215559804106
 50
54.2634250008388008
 51
89.9263713963404854
  0
ARC
  5
1CF8A
  8
0
 10
4312.2874169643791902
 20
266.4752753963297209
 30
0.0
 40
2.1586846433590661
 50
136.0929083420083998
 51
152.9304668335406063
  0
ARC
  5
1CF8B
  8
0
 10
4302.88623168642971
 20
267.4729244131136738
 30
0.0
 40
4.4958978697882834
 50
280.5247291923138278
 51
292.6611493420966781
  0
ARC
  5
1CF8C
  8
0
 10
4301.748947215737644
 20
270.1294620233957744
 30
0.0
 40
7.3855686752378764
 50
292.8626486315646957
 51
303.3270595873224806
  0
ARC
  5
1CF8D
  8
0
 10
4298.3755126217793077
 20
275.248529387504675
 30
0.0
 40
13.5162204264724402
 50
303.3531775807098825
 51
309.8175702796492033
  0
ARC
  5
1CF8E
  8
0
 10
4243.9304776154567662
 20
337.2699871647911891
 30
0.0
 40
96.0407643246050213
 50
311.0725043539792978
 51
312.6714039124473175
  0
ARC
  5
1CF8F
  8
0
 10
4315.3257109245278116
 20
259.7861979243668884
 30
0.0
 40
9.3206283542701946
 50
125.4774593715729054
 51
132.5214333428685052
  0
ATTDEF
  5
1CF91
  8
DEFPOINTS
 10
4302.0263255592917631
 20
267.3964062140806845
 30
0.0
 40
0.001
  1
K-96118T
  3

  2
MODELNUMBER
 70
     0
1001
ACDBATTR
1070
     0
1070
     1
  0
ATTDEF
  5
1CF92
  8
DEFPOINTS
 10
4302.0261997496354525
 20
267.3947393737014977
 30
0.0
 40
0.001
  1
CARILLON
  3

  2
TRADENAME
 70
     0
1001
ACDBATTR
1070
     0
1070
     1
  0
ATTDEF
  5
1CF93
  8
DEFPOINTS
 10
4302.0263255592917631
 20
267.3930728807472974
 30
0.0
 40
0.001
  1
BATHROOM SINK
  3

  2
PRODUCT
 70
     0
1001
ACDBATTR
1070
     0
1070
     1
  0
ENDSEC
  0
EOF
