  0
SECTION
  2
HEADER
  9
$ACADVER
  1
AC1009
  9
$INSBASE
 10
3593.1669132542829175
 20
192.826896209301907
 30
0.0
  9
$EXTMIN
 10
3581.2496569081308735
 20
191.0206044259761882
 30
-0.0015258207003583
  9
$EXTMAX
 10
3605.1583607338948241
 20
196.7701673517217955
 30
0.0000000349246037
  9
$LIMMIN
 10
0.0
 20
0.0
  9
$LIMMAX
 10
11.6929133858000007
 20
8.2677165353999982
  9
$ORTHOMODE
 70
     0
  9
$REGENMODE
 70
     1
  9
$FILLMODE
 70
     1
  9
$QTEXTMODE
 70
     0
  9
$MIRRTEXT
 70
     0
  9
$DRAGMODE
 70
     2
  9
$LTSCALE
 40
0.6431102362
  9
$OSMODE
 70
  4095
  9
$ATTMODE
 70
     1
  9
$TEXTSIZE
 40
0.2
  9
$TRACEWID
 40
0.05
  9
$TEXTSTYLE
  7
STANDARD
  9
$CLAYER
  8
0
  9
$CELTYPE
  6
BYLAYER
  9
$CECOLOR
 62
   256
  9
$DIMSCALE
 40
1.0
  9
$DIMASZ
 40
0.1875
  9
$DIMEXO
 40
0.0625
  9
$DIMDLI
 40
0.4443307087
  9
$DIMRND
 40
0.0
  9
$DIMDLE
 40
0.0
  9
$DIMEXE
 40
0.125
  9
$DIMTP
 40
0.01
  9
$DIMTM
 40
0.01
  9
$DIMTXT
 40
2.0
  9
$DIMCEN
 40
0.1052362205
  9
$DIMTSZ
 40
0.0
  9
$DIMTOL
 70
     1
  9
$DIMLIM
 70
     0
  9
$DIMTIH
 70
     1
  9
$DIMTOH
 70
     1
  9
$DIMSE1
 70
     0
  9
$DIMSE2
 70
     0
  9
$DIMTAD
 70
     0
  9
$DIMZIN
 70
     0
  9
$DIMBLK
  1

  9
$DIMASO
 70
     1
  9
$DIMSHO
 70
     1
  9
$DIMPOST
  1
\X
  9
$DIMAPOST
  1

  9
$DIMALT
 70
     1
  9
$DIMALTD
 70
     2
  9
$DIMALTF
 40
25.3999999999999986
  9
$DIMLFAC
 40
1.0
  9
$DIMTOFL
 70
     0
  9
$DIMTVP
 40
0.0
  9
$DIMTIX
 70
     0
  9
$DIMSOXD
 70
     0
  9
$DIMSAH
 70
     0
  9
$DIMBLK1
  1

  9
$DIMBLK2
  1

  9
$DIMSTYLE
  2
STANDARD
  9
$DIMCLRD
 70
     0
  9
$DIMCLRE
 70
     0
  9
$DIMCLRT
 70
     0
  9
$DIMTFAC
 40
1.0
  9
$DIMGAP
 40
0.09
  9
$LUNITS
 70
     2
  9
$LUPREC
 70
     4
  9
$SKETCHINC
 40
0.1
  9
$FILLETRAD
 40
0.0
  9
$AUNITS
 70
     0
  9
$AUPREC
 70
     0
  9
$MENU
  1
.
  9
$ELEVATION
 40
0.0
  9
$PELEVATION
 40
0.0
  9
$THICKNESS
 40
0.0
  9
$LIMCHECK
 70
     0
  9
$BLIPMODE
 70
     0
  9
$CHAMFERA
 40
0.0
  9
$CHAMFERB
 40
0.0
  9
$SKPOLY
 70
     0
  9
$TDCREATE
 40
2458060.468368056230247
  9
$TDUPDATE
 40
2459011.6642592591233552
  9
$TDINDWG
 40
0.5419399306
  9
$TDUSRTIMER
 40
0.5419399306
  9
$USRTIMER
 70
     1
  9
$ANGBASE
 50
0.0
  9
$ANGDIR
 70
     0
  9
$PDMODE
 70
     0
  9
$PDSIZE
 40
0.3125
  9
$PLINEWID
 40
0.0
  9
$COORDS
 70
     1
  9
$SPLFRAME
 70
     0
  9
$SPLINETYPE
 70
     6
  9
$SPLINESEGS
 70
     8
  9
$ATTDIA
 70
     1
  9
$ATTREQ
 70
     1
  9
$HANDLING
 70
     1
  9
$HANDSEED
  5
9FCD
  9
$SURFTAB1
 70
     6
  9
$SURFTAB2
 70
     6
  9
$SURFTYPE
 70
     6
  9
$SURFU
 70
     6
  9
$SURFV
 70
     6
  9
$UCSNAME
  2

  9
$UCSORG
 10
0.0
 20
0.0
 30
0.0
  9
$UCSXDIR
 10
1.0
 20
0.0
 30
0.0
  9
$UCSYDIR
 10
0.0
 20
1.0
 30
0.0
  9
$PUCSNAME
  2

  9
$PUCSORG
 10
0.0
 20
0.0
 30
0.0
  9
$PUCSXDIR
 10
1.0
 20
0.0
 30
0.0
  9
$PUCSYDIR
 10
0.0
 20
1.0
 30
0.0
  9
$USERI1
 70
     0
  9
$USERI2
 70
     0
  9
$USERI3
 70
     0
  9
$USERI4
 70
     0
  9
$USERI5
 70
     0
  9
$USERR1
 40
0.0
  9
$USERR2
 40
0.0
  9
$USERR3
 40
0.0
  9
$USERR4
 40
0.0
  9
$USERR5
 40
0.0
  9
$WORLDVIEW
 70
     1
  9
$SHADEDGE
 70
     3
  9
$SHADEDIF
 70
    70
  9
$TILEMODE
 70
     1
  9
$MAXACTVP
 70
    64
  9
$PLIMCHECK
 70
     0
  9
$PEXTMIN
 10
1.0000000000000000E+20
 20
1.0000000000000000E+20
 30
1.0000000000000000E+20
  9
$PEXTMAX
 10
-1.0000000000000000E+20
 20
-1.0000000000000000E+20
 30
-1.0000000000000000E+20
  9
$PLIMMIN
 10
0.0
 20
0.0
  9
$PLIMMAX
 10
12.0
 20
9.0
  9
$UNITMODE
 70
     0
  9
$VISRETAIN
 70
     1
  9
$PLINEGEN
 70
     0
  9
$PSLTSCALE
 70
     1
  0
ENDSEC
  0
SECTION
  2
TABLES
  0
TABLE
  2
VPORT
 70
     1
  0
VPORT
  2
*ACTIVE
 70
     0
 10
0.0
 20
0.0
 11
1.0
 21
1.0
 12
289.5108935866383035
 22
-1.3661256870387311
 13
0.0
 23
0.0
 14
1.0
 24
1.0
 15
0.0
 25
0.0
 16
0.0
 26
0.0
 36
96.5995694866707311
 17
3303.693115234375
 27
195.2615115758877096
 37
0.0
 40
9.0552453778723638
 41
2.6486111111111108
 42
50.0
 43
0.0
 44
0.0
 50
0.0
 51
0.0
 71
     0
 72
   100
 73
     1
 74
     1
 75
     0
 76
     0
 77
     0
 78
     0
  0
ENDTAB
  0
TABLE
  2
LTYPE
 70
     2
  0
LTYPE
  2
CONTINUOUS
 70
     0
  3
Solid line
 72
    65
 73
     0
 40
0.0
  0
LTYPE
  2
PHANTOM2
 70
     0
  3
___ _ _ ___ _ _ ___ _ _ ___ _ _
 72
    65
 73
     6
 40
1.25
 49
0.625
 49
-0.125
 49
0.125
 49
-0.125
 49
0.125
 49
-0.125
  0
ENDTAB
  0
TABLE
  2
LAYER
 70
     2
  0
LAYER
  2
0
 70
     0
 62
   255
  6
CONTINUOUS
  0
LAYER
  2
DEFPOINTS
 70
     0
 62
     7
  6
CONTINUOUS
  0
ENDTAB
  0
TABLE
  2
STYLE
 70
     1
  0
STYLE
  2
STANDARD
 70
     0
 40
0.0
 41
0.8
 50
0.0
 71
     0
 42
0.2
  3
txt
  4

  0
ENDTAB
  0
TABLE
  2
VIEW
 70
     0
  0
ENDTAB
  0
TABLE
  2
UCS
 70
     0
  0
ENDTAB
  0
TABLE
  2
APPID
 70
     9
  0
APPID
  2
ACAD
 70
     0
  0
APPID
  2
ACAD_MLEADERVER
 70
     0
  0
APPID
  2
ACAD_EXEMPT_FROM_CAD_STANDARDS
 70
     0
  0
APPID
  2
ACAD_NAV_VCDISPLAY
 70
     0
  0
APPID
  2
ACAECLAYERSTANDARD
 70
     0
  0
APPID
  2
ACCMTRANSPARENCY
 70
     0
  0
APPID
  2
ACAD_DSTYLE_DIMJAG
 70
     0
  0
APPID
  2
ACAD_DSTYLE_DIMTALN
 70
     0
  0
APPID
  2
ACDBATTR
 70
     0
  0
ENDTAB
  0
TABLE
  2
DIMSTYLE
 70
     1
  0
DIMSTYLE
  2
STANDARD
 70
     0
  3

  4

  5

  6

  7

 40
1.0
 41
0.1875
 42
0.0625
 43
0.38
 44
0.125
 45
0.0
 46
0.0
 47
0.01
 48
0.01
140
0.15625
141
0.09
142
0.0
143
25.3999999999999986
144
1.0
145
0.0
146
1.0
147
0.09
 71
     1
 72
     0
 73
     1
 74
     1
 75
     0
 76
     0
 77
     0
 78
     4
170
     0
171
     2
172
     0
173
     0
174
     0
175
     0
176
     0
177
     0
178
     0
  0
ENDTAB
  0
ENDSEC
  0
SECTION
  2
BLOCKS
  0
BLOCK
  8
0
  2
$MODEL_SPACE
 70
     0
 10
0.0
 20
0.0
 30
0.0
  3
$MODEL_SPACE
  1

  0
ENDBLK
  5
21
  8
0
  0
BLOCK
 67
     1
  8
0
  2
$PAPER_SPACE
 70
     0
 10
0.0
 20
0.0
 30
0.0
  3
$PAPER_SPACE
  1

  0
ENDBLK
  5
1D
 67
     1
  8
0
  0
BLOCK
  8
0
  2
_FILLED
 70
     0
 10
0.0
 20
0.0
 30
0.0
  3
_FILLED
  1

  0
SOLID
  5
9E2C
  8
0
  6
BYBLOCK
 62
     0
 10
0.0
 20
0.0
 30
0.0
 11
-1.0
 21
0.1666666667
 31
0.0
 12
-1.0
 22
-0.1666666667
 32
0.0
 13
-1.0
 23
-0.1666666667
 33
0.0
  0
ENDBLK
  5
9E2D
  8
0
  6
BYBLOCK
 62
     0
  0
ENDSEC
  0
SECTION
  2
ENTITIES
  0
ATTDEF
  5
97D3
  8
DEFPOINTS
 10
3593.167410105701947
 20
192.830639468062401
 30
0.0
 40
0.001
  1
K-96120T-1
  3

  2
MODELNUMBER
 70
     0
1001
ACDBATTR
1070
     0
1070
     1
  0
ATTDEF
  5
97D4
  8
DEFPOINTS
 10
3593.167410105701947
 20
192.8289728013957074
 30
0.0
 40
0.001
  1
MAXISPACE
  3

  2
TRADENAME
 70
     0
1001
ACDBATTR
1070
     0
1070
     1
  0
ATTDEF
  5
97D5
  8
DEFPOINTS
 10
3593.167410105701947
 20
192.8273061347290991
 30
0.0
 40
0.001
  1
BATHROOM SINK
  3

  2
PRODUCT
 70
     0
1001
ACDBATTR
1070
     0
1070
     1
  0
LINE
  5
9E5C
  8
0
 10
3604.7417164038829469
 20
196.7639040833018953
 30
0.0
 11
3581.592110104682888
 21
196.7639040833018953
 31
0.0
  0
ARC
  5
9E5D
  8
0
 10
3581.592110104682888
 20
196.527683610901903
 30
0.0
 40
0.2362204724000003
 50
90.0
 51
180.0000000000081002
  0
LINE
  5
9E5E
  8
0
 10
3581.3558896322829241
 20
196.527683610901903
 30
0.0
 11
3581.4136882584830346
 21
192.9056363668019003
 31
0.0
  0
LINE
  5
9E5F
  8
0
 10
3581.4136882584830346
 20
192.9056363668019003
 30
0.0
 11
3604.9201382500828004
 21
192.9056363668019003
 31
0.0
  0
LINE
  5
9E60
  8
0
 10
3604.9201382500828004
 20
192.9056363668019003
 30
0.0
 11
3604.9779368762829108
 21
196.527683610901903
 31
0.0
  0
ARC
  5
9E61
  8
0
 10
3604.7417164038829469
 20
196.527683610901903
 30
0.0
 40
0.2362204723999923
 50
0.0
 51
89.9999951974711081
  0
LINE
  5
9E62
  8
0
 10
3604.8598266400831562
 20
192.9056363668019003
 30
0.0
 11
3604.8598266400831562
 21
192.826896209301907
 31
0.0
  0
LINE
  5
9E63
  8
0
 10
3604.8598266400831562
 20
192.826896209301907
 30
0.0
 11
3581.473999868484043
 21
192.826896209301907
 31
0.0
  0
LINE
  5
9E64
  8
0
 10
3581.473999868484043
 20
192.826896209301907
 30
0.0
 11
3581.473999868484043
 21
192.9056363668019003
 31
0.0
  0
LINE
  5
9E65
  8
0
 10
3583.4769481611829178
 20
192.826896209301907
 30
0.0
 11
3583.5269714732971806
 21
192.2551271361838019
 31
0.0
  0
LINE
  5
9E66
  8
0
 10
3583.5269714732971806
 20
192.2551271361838019
 30
0.0
 11
3583.5568232500850172
 21
191.9139197657952138
 31
0.0
  0
ARC
  5
9E67
  8
0
 10
3583.8007524712779741
 20
191.8907848380538894
 30
0.0
 40
0.2450238556411758
 50
174.5821145747104879
 51
269.0610978328069791
  0
LINE
  5
9E68
  8
0
 10
3583.7967374611830564
 20
191.6457938800018894
 30
0.0
 11
3584.399441303083222
 21
191.6457938471019133
 31
0.0
  0
ARC
  5
9E69
  8
0
 10
3584.4005309004869559
 20
191.8807591804763035
 30
0.0
 40
0.2349678597416994
 50
269.7343058253297272
 51
352.1908163371022056
  0
LINE
  5
9E6A
  8
0
 10
3584.6380891140179301
 20
191.9221449263257
 30
0.0
 11
3584.6442391515829513
 21
192.0394946345018923
 31
0.0
  0
ARC
  5
9E6B
  8
0
 10
3582.9278467566900872
 20
191.9965965979714895
 30
0.0
 40
1.71186213586487
 50
355.0482138901128906
 51
357.507327010792892
  0
ARC
  5
9E6C
  8
0
 10
3583.7622930554830418
 20
192.275715106901913
 30
0.0
 40
0.2362204724000012
 50
184.9999999945586069
 51
270.0
  0
LINE
  5
9E6D
  8
0
 10
3583.7622930554830418
 20
192.0394946345018923
 30
0.0
 11
3602.5715338852828609
 21
192.039494634501807
 31
0.0
  0
ARC
  5
9E6E
  8
0
 10
3602.5715338852828609
 20
192.275714635238586
 30
0.0
 40
0.2362200007368814
 50
270.0
 51
355.0001048311783052
  0
LINE
  5
9E6F
  8
0
 10
3602.8568783473829171
 20
192.826896209301907
 30
0.0
 11
3602.7770032603839354
 21
191.9139197871018894
 31
0.0
  0
ARC
  5
9E70
  8
0
 10
3602.4779812513988873
 20
191.9400808230298026
 30
0.0
 40
0.3001642244799844
 50
281.3568105202223819
 51
355.0000000005571223
  0
LINE
  5
9E71
  8
0
 10
3602.5370890973831592
 20
191.6457938471019133
 30
0.0
 11
3601.9344059133768496
 21
191.6452999392697905
 31
0.0
  0
ARC
  5
9E72
  8
0
 10
3601.9353069326489276
 20
191.882520426213091
 30
0.0
 40
0.2372221980788604
 50
191.1157457757761904
 51
269.782378183618107
  0
ARC
  5
9E73
  8
0
 10
3602.2252647672980856
 20
191.9157764577153955
 30
0.0
 40
0.528664177745776
 50
180.5210234363071038
 51
188.5930405723991043
  0
LINE
  5
9E74
  8
0
 10
3601.6966224478751428
 20
191.9109690765941139
 30
0.0
 11
3601.6896129040828782
 21
192.039007165101907
 31
0.0
  0
ARC
  5
9E75
  8
0
 10
3601.6887114353130528
 20
191.5092079922098094
 30
0.0
 40
0.5328532269309197
 50
96.4777770738097331
 51
109.8261689383868998
  0
ARC
  5
9E76
  8
0
 10
3596.7417371345268293
 20
213.0710122846903971
 30
0.0
 40
21.5931301608490109
 50
276.6489741388372181
 51
282.7519024605661002
  0
ARC
  5
9E77
  8
0
 10
3596.7581462618231853
 20
220.6376782045470009
 30
0.0
 40
29.1206813371239903
 50
267.6642528045857148
 51
274.8928483775633254
  0
ARC
  5
9E78
  8
0
 10
3598.6285375443530938
 20
302.4356960425100169
 30
0.0
 40
110.9366381624769957
 50
266.8428561889751904
 51
268.4208335507806282
  0
ARC
  5
9E79
  8
0
 10
3601.2824645254891038
 20
365.414694846027885
 30
0.0
 40
173.9681402047073107
 50
265.2832045810105228
 51
267.1124762410967719
  0
ARC
  5
9E7A
  8
0
 10
3598.9234961274178204
 20
191.9606862794749986
 30
0.0
 40
0.4723569959917506
 50
279.4367605567512101
 51
314.6663276710439163
  0
ARC
  5
9E7B
  8
0
 10
3599.0516801358071461
 20
191.189460617173097
 30
0.0
 40
0.3094487101780274
 50
99.4367605567511532
 51
176.8032513601110907
  0
ARC
  5
9E7C
  8
0
 10
3597.8603714916780518
 20
191.2559972964951953
 30
0.0
 40
0.8837165823409145
 50
355.2001867915042226
 51
356.8032513601111191
  0
ARC
  5
9E7D
  8
0
 10
3598.5816604143428776
 20
191.1954313414667865
 30
0.0
 40
0.1598892929495924
 50
270.7998130674699269
 51
355.2001867915042226
  0
LINE
  5
9E7E
  8
0
 10
3598.5838922958828334
 20
191.0355576266019
 30
0.0
 11
3596.1219322162169192
 21
191.0355576266019
 31
0.0
  0
ARC
  5
9E7F
  8
0
 10
3596.1216926519750814
 20
191.1930380985234024
 30
0.0
 40
0.1574806541377335
 50
184.0000486187915101
 51
270.0871600727430177
  0
LINE
  5
9E80
  8
0
 10
3595.9645956221188499
 20
191.1820526701019105
 30
0.0
 11
3595.9628709419989718
 21
191.2067164441345994
 31
0.0
  0
ARC
  5
9E81
  8
0
 10
3595.6486777329209872
 20
191.1847456467745019
 30
0.0
 40
0.3149604555618808
 50
4.0000486187915438
 51
79.7737927344778512
  0
ARC
  5
9E82
  8
0
 10
3595.7841180136601906
 20
191.9682553420472004
 30
0.0
 40
0.4801833466482298
 50
242.7437967887584023
 51
260.4672495256157276
  0
ENDSEC
  0
EOF
