  0
SECTION
  2
HEADER
  9
$ACADVER
  1
AC1009
  9
$INSBASE
 10
3593.1620272379000198
 20
181.1772587406788944
 30
0.0
  9
$EXTMIN
 10
3575.1753082021550654
 20
179.3859388137402107
 30
-0.0015258207003583
  9
$EXTMAX
 10
3610.988766346995817
 20
185.1199162847815956
 30
0.0000000349246037
  9
$LIMMIN
 10
0.0
 20
0.0
  9
$LIMMAX
 10
11.6929133858000007
 20
8.2677165353999982
  9
$ORTHOMODE
 70
     0
  9
$REGENMODE
 70
     1
  9
$FILLMODE
 70
     1
  9
$QTEXTMODE
 70
     0
  9
$MIRRTEXT
 70
     0
  9
$DRAGMODE
 70
     2
  9
$LTSCALE
 40
0.6431102362
  9
$OSMODE
 70
  4095
  9
$ATTMODE
 70
     1
  9
$TEXTSIZE
 40
0.2
  9
$TRACEWID
 40
0.05
  9
$TEXTSTYLE
  7
STANDARD
  9
$CLAYER
  8
0
  9
$CELTYPE
  6
BYLAYER
  9
$CECOLOR
 62
   256
  9
$DIMSCALE
 40
1.0
  9
$DIMASZ
 40
0.1875
  9
$DIMEXO
 40
0.0625
  9
$DIMDLI
 40
0.4443307087
  9
$DIMRND
 40
0.0
  9
$DIMDLE
 40
0.0
  9
$DIMEXE
 40
0.125
  9
$DIMTP
 40
0.01
  9
$DIMTM
 40
0.01
  9
$DIMTXT
 40
2.0
  9
$DIMCEN
 40
0.1052362205
  9
$DIMTSZ
 40
0.0
  9
$DIMTOL
 70
     1
  9
$DIMLIM
 70
     0
  9
$DIMTIH
 70
     1
  9
$DIMTOH
 70
     1
  9
$DIMSE1
 70
     0
  9
$DIMSE2
 70
     0
  9
$DIMTAD
 70
     0
  9
$DIMZIN
 70
     0
  9
$DIMBLK
  1

  9
$DIMASO
 70
     1
  9
$DIMSHO
 70
     1
  9
$DIMPOST
  1
\X
  9
$DIMAPOST
  1

  9
$DIMALT
 70
     1
  9
$DIMALTD
 70
     2
  9
$DIMALTF
 40
25.3999999999999986
  9
$DIMLFAC
 40
1.0
  9
$DIMTOFL
 70
     0
  9
$DIMTVP
 40
0.0
  9
$DIMTIX
 70
     0
  9
$DIMSOXD
 70
     0
  9
$DIMSAH
 70
     0
  9
$DIMBLK1
  1

  9
$DIMBLK2
  1

  9
$DIMSTYLE
  2
STANDARD
  9
$DIMCLRD
 70
     0
  9
$DIMCLRE
 70
     0
  9
$DIMCLRT
 70
     0
  9
$DIMTFAC
 40
1.0
  9
$DIMGAP
 40
0.09
  9
$LUNITS
 70
     2
  9
$LUPREC
 70
     4
  9
$SKETCHINC
 40
0.1
  9
$FILLETRAD
 40
0.0
  9
$AUNITS
 70
     0
  9
$AUPREC
 70
     0
  9
$MENU
  1
.
  9
$ELEVATION
 40
0.0
  9
$PELEVATION
 40
0.0
  9
$THICKNESS
 40
0.0
  9
$LIMCHECK
 70
     0
  9
$BLIPMODE
 70
     0
  9
$CHAMFERA
 40
0.0
  9
$CHAMFERB
 40
0.0
  9
$SKPOLY
 70
     0
  9
$TDCREATE
 40
2458060.468368056230247
  9
$TDUPDATE
 40
2459011.6689930548891425
  9
$TDINDWG
 40
0.5388265046
  9
$TDUSRTIMER
 40
0.5388265046
  9
$USRTIMER
 70
     1
  9
$ANGBASE
 50
0.0
  9
$ANGDIR
 70
     0
  9
$PDMODE
 70
     0
  9
$PDSIZE
 40
0.3125
  9
$PLINEWID
 40
0.0
  9
$COORDS
 70
     1
  9
$SPLFRAME
 70
     0
  9
$SPLINETYPE
 70
     6
  9
$SPLINESEGS
 70
     8
  9
$ATTDIA
 70
     1
  9
$ATTREQ
 70
     1
  9
$HANDLING
 70
     1
  9
$HANDSEED
  5
A033
  9
$SURFTAB1
 70
     6
  9
$SURFTAB2
 70
     6
  9
$SURFTYPE
 70
     6
  9
$SURFU
 70
     6
  9
$SURFV
 70
     6
  9
$UCSNAME
  2

  9
$UCSORG
 10
0.0
 20
0.0
 30
0.0
  9
$UCSXDIR
 10
1.0
 20
0.0
 30
0.0
  9
$UCSYDIR
 10
0.0
 20
1.0
 30
0.0
  9
$PUCSNAME
  2

  9
$PUCSORG
 10
0.0
 20
0.0
 30
0.0
  9
$PUCSXDIR
 10
1.0
 20
0.0
 30
0.0
  9
$PUCSYDIR
 10
0.0
 20
1.0
 30
0.0
  9
$USERI1
 70
     0
  9
$USERI2
 70
     0
  9
$USERI3
 70
     0
  9
$USERI4
 70
     0
  9
$USERI5
 70
     0
  9
$USERR1
 40
0.0
  9
$USERR2
 40
0.0
  9
$USERR3
 40
0.0
  9
$USERR4
 40
0.0
  9
$USERR5
 40
0.0
  9
$WORLDVIEW
 70
     1
  9
$SHADEDGE
 70
     3
  9
$SHADEDIF
 70
    70
  9
$TILEMODE
 70
     1
  9
$MAXACTVP
 70
    64
  9
$PLIMCHECK
 70
     0
  9
$PEXTMIN
 10
1.0000000000000000E+20
 20
1.0000000000000000E+20
 30
1.0000000000000000E+20
  9
$PEXTMAX
 10
-1.0000000000000000E+20
 20
-1.0000000000000000E+20
 30
-1.0000000000000000E+20
  9
$PLIMMIN
 10
0.0
 20
0.0
  9
$PLIMMAX
 10
12.0
 20
9.0
  9
$UNITMODE
 70
     0
  9
$VISRETAIN
 70
     1
  9
$PLINEGEN
 70
     0
  9
$PSLTSCALE
 70
     1
  0
ENDSEC
  0
SECTION
  2
TABLES
  0
TABLE
  2
VPORT
 70
     1
  0
VPORT
  2
*ACTIVE
 70
     0
 10
0.0
 20
0.0
 11
1.0
 21
1.0
 12
289.3889220402007254
 22
-13.0085840266268598
 13
0.0
 23
0.0
 14
1.0
 24
1.0
 15
0.0
 25
0.0
 16
0.0
 26
0.0
 36
96.5995694866707311
 17
3303.693115234375
 27
195.2615115758877096
 37
0.0
 40
12.6509983963255603
 41
2.8398203592814371
 42
50.0
 43
0.0
 44
0.0
 50
0.0
 51
0.0
 71
     0
 72
   100
 73
     1
 74
     1
 75
     0
 76
     0
 77
     0
 78
     0
  0
ENDTAB
  0
TABLE
  2
LTYPE
 70
     2
  0
LTYPE
  2
CONTINUOUS
 70
     0
  3
Solid line
 72
    65
 73
     0
 40
0.0
  0
LTYPE
  2
PHANTOM2
 70
     0
  3
___ _ _ ___ _ _ ___ _ _ ___ _ _
 72
    65
 73
     6
 40
1.25
 49
0.625
 49
-0.125
 49
0.125
 49
-0.125
 49
0.125
 49
-0.125
  0
ENDTAB
  0
TABLE
  2
LAYER
 70
     2
  0
LAYER
  2
0
 70
     0
 62
   255
  6
CONTINUOUS
  0
LAYER
  2
DEFPOINTS
 70
     0
 62
     7
  6
CONTINUOUS
  0
ENDTAB
  0
TABLE
  2
STYLE
 70
     1
  0
STYLE
  2
STANDARD
 70
     0
 40
0.0
 41
0.8
 50
0.0
 71
     0
 42
0.2
  3
txt
  4

  0
ENDTAB
  0
TABLE
  2
VIEW
 70
     0
  0
ENDTAB
  0
TABLE
  2
UCS
 70
     0
  0
ENDTAB
  0
TABLE
  2
APPID
 70
     9
  0
APPID
  2
ACAD
 70
     0
  0
APPID
  2
ACAD_MLEADERVER
 70
     0
  0
APPID
  2
ACAD_EXEMPT_FROM_CAD_STANDARDS
 70
     0
  0
APPID
  2
ACAD_NAV_VCDISPLAY
 70
     0
  0
APPID
  2
ACAECLAYERSTANDARD
 70
     0
  0
APPID
  2
ACCMTRANSPARENCY
 70
     0
  0
APPID
  2
ACAD_DSTYLE_DIMJAG
 70
     0
  0
APPID
  2
ACAD_DSTYLE_DIMTALN
 70
     0
  0
APPID
  2
ACDBATTR
 70
     0
  0
ENDTAB
  0
TABLE
  2
DIMSTYLE
 70
     1
  0
DIMSTYLE
  2
STANDARD
 70
     0
  3

  4

  5

  6

  7

 40
1.0
 41
0.1875
 42
0.0625
 43
0.38
 44
0.125
 45
0.0
 46
0.0
 47
0.01
 48
0.01
140
0.15625
141
0.09
142
0.0
143
25.3999999999999986
144
1.0
145
0.0
146
1.0
147
0.09
 71
     1
 72
     0
 73
     1
 74
     1
 75
     0
 76
     0
 77
     0
 78
     4
170
     0
171
     2
172
     0
173
     0
174
     0
175
     0
176
     0
177
     0
178
     0
  0
ENDTAB
  0
ENDSEC
  0
SECTION
  2
BLOCKS
  0
BLOCK
  8
0
  2
$MODEL_SPACE
 70
     0
 10
0.0
 20
0.0
 30
0.0
  3
$MODEL_SPACE
  1

  0
ENDBLK
  5
21
  8
0
  0
BLOCK
 67
     1
  8
0
  2
$PAPER_SPACE
 70
     0
 10
0.0
 20
0.0
 30
0.0
  3
$PAPER_SPACE
  1

  0
ENDBLK
  5
1D
 67
     1
  8
0
  0
BLOCK
  8
0
  2
_FILLED
 70
     0
 10
0.0
 20
0.0
 30
0.0
  3
_FILLED
  1

  0
SOLID
  5
9D35
  8
0
  6
BYBLOCK
 62
     0
 10
0.0
 20
0.0
 30
0.0
 11
-1.0
 21
0.1666666667
 31
0.0
 12
-1.0
 22
-0.1666666667
 32
0.0
 13
-1.0
 23
-0.1666666667
 33
0.0
  0
ENDBLK
  5
9D36
  8
0
  6
BYBLOCK
 62
     0
  0
ENDSEC
  0
SECTION
  2
ENTITIES
  0
ATTDEF
  5
9BA1
  8
DEFPOINTS
 10
3593.1622867862261046
 20
181.1808245118826903
 30
0.0
 40
0.001
  1
K-96121T-1
  3

  2
MODELNUMBER
 70
     0
1001
ACDBATTR
1070
     0
1070
     1
  0
ATTDEF
  5
9BA2
  8
DEFPOINTS
 10
3593.1622867862261046
 20
181.1791578452159968
 30
0.0
 40
0.001
  1
MAXISPACE
  3

  2
TRADENAME
 70
     0
1001
ACDBATTR
1070
     0
1070
     1
  0
ATTDEF
  5
9BA3
  8
DEFPOINTS
 10
3593.1622867862261046
 20
181.1774911785493032
 30
0.0
 40
0.001
  1
BATHROOM SINK
  3

  2
PRODUCT
 70
     0
1001
ACDBATTR
1070
     0
1070
     1
  0
LINE
  5
9EC2
  8
0
 10
3610.6423421985000459
 20
185.1142666146789111
 30
0.0
 11
3575.6817122772999937
 21
185.1142666146789111
 31
0.0
  0
ARC
  5
9EC3
  8
0
 10
3575.6817122772999937
 20
184.8780461422788903
 30
0.0
 40
0.2362204724000003
 50
90.0
 51
180.0000000000081002
  0
LINE
  5
9EC4
  8
0
 10
3575.4454918049000298
 20
184.8780461422788903
 30
0.0
 11
3575.5036045544002263
 21
181.2363138587789138
 31
0.0
  0
LINE
  5
9EC5
  8
0
 10
3575.5036045544002263
 20
181.2363138587789138
 30
0.0
 11
3610.8207640446998994
 21
181.2363138587788001
 31
0.0
  0
LINE
  5
9EC6
  8
0
 10
3610.8207640446998994
 20
181.2363138587788001
 30
0.0
 11
3610.8785626710000543
 21
184.8780461422788903
 31
0.0
  0
ARC
  5
9EC7
  8
0
 10
3610.6423421984291053
 20
184.8780461421081043
 30
0.0
 40
0.2362204725707535
 50
0.0000000414178446
 51
89.9999951803008145
  0
LINE
  5
9EC8
  8
0
 10
3610.7604524346998005
 20
181.2363138587788001
 30
0.0
 11
3610.7604524346998005
 21
181.1772587406788944
 31
0.0
  0
LINE
  5
9EC9
  8
0
 10
3610.7604524346998005
 20
181.1772587406788944
 30
0.0
 11
3575.5636020410997844
 21
181.1772587406788944
 31
0.0
  0
LINE
  5
9ECA
  8
0
 10
3575.5636020410997844
 20
181.1772587406788944
 30
0.0
 11
3575.5636020410997844
 21
181.2363641032297892
 31
0.0
  0
LINE
  5
9ECB
  8
0
 10
3577.947782232499776
 20
180.3898571657788921
 30
0.0
 11
3608.3762821247000829
 21
180.3898571657788921
 31
0.0
  0
ARC
  5
9ECC
  8
0
 10
3593.1447881604449321
 20
179.5244961906911954
 30
0.0
 40
0.3141672680846771
 50
92.0448041300808342
 51
174.0469618484239049
  0
ARC
  5
9ECD
  8
0
 10
3591.9499736642937933
 20
179.6063598278720974
 30
0.0
 40
0.8837165823409145
 50
355.2001867915042226
 51
356.8032513601111191
  0
ARC
  5
9ECE
  8
0
 10
3592.681365928426203
 20
179.5475043142284051
 30
0.0
 40
0.1499861788345027
 50
266.9457800367823097
 51
354.2260844709446133
  0
LINE
  5
9ECF
  8
0
 10
3592.6733745219330558
 20
179.3977311815789051
 30
0.0
 11
3590.2114144422671416
 21
179.3977311815789051
 31
0.0
  0
ARC
  5
9ED0
  8
0
 10
3590.2117960512991885
 20
179.5572781348658111
 30
0.0
 40
0.1595474096580162
 50
188.9651768361447068
 51
269.8629585535172737
  0
LINE
  5
9ED1
  8
0
 10
3590.054197794735046
 20
179.5324152014788979
 30
0.0
 11
3590.0524731146160775
 21
179.5570789755115015
 31
0.0
  0
ARC
  5
9ED2
  8
0
 10
3589.7394667972939715
 20
179.5242303304937934
 30
0.0
 40
0.3147252582212253
 50
5.9910117037051789
 51
87.5847499437901575
  0
ARC
  5
9ED3
  8
0
 10
3608.3762951262001479
 20
180.7047622439498866
 30
0.0
 40
0.3149050784394038
 50
269.9976344265489843
 51
355.9731455951032899
  0
LINE
  5
9ED4
  8
0
 10
3608.6629404296290886
 20
180.2890791835093012
 30
0.0
 11
3608.7252413192400127
 21
181.1772451818615934
 31
0.0
  0
ARC
  5
9ED5
  8
0
 10
3608.348751900598927
 20
180.3111181096788016
 30
0.0
 40
0.3149605467999988
 50
270.0000028823980074
 51
355.9875285885851213
  0
LINE
  5
9ED6
  8
0
 10
3608.3487519164450532
 20
179.9961575628788921
 30
0.0
 11
3607.7496511959980126
 21
179.9961575327396872
 31
0.0
  0
ARC
  5
9ED7
  8
0
 10
3607.7496511801527959
 20
180.3111180256495061
 30
0.0
 40
0.3149604929098206
 50
183.5001849027813137
 51
270.0000028823980074
  0
LINE
  5
9ED8
  8
0
 10
3607.4352782141058924
 20
180.2918891330135125
 30
0.0
 11
3607.4292859151892117
 21
180.3898571657788921
 31
0.0
  0
ARC
  5
9ED9
  8
0
 10
3598.0541815284568656
 20
180.3885420542495126
 30
0.0
 40
0.7823768997550957
 50
179.9036904390592042
 51
191.9297047850892
  0
ARC
  5
9EDA
  8
0
 10
3597.5921708804999071
 20
180.3111192733788926
 30
0.0
 40
0.3149605841999949
 50
195.5252861489435077
 51
270.0000001119066724
  0
LINE
  5
9EDB
  8
0
 10
3597.5921708811151802
 20
179.9961586891789125
 30
0.0
 11
3598.1807025204511774
 21
179.9961577031789091
 31
0.0
  0
ARC
  5
9EDC
  8
0
 10
3598.1807000440990123
 20
180.3111196110266974
 30
0.0
 40
0.3149632326573885
 50
270.0004453950140828
 51
356.4994728003214846
  0
LINE
  5
9EDD
  8
0
 10
3598.49507562989902
 20
180.2918886729788994
 30
0.0
 11
3598.5010685444290175
 21
180.3898571657788921
 31
0.0
  0
ARC
  5
9EDE
  8
0
 10
3590.6410732824369916
 20
202.6794710001460089
 30
0.0
 40
22.8252417745743799
 50
277.0709592372754173
 51
282.4369676939380156
  0
ARC
  5
9EDF
  8
0
 10
3590.8716215614022076
 20
205.555849093975695
 30
0.0
 40
25.6579847262700191
 50
266.8964017412648104
 51
275.7692585977092108
  0
ARC
  5
9EE0
  8
0
 10
3596.5229068624307729
 20
375.8262357912590232
 30
0.0
 40
196.0172165732311953
 50
265.6177513738119274
 51
267.9416363167155737
  0
ARC
  5
9EE1
  8
0
 10
3577.9477679997457926
 20
180.7047715010747027
 30
0.0
 40
0.314914335617445
 50
184.0284291996159993
 51
270.0025895191540144
  0
LINE
  5
9EE2
  8
0
 10
3577.6611141506177773
 20
180.2890773600447005
 30
0.0
 11
3577.5988035796422082
 21
181.1772445074578002
 31
0.0
  0
ARC
  5
9EE3
  8
0
 10
3577.9753073734118516
 20
180.311122007807711
 30
0.0
 40
0.3149656294656222
 50
184.0134499353511046
 51
269.9991242952776815
  0
LINE
  5
9EE4
  8
0
 10
3577.9753025595000508
 20
179.9961563783789131
 30
0.0
 11
3578.5744032798302214
 21
179.9961472217649998
 31
0.0
  0
ARC
  5
9EE5
  8
0
 10
3578.5744032065758802
 20
180.3111184971830028
 30
0.0
 40
0.3149607940041707
 50
270.0000184234597782
 51
356.4996486654567889
  0
LINE
  5
9EE6
  8
0
 10
3578.8887764173000505
 20
180.2918886729788994
 30
0.0
 11
3578.8947690277491347
 21
180.3898571290336008
 31
0.0
  0
ARC
  5
9EE8
  8
0
 10
3589.7265668183058551
 20
180.1592539142675093
 30
0.0
 40
0.3216437474083651
 50
224.2647521213546042
 51
274.6656819555066136
  0
ARC
  5
9EE9
  8
0
 10
3593.159077925191923
 20
180.1561728286494883
 30
0.0
 40
0.3187310849678196
 50
265.4112400664350275
 51
336.2544395776012038
  0
ENDSEC
  0
EOF
