  0
SECTION
  2
HEADER
  9
$ACADVER
  1
AC1009
  9
$INSBASE
 10
7350.5323729520614506
 20
1615.643289228472895
 30
0.0
  9
$EXTMIN
 10
7336.8699675835878224
 20
1599.6846169609300432
 30
0.0
  9
$EXTMAX
 10
7364.1948551863142711
 20
1616.2928753618750761
 30
0.0
  9
$LIMMIN
 10
0.0
 20
0.0
  9
$LIMMAX
 10
11.6929133858000007
 20
8.2677165353999982
  9
$ORTHOMODE
 70
     0
  9
$REGENMODE
 70
     1
  9
$FILLMODE
 70
     1
  9
$QTEXTMODE
 70
     0
  9
$MIRRTEXT
 70
     0
  9
$DRAGMODE
 70
     2
  9
$LTSCALE
 40
0.6431102362
  9
$OSMODE
 70
  4063
  9
$ATTMODE
 70
     1
  9
$TEXTSIZE
 40
0.2
  9
$TRACEWID
 40
0.05
  9
$TEXTSTYLE
  7
STANDARD
  9
$CLAYER
  8
0
  9
$CELTYPE
  6
BYLAYER
  9
$CECOLOR
 62
   256
  9
$DIMSCALE
 40
1.0
  9
$DIMASZ
 40
0.1875
  9
$DIMEXO
 40
0.0625
  9
$DIMDLI
 40
0.4443307087
  9
$DIMRND
 40
0.0
  9
$DIMDLE
 40
0.0
  9
$DIMEXE
 40
0.125
  9
$DIMTP
 40
0.01
  9
$DIMTM
 40
0.01
  9
$DIMTXT
 40
2.0
  9
$DIMCEN
 40
0.1052362205
  9
$DIMTSZ
 40
0.0
  9
$DIMTOL
 70
     1
  9
$DIMLIM
 70
     0
  9
$DIMTIH
 70
     1
  9
$DIMTOH
 70
     1
  9
$DIMSE1
 70
     0
  9
$DIMSE2
 70
     0
  9
$DIMTAD
 70
     0
  9
$DIMZIN
 70
     0
  9
$DIMBLK
  1

  9
$DIMASO
 70
     1
  9
$DIMSHO
 70
     1
  9
$DIMPOST
  1
\X
  9
$DIMAPOST
  1

  9
$DIMALT
 70
     1
  9
$DIMALTD
 70
     2
  9
$DIMALTF
 40
25.3999999999999986
  9
$DIMLFAC
 40
1.0
  9
$DIMTOFL
 70
     0
  9
$DIMTVP
 40
0.0
  9
$DIMTIX
 70
     0
  9
$DIMSOXD
 70
     0
  9
$DIMSAH
 70
     0
  9
$DIMBLK1
  1

  9
$DIMBLK2
  1

  9
$DIMSTYLE
  2
STANDARD
  9
$DIMCLRD
 70
     0
  9
$DIMCLRE
 70
     0
  9
$DIMCLRT
 70
     0
  9
$DIMTFAC
 40
1.0
  9
$DIMGAP
 40
0.09
  9
$LUNITS
 70
     2
  9
$LUPREC
 70
     4
  9
$SKETCHINC
 40
0.1
  9
$FILLETRAD
 40
0.0
  9
$AUNITS
 70
     0
  9
$AUPREC
 70
     0
  9
$MENU
  1
.
  9
$ELEVATION
 40
0.0
  9
$PELEVATION
 40
0.0
  9
$THICKNESS
 40
0.0
  9
$LIMCHECK
 70
     0
  9
$BLIPMODE
 70
     0
  9
$CHAMFERA
 40
0.0
  9
$CHAMFERB
 40
0.0
  9
$SKPOLY
 70
     0
  9
$TDCREATE
 40
2458060.468368056230247
  9
$TDUPDATE
 40
2459407.9804629632271826
  9
$TDINDWG
 40
0.3905510417
  9
$TDUSRTIMER
 40
0.3905510417
  9
$USRTIMER
 70
     1
  9
$ANGBASE
 50
0.0
  9
$ANGDIR
 70
     0
  9
$PDMODE
 70
     0
  9
$PDSIZE
 40
0.3125
  9
$PLINEWID
 40
0.0
  9
$COORDS
 70
     1
  9
$SPLFRAME
 70
     0
  9
$SPLINETYPE
 70
     6
  9
$SPLINESEGS
 70
     8
  9
$ATTDIA
 70
     1
  9
$ATTREQ
 70
     1
  9
$HANDLING
 70
     1
  9
$HANDSEED
  5
DCAA
  9
$SURFTAB1
 70
     6
  9
$SURFTAB2
 70
     6
  9
$SURFTYPE
 70
     6
  9
$SURFU
 70
     6
  9
$SURFV
 70
     6
  9
$UCSNAME
  2

  9
$UCSORG
 10
0.0
 20
0.0
 30
0.0
  9
$UCSXDIR
 10
1.0
 20
0.0
 30
0.0
  9
$UCSYDIR
 10
0.0
 20
1.0
 30
0.0
  9
$PUCSNAME
  2

  9
$PUCSORG
 10
0.0
 20
0.0
 30
0.0
  9
$PUCSXDIR
 10
1.0
 20
0.0
 30
0.0
  9
$PUCSYDIR
 10
0.0
 20
1.0
 30
0.0
  9
$USERI1
 70
     0
  9
$USERI2
 70
     0
  9
$USERI3
 70
     0
  9
$USERI4
 70
     0
  9
$USERI5
 70
     0
  9
$USERR1
 40
0.0
  9
$USERR2
 40
0.0
  9
$USERR3
 40
0.0
  9
$USERR4
 40
0.0
  9
$USERR5
 40
0.0
  9
$WORLDVIEW
 70
     1
  9
$SHADEDGE
 70
     3
  9
$SHADEDIF
 70
    70
  9
$TILEMODE
 70
     1
  9
$MAXACTVP
 70
    64
  9
$PLIMCHECK
 70
     0
  9
$PEXTMIN
 10
1.0000000000000000E+20
 20
1.0000000000000000E+20
 30
1.0000000000000000E+20
  9
$PEXTMAX
 10
-1.0000000000000000E+20
 20
-1.0000000000000000E+20
 30
-1.0000000000000000E+20
  9
$PLIMMIN
 10
0.0
 20
0.0
  9
$PLIMMAX
 10
12.0
 20
9.0
  9
$UNITMODE
 70
     0
  9
$VISRETAIN
 70
     1
  9
$PLINEGEN
 70
     0
  9
$PSLTSCALE
 70
     1
  0
ENDSEC
  0
SECTION
  2
TABLES
  0
TABLE
  2
VPORT
 70
     1
  0
VPORT
  2
*ACTIVE
 70
     0
 10
0.0
 20
0.0
 11
1.0
 21
1.0
 12
2535.0693581476389227
 22
1362.0930414627700884
 13
0.0
 23
0.0
 14
1.0
 24
1.0
 15
0.0
 25
0.0
 16
0.0
 26
0.0
 36
9.5192988075487186
 17
4815.2983398437490905
 27
247.8086242675780966
 37
0.0
 40
20.6045985831149103
 41
2.0416141235813359
 42
50.0
 43
0.0
 44
0.0
 50
0.0
 51
0.0
 71
     0
 72
   100
 73
     1
 74
     1
 75
     0
 76
     0
 77
     0
 78
     0
  0
ENDTAB
  0
TABLE
  2
LTYPE
 70
     2
  0
LTYPE
  2
CONTINUOUS
 70
     0
  3
Solid line
 72
    65
 73
     0
 40
0.0
  0
LTYPE
  2
PHANTOM2
 70
     0
  3
___ _ _ ___ _ _ ___ _ _ ___ _ _
 72
    65
 73
     6
 40
1.25
 49
0.625
 49
-0.125
 49
0.125
 49
-0.125
 49
0.125
 49
-0.125
  0
ENDTAB
  0
TABLE
  2
LAYER
 70
     2
  0
LAYER
  2
0
 70
     0
 62
   255
  6
CONTINUOUS
  0
LAYER
  2
DEFPOINTS
 70
     0
 62
     7
  6
CONTINUOUS
  0
ENDTAB
  0
TABLE
  2
STYLE
 70
     1
  0
STYLE
  2
STANDARD
 70
     0
 40
0.0
 41
0.8
 50
0.0
 71
     0
 42
0.2
  3
txt
  4

  0
ENDTAB
  0
TABLE
  2
VIEW
 70
     0
  0
ENDTAB
  0
TABLE
  2
UCS
 70
     0
  0
ENDTAB
  0
TABLE
  2
APPID
 70
    10
  0
APPID
  2
ACAD
 70
     0
  0
APPID
  2
ACAD_MLEADERVER
 70
     0
  0
APPID
  2
ACAD_EXEMPT_FROM_CAD_STANDARDS
 70
     0
  0
APPID
  2
ACAD_NAV_VCDISPLAY
 70
     0
  0
APPID
  2
ACAECLAYERSTANDARD
 70
     0
  0
APPID
  2
ACCMTRANSPARENCY
 70
     0
  0
APPID
  2
ACAD_DSTYLE_DIMJAG
 70
     0
  0
APPID
  2
ACAD_DSTYLE_DIMTALN
 70
     0
  0
APPID
  2
ACDBATTR
 70
     0
  0
APPID
  2
ACADANNOTATIVE
 70
     0
  0
ENDTAB
  0
TABLE
  2
DIMSTYLE
 70
     2
  0
DIMSTYLE
  2
STANDARD
 70
     0
  3

  4

  5

  6

  7

 40
1.0
 41
0.1875
 42
0.0625
 43
0.38
 44
0.125
 45
0.0
 46
0.0
 47
0.01
 48
0.01
140
0.15625
141
0.09
142
0.0
143
25.3999999999999986
144
1.0
145
0.0
146
1.0
147
0.09
 71
     1
 72
     0
 73
     1
 74
     1
 75
     0
 76
     0
 77
     0
 78
     4
170
     0
171
     2
172
     0
173
     0
174
     0
175
     0
176
     0
177
     0
178
     0
  0
DIMSTYLE
  2
ANNOTATIVE
 70
     0
  3

  4

  5

  6

  7

 40
0.0
 41
0.18
 42
0.0625
 43
0.38
 44
0.18
 45
0.0
 46
0.0
 47
0.0
 48
0.0
140
0.18
141
0.09
142
0.0
143
25.3999999999999986
144
1.0
145
0.0
146
1.0
147
0.09
 71
     0
 72
     0
 73
     1
 74
     1
 75
     0
 76
     0
 77
     0
 78
     0
170
     0
171
     2
172
     0
173
     0
174
     0
175
     0
176
     0
177
     0
178
     0
  0
ENDTAB
  0
ENDSEC
  0
SECTION
  2
BLOCKS
  0
BLOCK
  8
0
  2
$MODEL_SPACE
 70
     0
 10
0.0
 20
0.0
 30
0.0
  3
$MODEL_SPACE
  1

  0
ENDBLK
  5
21
  8
0
  0
BLOCK
 67
     1
  8
0
  2
$PAPER_SPACE
 70
     0
 10
0.0
 20
0.0
 30
0.0
  3
$PAPER_SPACE
  1

  0
ENDBLK
  5
1D
 67
     1
  8
0
  0
ENDSEC
  0
SECTION
  2
ENTITIES
  0
ATTDEF
  5
3930
  8
DEFPOINTS
 10
7350.5237045199446584
 20
1615.6477245170290189
 30
0.0
 40
0.001
  1
K-963T
  3

  2
MODELNUMBER
 70
     0
1001
ACDBATTR
1070
     0
1070
     1
  0
ATTDEF
  5
3931
  8
DEFPOINTS
 10
7350.5237045199446584
 20
1615.6460578503620127
 30
0.0
 40
0.001
  1
MELANIE
  3

  2
TRADENAME
 70
     0
1001
ACDBATTR
1070
     0
1070
     1
  0
ATTDEF
  5
3932
  8
DEFPOINTS
 10
7350.5237045199446584
 20
1615.644391183695916
 30
0.0
 40
0.001
  1
BATH
  3

  2
PRODUCT
 70
     0
1001
ACDBATTR
1070
     0
1070
     1
  0
LINE
  5
DBCB
  8
0
 10
7337.4737465503685598
 20
1616.2928753618750761
 30
0.0
 11
7363.5909993537552509
 21
1616.2928753618750761
 31
0.0
  0
LINE
  5
DBCC
  8
0
 10
7336.870987895565122
 20
1615.643289228472895
 30
0.0
 11
7364.1937580085577792
 21
1615.643289228472895
 31
0.0
  0
ARC
  5
DBCD
  8
0
 10
7337.4842531131798751
 20
1615.6786796894680265
 30
0.0
 40
0.6142855295915889
 50
90.9800183000446623
 51
183.3027759307964004
  0
LINE
  5
DBCE
  8
0
 10
7342.1528856910854302
 20
1615.643289228472895
 30
0.0
 11
7342.1060301945635729
 21
1615.1362181553749906
 31
0.0
  0
LINE
  5
DBCF
  8
0
 10
7343.0583497639399866
 20
1615.1085453865919135
 30
0.0
 11
7343.1805198633110194
 21
1615.643289228472895
 31
0.0
  0
ARC
  5
DBD0
  8
0
 10
7342.3092463549892273
 20
1615.2306665673420412
 30
0.0
 40
0.2568722859047941
 50
230.5255880298477109
 51
268.4935675364097847
  0
ARC
  5
DBD1
  8
0
 10
7342.2269427549717875
 20
1615.1231089738118953
 30
0.0
 40
0.1216211244217088
 50
173.8122359574742006
 51
228.2415038685344939
  0
ARC
  5
DBD2
  8
0
 10
7342.8227613952149113
 20
1615.2709590739750638
 30
0.0
 40
0.2971129219842559
 50
270.9031326018941854
 51
308.9067806146958901
  0
ARC
  5
DBD3
  8
0
 10
7342.8851396537484106
 20
1615.1800508750638983
 30
0.0
 40
0.1873893731100875
 50
311.5233100967568021
 51
337.5679339852108001
  0
ARC
  5
DBD4
  8
0
 10
7339.6938038087100722
 20
1615.1953725834389388
 30
0.0
 40
0.2115606517900867
 50
207.6581619828349972
 51
231.6232563548637984
  0
ARC
  5
DBD5
  8
0
 10
7339.6121229867403599
 20
1615.0973510856260873
 30
0.0
 40
0.084067379317719
 50
233.7901784842576092
 51
267.6099928933728052
  0
LINE
  5
DBD6
  8
0
 10
7339.5064175954639722
 20
1615.0971671025749856
 30
0.0
 11
7339.1986871250892364
 21
1615.6432866637539973
 31
0.0
  0
LINE
  5
DBD7
  8
0
 10
7339.6086172595660173
 20
1615.0133568349749567
 30
0.0
 11
7339.7631139357354186
 21
1615.0133572743879995
 31
0.0
  0
ARC
  5
DBD8
  8
0
 10
7339.7305262179588681
 20
1615.0557545517660856
 30
0.0
 40
0.070751429850518
 50
233.6730096636368046
 51
259.7971591850820232
  0
LINE
  5
DBD9
  8
0
 10
7339.6886135845743411
 20
1614.998753709850007
 30
0.0
 11
7339.6705867945647697
 21
1615.0131340850750803
 31
0.0
  0
ARC
  5
DBDA
  8
0
 10
7339.6462870408367962
 20
1615.02504106882202
 30
0.0
 40
0.2516583092119498
 50
0.5591013234447033
 51
26.8033612760020894
  0
ARC
  5
DBDB
  8
0
 10
7339.8479530979338961
 20
1615.0258408365270952
 30
0.0
 40
0.0500076943967657
 50
317.0824581608870858
 51
1.8975938580970531
  0
ARC
  5
DBDC
  8
0
 10
7339.8698314179600857
 20
1615.0081324692869202
 30
0.0
 40
0.0220117504983586
 50
270.6002077396516938
 51
312.0536182662868896
  0
LINE
  5
DBDD
  8
0
 10
7339.6483014589139202
 20
1615.643289228472895
 30
0.0
 11
7339.8709070217646513
 21
1615.1385213259750344
 31
0.0
  0
LINE
  5
DBDE
  8
0
 10
7339.8042764871997861
 20
1615.0923960173340674
 30
0.0
 11
7339.561499142781031
 21
1615.643289228472895
 31
0.0
  0
ARC
  5
DBDF
  8
0
 10
7345.7490294839026319
 20
1614.4767404913720839
 30
0.0
 40
4.9812490190228722
 50
207.6851429497376103
 51
211.2333507706426872
  0
ARC
  5
DBE0
  8
0
 10
7341.7419851839185867
 20
1612.0364721129681129
 30
0.0
 40
0.2897702467159254
 50
209.4870831981488948
 51
243.7732588262379068
  0
ARC
  5
DBE1
  8
0
 10
7343.0123903592902934
 20
1614.8392695324780561
 30
0.0
 40
3.36690509848325
 50
245.4583086300808077
 51
262.8208507062727222
  0
ARC
  5
DBE2
  8
0
 10
7346.4756056480564439
 20
1640.1440279609998925
 30
0.0
 40
28.9073815157105116
 50
262.2784086076426888
 51
271.2733377380573074
  0
ARC
  5
DBE3
  8
0
 10
7351.9525916278462319
 20
4304.2453557758053648
 30
0.0
 40
2693.0059105481977895
 50
269.8971400326764183
 51
269.9697707006062046
  0
ARC
  5
DBE4
  8
0
 10
7298.308605093387996
 20
1583.0177786161950735
 30
0.0
 40
51.9705939942248492
 50
34.1104786754197065
 51
37.3860407267141284
  0
ARC
  5
DBE5
  8
0
 10
7322.9226352849746036
 20
1601.5613675616179989
 30
0.0
 40
21.1549221657891806
 50
37.9579566876743328
 51
41.7327471020623477
  0
CIRCLE
  5
DBE6
  8
0
 10
7350.5323729520614506
 20
1613.8214711259749947
 30
0.0
 40
1.1279749306402009
  0
ARC
  5
DBE7
  8
0
 10
7363.5818605010208557
 20
1615.6799488038220716
 30
0.0
 40
0.612994685292092
 50
356.5714335507753958
 51
89.1457722183872932
  0
ARC
  5
DBE8
  8
0
 10
7339.7628308953062515
 20
1615.0461934976440261
 30
0.0
 40
0.0328374431031872
 50
270.4938637484706874
 51
311.5387713166949766
  0
ARC
  5
DBE9
  8
0
 10
7339.7159695729606028
 20
1615.0788125486999434
 30
0.0
 40
0.0893455187602264
 50
320.1940072339365884
 51
8.7447612027603441
  0
LINE
  5
DBEA
  8
0
 10
7342.274421901354799
 20
1615.643289228472895
 30
0.0
 11
7342.2272825212639873
 21
1615.107086211774913
 31
0.0
  0
LINE
  5
DBEB
  8
0
 10
7342.2974388396651193
 20
1615.0533830688750641
 30
0.0
 11
7342.8026028659642179
 21
1615.0562301468748956
 31
0.0
  0
ARC
  5
DBEC
  8
0
 10
7342.2868773064947163
 20
1615.1122624906329293
 30
0.0
 40
0.0598191632292173
 50
184.9641333948704869
 51
280.1693186917460139
  0
ARC
  5
DBED
  8
0
 10
7342.7986492497611835
 20
1615.1965408186429158
 30
0.0
 40
0.1403663623992526
 50
271.6140297526678182
 51
334.2309319408263946
  0
LINE
  5
DBEE
  8
0
 10
7342.9250566835653444
 20
1615.1355172463750023
 30
0.0
 11
7343.0473163665828906
 21
1615.643289228472895
 31
0.0
  0
LINE
  5
DBEF
  8
0
 10
7358.9118602130383806
 20
1615.643289228472895
 30
0.0
 11
7358.9587157095593284
 21
1615.1362181553749906
 31
0.0
  0
LINE
  5
DBF0
  8
0
 10
7358.0063961401820052
 20
1615.1085453865919135
 30
0.0
 11
7357.8842260408127913
 21
1615.643289228472895
 31
0.0
  0
ARC
  5
DBF1
  8
0
 10
7358.7552022737354491
 20
1615.2314620718771039
 30
0.0
 40
0.2576754787149609
 50
271.5678605288211998
 51
309.4129839048276267
  0
ARC
  5
DBF2
  8
0
 10
7358.8378031491511138
 20
1615.1231089738118953
 30
0.0
 40
0.1216211244217088
 50
311.7584961314656198
 51
6.1877640425257452
  0
ARC
  5
DBF3
  8
0
 10
7358.2419771185750506
 20
1615.2584802157559807
 30
0.0
 40
0.2875043095719903
 50
229.5322807192034134
 51
261.8451455148976947
  0
ARC
  5
DBF4
  8
0
 10
7358.1796062503808571
 20
1615.1800508750670815
 30
0.0
 40
0.187389373116756
 50
202.4320660149415119
 51
228.4766899174937009
  0
ARC
  5
DBF5
  8
0
 10
7361.3709420954146481
 20
1615.1953725834389388
 30
0.0
 40
0.2115606517898078
 50
308.3767436451120147
 51
332.3418380171419244
  0
ARC
  5
DBF6
  8
0
 10
7361.4526229173834508
 20
1615.0973510856260873
 30
0.0
 40
0.0840673793179017
 50
272.3900071067840258
 51
306.209821515807505
  0
LINE
  5
DBF7
  8
0
 10
7361.558328308658929
 20
1615.0971671025749856
 30
0.0
 11
7361.8660587790336649
 21
1615.6432866637539973
 31
0.0
  0
LINE
  5
DBF8
  8
0
 10
7361.4561286445587029
 20
1615.0133568349749567
 30
0.0
 11
7361.3016319683911206
 21
1615.0133572743879995
 31
0.0
  0
ARC
  5
DBF9
  8
0
 10
7361.3342168173112441
 20
1615.0557593763919613
 30
0.0
 40
0.0707570162295892
 50
280.2059188271937842
 51
306.3265460522105741
  0
LINE
  5
DBFA
  8
0
 10
7361.3761323195485602
 20
1614.998753709850007
 30
0.0
 11
7361.3944385618351589
 21
1615.0133570104310365
 31
0.0
  0
ARC
  5
DBFB
  8
0
 10
7361.4184588632870145
 20
1615.02504106882202
 30
0.0
 40
0.2516583092120621
 50
153.1966387239978928
 51
179.4408986765421901
  0
ARC
  5
DBFC
  8
0
 10
7361.2167928061890052
 20
1615.0258408365270952
 30
0.0
 40
0.0500076943967657
 50
178.1024061419028897
 51
222.9175418391128005
  0
ARC
  5
DBFD
  8
0
 10
7361.1949197307858412
 20
1615.0081459024049764
 30
0.0
 40
0.0220252384099683
 50
227.9596581313934109
 51
269.3865158629712937
  0
LINE
  5
DBFE
  8
0
 10
7361.4164444452108
 20
1615.643289228472895
 30
0.0
 11
7361.1938388823591595
 21
1615.1385213259750344
 31
0.0
  0
LINE
  5
DBFF
  8
0
 10
7361.2604697114593364
 20
1615.0923958100750042
 30
0.0
 11
7361.5032467613427798
 21
1615.643289228472895
 31
0.0
  0
ARC
  5
DC00
  8
0
 10
7366.0796253655862529
 20
1608.2118685004750205
 30
0.0
 40
7.4744304877388412
 50
145.4531474456310036
 51
150.4878000820127113
  0
ARC
  5
DC01
  8
0
 10
7359.3227607202070431
 20
1612.0364721129669761
 30
0.0
 40
0.2897702467141579
 50
296.2267411736456211
 51
330.5129168002189886
  0
ARC
  5
DC02
  8
0
 10
7358.0523555448353363
 20
1614.8392695324739634
 30
0.0
 40
3.3669050984785942
 50
277.1791492937790053
 51
294.5416913699190786
  0
ARC
  5
DC03
  8
0
 10
7354.5891402560937422
 20
1640.1440279607329558
 30
0.0
 40
28.9073815154431912
 50
268.7266622620470002
 51
277.7215913923573112
  0
ARC
  5
DC04
  8
0
 10
7349.1145295295591495
 20
4302.6389028666635568
 30
0.0
 40
2691.3994559636671511
 50
270.0301706629473983
 51
270.1028707973533756
  0
LINE
  5
DC05
  8
0
 10
7360.9587541751416211
 20
1613.9033876835649153
 30
0.0
 11
7358.9308255694577383
 21
1604.4887281994749628
 31
0.0
  0
ARC
  5
DC06
  8
0
 10
7353.5041344007995576
 20
1605.9338087644939606
 30
0.0
 40
5.6158022471758651
 50
304.9731769208050878
 51
345.0886645761323734
  0
ARC
  5
DC07
  8
0
 10
7402.7480245926672069
 20
1583.0234467561861038
 30
0.0
 40
51.9606954698197612
 50
142.613477939396688
 51
145.5051383960147007
  0
ARC
  5
DC08
  8
0
 10
7378.1365523919448606
 20
1601.5661634411510477
 30
0.0
 40
21.1475818847416193
 50
138.2669253128387084
 51
142.0429924879028931
  0
ARC
  5
DC09
  8
0
 10
7361.3019150088175593
 20
1615.0461934976440261
 30
0.0
 40
0.0328374431031872
 50
228.461228683304995
 51
269.5061362515293126
  0
ARC
  5
DC0A
  8
0
 10
7361.3487746784821866
 20
1615.0788116821890981
 30
0.0
 40
0.0893436944135006
 50
171.2546310858600123
 51
219.8062443853459911
  0
LINE
  5
DC0B
  8
0
 10
7358.7903240027681022
 20
1615.643289228472895
 30
0.0
 11
7358.8374640320598701
 21
1615.1070856599749277
 31
0.0
  0
LINE
  5
DC0C
  8
0
 10
7358.767307064457782
 20
1615.0533830688750641
 30
0.0
 11
7358.2621497758600526
 21
1615.056226616675076
 31
0.0
  0
ARC
  5
DC0D
  8
0
 10
7358.7778683230071692
 20
1615.1122636230220451
 30
0.0
 40
0.0598202293435289
 50
259.8311317032366787
 51
355.0343361077630107
  0
ARC
  5
DC0E
  8
0
 10
7358.2661055824191862
 20
1615.1965486962369596
 30
0.0
 40
0.1403778273740848
 50
205.7703793634015028
 51
268.3852077457464134
  0
LINE
  5
DC0F
  8
0
 10
7358.1396892205593758
 20
1615.1355172463750023
 30
0.0
 11
7358.0174295375409201
 21
1615.643289228472895
 31
0.0
  0
LINE
  5
DC10
  8
0
 10
7340.1059917289812802
 20
1613.9033876835649153
 30
0.0
 11
7342.1339203346642535
 21
1604.4887281994749628
 31
0.0
  0
ARC
  5
DC11
  8
0
 10
7347.5606115033233436
 20
1605.9338087644939606
 30
0.0
 40
5.615802247176636
 50
194.9113354238675981
 51
235.0268230791947985
  0
LINE
  5
DC12
  8
0
 10
7342.8274444845619655
 20
1614.9738830616749965
 30
0.0
 11
7342.3024933939123002
 21
1614.9738830616749965
 31
0.0
  0
LINE
  5
DC13
  8
0
 10
7358.2011949176612688
 20
1614.9738830616749965
 30
0.0
 11
7358.76225251021242
 21
1614.9738830616749965
 31
0.0
  0
LINE
  5
DC14
  8
0
 10
7361.3467539989842408
 20
1614.9861219265430918
 30
0.0
 11
7361.1946839040592749
 21
1614.9861219265430918
 31
0.0
  0
LINE
  5
DC15
  8
0
 10
7339.8700620000654453
 20
1614.9861219265430918
 30
0.0
 11
7339.7179937668643106
 21
1614.9861219265430918
 31
0.0
  0
ARC
  5
DC16
  8
0
 10
7344.2622850873985954
 20
1601.2253635411370851
 30
0.0
 40
0.1265632038441121
 50
3.2261561739047599
 51
51.3275806821945366
  0
LINE
  5
DC17
  8
0
 10
7344.341370244900645
 20
1601.3241753948300357
 30
0.0
 11
7344.3416736025583305
 21
1601.3321054200339404
 31
0.0
  0
LINE
  5
DC18
  8
0
 10
7344.3886477109663247
 20
1601.2324861763640911
 30
0.0
 11
7344.4697680992012465
 21
1599.6846169609300432
 31
0.0
  0
LINE
  5
DC19
  8
0
 10
7344.844768099200337
 20
1599.6846169609300432
 30
0.0
 11
7344.8581430870999611
 21
1599.9398269342300409
 31
0.0
  0
ARC
  5
DC1A
  8
0
 10
7345.1317840579013136
 20
1599.9014695178070724
 30
0.0
 40
0.2763162541282691
 50
94.9794017477113641
 51
172.0205982643707046
  0
LINE
  5
DC1B
  8
0
 10
7345.1078004708006119
 20
1600.1767429452299893
 30
0.0
 11
7345.2695788140263176
 21
1600.1767429452299893
 31
0.0
  0
LINE
  5
DC1C
  8
0
 10
7345.5480672701996809
 20
1600.1767429452299893
 30
0.0
 11
7346.5972680991990273
 21
1600.1767429452299893
 31
0.0
  0
ARC
  5
DC1D
  8
0
 10
7346.5972680991990273
 20
1600.2367429452299348
 30
0.0
 40
0.0599999999999948
 50
270.0000024148391162
 51
0.0
  0
ARC
  5
DC1E
  8
0
 10
7346.7811142234031649
 20
1600.3043212681120622
 30
0.0
 40
0.123846298751406
 50
130.639374006372492
 51
180.0927159787636072
  0
LINE
  5
DC1F
  8
0
 10
7346.657268099200337
 20
1600.2367429452299348
 30
0.0
 11
7346.6572680868002863
 21
1600.3041208602298866
 31
0.0
  0
LINE
  5
DC20
  8
0
 10
7345.1897596297003474
 20
1600.8597414208300052
 30
0.0
 11
7345.6857881625346636
 21
1600.6362525744830236
 31
0.0
  0
LINE
  5
DC21
  8
0
 10
7345.1897596297003474
 20
1600.8597414208300052
 30
0.0
 11
7345.1901435133013365
 21
1600.8272188811299657
 31
0.0
  0
LINE
  5
DC22
  8
0
 10
7345.6857881625346636
 20
1600.6362525744830236
 30
0.0
 11
7345.6836912568996922
 21
1600.6179390467300436
 31
0.0
  0
ARC
  5
DC23
  8
0
 10
7345.1399639036799272
 20
1600.7407767082370356
 30
0.0
 40
0.0999512004737706
 50
4.4761257320992689
 51
59.8648704554100775
  0
ARC
  5
DC24
  8
0
 10
7345.7155991761655969
 20
1600.4343627362970892
 30
0.0
 40
0.1863286801972603
 50
99.8602339786759217
 51
144.186041610808104
  0
LINE
  5
DC25
  8
0
 10
7345.2396102469829202
 20
1600.7485772686270593
 30
0.0
 11
7345.277584977044171
 21
1600.0239762544940731
 31
0.0
  0
LINE
  5
DC26
  8
0
 10
7345.5645012828999825
 20
1600.5433939415299847
 30
0.0
 11
7345.5369507861842067
 21
1600.0239680054480687
 31
0.0
  0
LINE
  5
DC27
  8
0
 10
7345.3392059732013877
 20
1599.9346169609300432
 30
0.0
 11
7345.4753302252001959
 21
1599.9346169609300432
 31
0.0
  0
ARC
  5
DC28
  8
0
 10
7345.3392059732077541
 20
1599.9946169609549997
 30
0.0
 40
0.0600000000248157
 50
198.7944966349087963
 51
269.9999999928609213
  0
ARC
  5
DC29
  8
0
 10
7345.4753302252001959
 20
1599.9946169609299886
 30
0.0
 40
0.0600000000000183
 50
270.0
 51
340.4010672536912807
  0
ARC
  5
DC2A
  8
0
 10
7345.2866500636264391
 20
1600.0247509547300524
 30
0.0
 40
0.2503019471024342
 50
348.4163944878717984
 51
359.8207774125567084
  0
ARC
  5
DC2B
  8
0
 10
7345.5494071916973553
 20
1600.0263025859419486
 30
0.0
 40
0.271832169171176
 50
180.4903415263958095
 51
190.8171327004043007
  0
ARC
  5
DC2C
  8
0
 10
7347.1119304150215612
 20
1604.888633811875934
 30
0.0
 40
4.5091486604975861
 50
251.3786007477800979
 51
264.7642609052343232
  0
ARC
  5
DC2D
  8
0
 10
7346.8632250243608723
 20
1604.5372333890879872
 30
0.0
 40
4.0781205071460471
 50
231.8070174429470001
 51
246.1563290326959077
  0
ARC
  5
DC2E
  8
0
 10
7348.588401867007633
 20
1599.7623386104430665
 30
0.0
 40
0.5708383537790722
 50
17.5656774405215117
 51
87.2122065754582536
  0
ARC
  5
DC2F
  8
0
 10
7349.5763325331427041
 20
1656.2092312129709626
 30
0.0
 40
55.8849788053412482
 50
267.0502174358925913
 51
270.9808737743862253
  0
ARC
  5
DC30
  8
0
 10
7356.8024608167252154
 20
1601.2253635411370851
 30
0.0
 40
0.1265632038441121
 50
128.6724193178054065
 51
176.7738438260952023
  0
LINE
  5
DC31
  8
0
 10
7356.7233756592231657
 20
1601.3241753948300357
 30
0.0
 11
7356.7230723015636613
 21
1601.3321054200339404
 31
0.0
  0
LINE
  5
DC32
  8
0
 10
7356.6760981931583956
 20
1601.2324861763640911
 30
0.0
 11
7356.5949778049225642
 21
1599.6846169609300432
 31
0.0
  0
LINE
  5
DC33
  8
0
 10
7356.2199778049225642
 20
1599.6846169609300432
 30
0.0
 11
7356.2066028170238496
 21
1599.9398269342300409
 31
0.0
  0
ARC
  5
DC34
  8
0
 10
7355.9329618462234066
 20
1599.9014695178070724
 30
0.0
 40
0.2763162541282691
 50
7.9794017356293327
 51
85.0205982522886217
  0
LINE
  5
DC35
  8
0
 10
7355.9569454333231988
 20
1600.1767429452299893
 30
0.0
 11
7355.7951670900965837
 21
1600.1767429452299893
 31
0.0
  0
LINE
  5
DC36
  8
0
 10
7355.5166786339232203
 20
1600.1767429452299893
 30
0.0
 11
7354.4674778049229644
 21
1600.1767429452299893
 31
0.0
  0
ARC
  5
DC37
  8
0
 10
7354.4674778049229644
 20
1600.2367429452299348
 30
0.0
 40
0.0599999999999948
 50
180.0
 51
269.9999975851608269
  0
ARC
  5
DC38
  8
0
 10
7354.2836316807206458
 20
1600.3043212681120622
 30
0.0
 40
0.123846298751377
 50
359.9072840212364213
 51
49.3606259936274796
  0
LINE
  5
DC39
  8
0
 10
7354.4074778049225642
 20
1600.2367429452299348
 30
0.0
 11
7354.407477817324434
 21
1600.3041208602298866
 31
0.0
  0
LINE
  5
DC3A
  8
0
 10
7355.8749862744225538
 20
1600.8597414208300052
 30
0.0
 11
7355.3789577415891472
 21
1600.6362525744830236
 31
0.0
  0
LINE
  5
DC3B
  8
0
 10
7355.8749862744225538
 20
1600.8597414208300052
 30
0.0
 11
7355.8746023908242933
 21
1600.8272188811299657
 31
0.0
  0
LINE
  5
DC3C
  8
0
 10
7355.3789577415891472
 20
1600.6362525744830236
 30
0.0
 11
7355.3810546472241185
 21
1600.6179390467300436
 31
0.0
  0
ARC
  5
DC3D
  8
0
 10
7355.9247820004438836
 20
1600.7407767082370356
 30
0.0
 40
0.0999512004737706
 50
120.1351295445899012
 51
175.5238742679007089
  0
ARC
  5
DC3E
  8
0
 10
7355.3491467279573044
 20
1600.4343627362970892
 30
0.0
 40
0.1863286801972603
 50
35.8139583891919173
 51
80.1397660213240925
  0
LINE
  5
DC3F
  8
0
 10
7355.825135657139981
 20
1600.7485772686270593
 30
0.0
 11
7355.7871609270778208
 21
1600.0239762544940731
 31
0.0
  0
LINE
  5
DC40
  8
0
 10
7355.5002446212220093
 20
1600.5433939415299847
 30
0.0
 11
7355.5277951179386946
 21
1600.0239680054480687
 31
0.0
  0
LINE
  5
DC41
  8
0
 10
7355.7255399309242421
 20
1599.9346169609300432
 30
0.0
 11
7355.5894156789217959
 21
1599.9346169609300432
 31
0.0
  0
ARC
  5
DC42
  8
0
 10
7355.7255399309151471
 20
1599.9946169609549997
 30
0.0
 40
0.0600000000248157
 50
270.0000000071390787
 51
341.2055033650912037
  0
ARC
  5
DC43
  8
0
 10
7355.5894156789236149
 20
1599.9946169609299886
 30
0.0
 40
0.0600000000000183
 50
199.5989327463086056
 51
270.0
  0
ARC
  5
DC44
  8
0
 10
7355.7780958404991907
 20
1600.0247509547300524
 30
0.0
 40
0.2503019471024342
 50
180.1792225874432063
 51
191.5836055121282016
  0
ARC
  5
DC45
  8
0
 10
7355.515338712425546
 20
1600.0263025859419486
 30
0.0
 40
0.271832169171176
 50
349.182867299595614
 51
359.5096584736040768
  0
ARC
  5
DC46
  8
0
 10
7353.9528154891031591
 20
1604.888633811875934
 30
0.0
 40
4.5091486604975861
 50
275.2357390947656768
 51
288.6213992522198737
  0
ARC
  5
DC47
  8
0
 10
7354.2015208797629384
 20
1604.5372333890879872
 30
0.0
 40
4.0781205071460471
 50
293.8436709673040923
 51
308.1929825570530284
  0
ARC
  5
DC48
  8
0
 10
7352.4762971066866157
 20
1599.7623714630249196
 30
0.0
 40
0.5707836970253637
 50
92.7195835738187242
 51
162.4360448117269016
  0
ARC
  5
DC49
  8
0
 10
7351.4890471403232368
 20
1656.1907818748620684
 30
0.0
 40
55.866521298904658
 50
269.0194536101471954
 51
272.9501071467059887
  0
LINE
  5
DC4A
  8
0
 10
7349.1326229582000451
 20
1599.9346169609300432
 30
0.0
 11
7351.9321229459237657
 21
1599.9346169609300432
 31
0.0
  0
LINE
  5
DC4B
  8
0
 10
7344.4697680992012465
 20
1599.6846169609300432
 30
0.0
 11
7344.844768099200337
 21
1599.6846169609300432
 31
0.0
  0
LINE
  5
DC4C
  8
0
 10
7356.2199778049225642
 20
1599.6846169609300432
 30
0.0
 11
7356.5949778049225642
 21
1599.6846169609300432
 31
0.0
  0
ENDSEC
  0
EOF
