  0
SECTION
  2
HEADER
  9
$ACADVER
  1
AC1009
  9
$INSBASE
 10
0.2074196355018261
 20
-2.2541968502431331
 30
0.0
  9
$EXTMIN
 10
-2.350197624636873
 20
-2.647897637643132
 30
0.0
  9
$EXTMAX
 10
2.764599152700967
 20
7.414352283595484
 30
0.0
  9
$LIMMIN
 10
0.0
 20
0.0
  9
$LIMMAX
 10
11.6929133858000007
 20
8.2677165353999982
  9
$ORTHOMODE
 70
     0
  9
$REGENMODE
 70
     1
  9
$FILLMODE
 70
     1
  9
$QTEXTMODE
 70
     0
  9
$MIRRTEXT
 70
     0
  9
$DRAGMODE
 70
     2
  9
$LTSCALE
 40
0.6431102362
  9
$OSMODE
 70
  3839
  9
$ATTMODE
 70
     1
  9
$TEXTSIZE
 40
0.2
  9
$TRACEWID
 40
0.05
  9
$TEXTSTYLE
  7
STANDARD
  9
$CLAYER
  8
0
  9
$CELTYPE
  6
BYLAYER
  9
$CECOLOR
 62
   256
  9
$DIMSCALE
 40
1.0
  9
$DIMASZ
 40
0.1875
  9
$DIMEXO
 40
0.0625
  9
$DIMDLI
 40
0.4443307087
  9
$DIMRND
 40
0.0
  9
$DIMDLE
 40
0.0
  9
$DIMEXE
 40
0.125
  9
$DIMTP
 40
0.01
  9
$DIMTM
 40
0.01
  9
$DIMTXT
 40
1.0
  9
$DIMCEN
 40
0.1052362205
  9
$DIMTSZ
 40
0.0
  9
$DIMTOL
 70
     1
  9
$DIMLIM
 70
     0
  9
$DIMTIH
 70
     1
  9
$DIMTOH
 70
     1
  9
$DIMSE1
 70
     0
  9
$DIMSE2
 70
     0
  9
$DIMTAD
 70
     0
  9
$DIMZIN
 70
     0
  9
$DIMBLK
  1

  9
$DIMASO
 70
     1
  9
$DIMSHO
 70
     1
  9
$DIMPOST
  1
\X
  9
$DIMAPOST
  1

  9
$DIMALT
 70
     1
  9
$DIMALTD
 70
     2
  9
$DIMALTF
 40
25.3999999999999986
  9
$DIMLFAC
 40
1.0
  9
$DIMTOFL
 70
     0
  9
$DIMTVP
 40
0.0
  9
$DIMTIX
 70
     0
  9
$DIMSOXD
 70
     0
  9
$DIMSAH
 70
     0
  9
$DIMBLK1
  1

  9
$DIMBLK2
  1

  9
$DIMSTYLE
  2
STANDARD
  9
$DIMCLRD
 70
     0
  9
$DIMCLRE
 70
     0
  9
$DIMCLRT
 70
     0
  9
$DIMTFAC
 40
1.0
  9
$DIMGAP
 40
0.09
  9
$LUNITS
 70
     2
  9
$LUPREC
 70
     4
  9
$SKETCHINC
 40
0.1
  9
$FILLETRAD
 40
0.0
  9
$AUNITS
 70
     0
  9
$AUPREC
 70
     0
  9
$MENU
  1
.
  9
$ELEVATION
 40
0.0
  9
$PELEVATION
 40
0.0
  9
$THICKNESS
 40
0.0
  9
$LIMCHECK
 70
     0
  9
$BLIPMODE
 70
     0
  9
$CHAMFERA
 40
0.0
  9
$CHAMFERB
 40
0.0
  9
$SKPOLY
 70
     0
  9
$TDCREATE
 40
2457893.7626041672192514
  9
$TDUPDATE
 40
2459144.712870370130986
  9
$TDINDWG
 40
0.318268044
  9
$TDUSRTIMER
 40
0.318268044
  9
$USRTIMER
 70
     1
  9
$ANGBASE
 50
0.0
  9
$ANGDIR
 70
     0
  9
$PDMODE
 70
     0
  9
$PDSIZE
 40
0.3125
  9
$PLINEWID
 40
0.0
  9
$COORDS
 70
     1
  9
$SPLFRAME
 70
     0
  9
$SPLINETYPE
 70
     6
  9
$SPLINESEGS
 70
     8
  9
$ATTDIA
 70
     1
  9
$ATTREQ
 70
     1
  9
$HANDLING
 70
     1
  9
$HANDSEED
  5
4329
  9
$SURFTAB1
 70
     6
  9
$SURFTAB2
 70
     6
  9
$SURFTYPE
 70
     6
  9
$SURFU
 70
     6
  9
$SURFV
 70
     6
  9
$UCSNAME
  2

  9
$UCSORG
 10
0.0
 20
0.0
 30
0.0
  9
$UCSXDIR
 10
1.0
 20
0.0
 30
0.0
  9
$UCSYDIR
 10
0.0
 20
1.0
 30
0.0
  9
$PUCSNAME
  2

  9
$PUCSORG
 10
0.0
 20
0.0
 30
0.0
  9
$PUCSXDIR
 10
1.0
 20
0.0
 30
0.0
  9
$PUCSYDIR
 10
0.0
 20
1.0
 30
0.0
  9
$USERI1
 70
     0
  9
$USERI2
 70
     0
  9
$USERI3
 70
     0
  9
$USERI4
 70
     0
  9
$USERI5
 70
     0
  9
$USERR1
 40
0.0
  9
$USERR2
 40
0.0
  9
$USERR3
 40
0.0
  9
$USERR4
 40
0.0
  9
$USERR5
 40
0.0
  9
$WORLDVIEW
 70
     1
  9
$SHADEDGE
 70
     3
  9
$SHADEDIF
 70
    70
  9
$TILEMODE
 70
     1
  9
$MAXACTVP
 70
    48
  9
$PLIMCHECK
 70
     0
  9
$PEXTMIN
 10
1.0000000000000000E+20
 20
1.0000000000000000E+20
 30
1.0000000000000000E+20
  9
$PEXTMAX
 10
-1.0000000000000000E+20
 20
-1.0000000000000000E+20
 30
-1.0000000000000000E+20
  9
$PLIMMIN
 10
0.0
 20
0.0
  9
$PLIMMAX
 10
12.0
 20
9.0
  9
$UNITMODE
 70
     0
  9
$VISRETAIN
 70
     1
  9
$PLINEGEN
 70
     0
  9
$PSLTSCALE
 70
     1
  0
ENDSEC
  0
SECTION
  2
TABLES
  0
TABLE
  2
VPORT
 70
     1
  0
VPORT
  2
*ACTIVE
 70
     0
 10
0.0
 20
0.0
 11
1.0
 21
1.0
 12
0.0
 22
0.0
 13
0.0
 23
0.0
 14
1.0
 24
1.0
 15
0.0
 25
0.0
 16
-0.0000000000000099
 26
0.0
 36
44.3647793308133132
 17
0.2072365283966064
 27
2.3832273483276358
 37
0.0
 40
11.2875724053874098
 41
3.1182994454713491
 42
50.0
 43
0.0
 44
0.0
 50
0.0
 51
0.0
 71
     0
 72
   100
 73
     1
 74
     1
 75
     0
 76
     0
 77
     0
 78
     0
  0
ENDTAB
  0
TABLE
  2
LTYPE
 70
     2
  0
LTYPE
  2
CONTINUOUS
 70
     0
  3
Solid line
 72
    65
 73
     0
 40
0.0
  0
LTYPE
  2
PHANTOM2
 70
     0
  3
___ _ _ ___ _ _ ___ _ _ ___ _ _
 72
    65
 73
     6
 40
1.25
 49
0.625
 49
-0.125
 49
0.125
 49
-0.125
 49
0.125
 49
-0.125
  0
ENDTAB
  0
TABLE
  2
LAYER
 70
     2
  0
LAYER
  2
0
 70
     0
 62
     7
  6
CONTINUOUS
  0
LAYER
  2
DEFPOINTS
 70
     0
 62
     7
  6
CONTINUOUS
  0
ENDTAB
  0
TABLE
  2
STYLE
 70
     1
  0
STYLE
  2
STANDARD
 70
     0
 40
0.0
 41
0.8
 50
0.0
 71
     0
 42
0.2
  3
txt
  4

  0
ENDTAB
  0
TABLE
  2
VIEW
 70
     0
  0
ENDTAB
  0
TABLE
  2
UCS
 70
     0
  0
ENDTAB
  0
TABLE
  2
APPID
 70
     9
  0
APPID
  2
ACAD
 70
     0
  0
APPID
  2
ACAD_MLEADERVER
 70
     0
  0
APPID
  2
ACAD_NAV_VCDISPLAY
 70
     0
  0
APPID
  2
ACAD_EXEMPT_FROM_CAD_STANDARDS
 70
     0
  0
APPID
  2
ACAD_DSTYLE_DIMJAG
 70
     0
  0
APPID
  2
ACAD_DSTYLE_DIMTALN
 70
     0
  0
APPID
  2
ACDBATTR
 70
     0
  0
APPID
  2
ACAD_PSEXT
 70
     0
  0
APPID
  2
ACADANNOTATIVE
 70
     0
  0
ENDTAB
  0
TABLE
  2
DIMSTYLE
 70
     3
  0
DIMSTYLE
  2
STANDARD
 70
     0
  3

  4

  5

  6

  7

 40
1.0
 41
0.1875
 42
0.0625
 43
0.38
 44
0.125
 45
0.0
 46
0.0
 47
0.01
 48
0.01
140
0.15625
141
0.09
142
0.0
143
25.3999999999999986
144
1.0
145
0.0
146
1.0
147
0.09
 71
     1
 72
     0
 73
     1
 74
     1
 75
     0
 76
     0
 77
     0
 78
     4
170
     0
171
     2
172
     0
173
     0
174
     0
175
     0
176
     0
177
     0
178
     0
  0
DIMSTYLE
  2
ANNOTATIVE
 70
     0
  3

  4

  5

  6

  7

 40
0.0
 41
2.5
 42
0.625
 43
3.75
 44
1.25
 45
0.0
 46
0.0
 47
0.0
 48
0.0
140
2.5
141
2.5
142
0.0
143
0.03937007874016
144
1.0
145
0.0
146
1.0
147
0.625
 71
     0
 72
     0
 73
     0
 74
     0
 75
     0
 76
     0
 77
     1
 78
     8
170
     0
171
     3
172
     1
173
     0
174
     0
175
     0
176
     0
177
     0
178
     0
  0
DIMSTYLE
  2
ISO-25
 70
     0
  3

  4

  5

  6

  7

 40
1.0
 41
2.5
 42
0.625
 43
3.75
 44
1.25
 45
0.0
 46
0.0
 47
0.0
 48
0.0
140
2.5
141
2.5
142
0.0
143
0.03937007874016
144
1.0
145
0.0
146
1.0
147
0.625
 71
     0
 72
     0
 73
     0
 74
     0
 75
     0
 76
     0
 77
     1
 78
     8
170
     0
171
     3
172
     1
173
     0
174
     0
175
     0
176
     0
177
     0
178
     0
  0
ENDTAB
  0
ENDSEC
  0
SECTION
  2
BLOCKS
  0
BLOCK
  8
0
  2
$MODEL_SPACE
 70
     0
 10
0.0
 20
0.0
 30
0.0
  3
$MODEL_SPACE
  1

  0
ENDBLK
  5
21
  8
0
  0
BLOCK
 67
     1
  8
0
  2
$PAPER_SPACE
 70
     0
 10
0.0
 20
0.0
 30
0.0
  3
$PAPER_SPACE
  1

  0
ENDBLK
  5
1D
 67
     1
  8
0
  0
BLOCK
  8
0
  2
_FILLED
 70
     0
 10
0.0
 20
0.0
 30
0.0
  3
_FILLED
  1

  0
SOLID
  5
1F2C
  8
0
  6
BYBLOCK
 62
     0
 10
0.0
 20
0.0
 30
0.0
 11
-1.0
 21
0.1666666667
 31
0.0
 12
-1.0
 22
-0.1666666667
 32
0.0
 13
-1.0
 23
-0.1666666667
 33
0.0
  0
ENDBLK
  5
1F2D
  8
0
  6
BYBLOCK
 62
     0
  0
ENDSEC
  0
SECTION
  2
ENTITIES
  0
ATTDEF
  5
1B48
  8
DEFPOINTS
 10
0.2077681348514204
 20
-2.255799230187125
 30
0.0
 40
0.001
  1
K-97009IN
  3

  2
MODELNUMBER
 70
     0
1001
ACDBATTR
1070
     0
1070
     1
  0
ATTDEF
  5
1B49
  8
DEFPOINTS
 10
0.2077681348514204
 20
-2.2574658968537911
 30
0.0
 40
0.001
  1
RAINDUET
  3

  2
TRADENAME
 70
     0
1001
ACDBATTR
1070
     0
1070
     1
  0
ATTDEF
  5
1B4A
  8
DEFPOINTS
 10
0.2077681348514204
 20
-2.2591325635204562
 30
0.0
 40
0.001
  1
HANDSHOWER
  3

  2
PRODUCT
 70
     0
1001
ACDBATTR
1070
     0
1070
     1
  0
ARC
  5
3813
  8
0
 10
0.2278941796069991
 20
-17.3787749071190092
 30
0.0
 40
24.7931357966383104
 50
90.0477387080749736
 51
92.2267628624412055
  0
ARC
  5
3814
  8
0
 10
-0.4248520021987186
 20
-0.5917297792305664
 30
0.0
 40
7.9934047957078107
 50
92.2267627577488867
 51
98.160883213247061
  0
ARC
  5
3815
  8
0
 10
-1.346905788129837
 20
5.8379718868534383
 30
0.0
 40
1.497925852704967
 50
98.1608832132469757
 51
110.6256909210941046
  0
ARC
  5
3816
  8
0
 10
-1.672901886004285
 20
6.704091060384445
 30
0.0
 40
0.5724876437534442
 50
110.6256909210942041
 51
129.52082830485719
  0
ARC
  5
3817
  8
0
 10
-1.769600272057722
 20
6.8213087391679919
 30
0.0
 40
0.4205318538514409
 50
129.5208283048573037
 51
158.4210337801430057
  0
ARC
  5
3818
  8
0
 10
-1.0063962431521749
 20
6.4806172448718833
 30
0.0
 40
1.256064145079554
 50
156.773210972933299
 51
171.0377261085886005
  0
ARC
  5
3819
  8
0
 10
1.592687266564961
 20
5.9569902995919541
 30
0.0
 40
3.906604061376207
 50
169.3899033013788085
 51
175.6163414369059126
  0
ARC
  5
381A
  8
0
 10
14.3058558502919198
 20
4.9931848579360141
 30
0.0
 40
16.6562530490954011
 50
175.6532884003192123
 51
179.6730125568813037
  0
ARC
  5
381B
  8
0
 10
19.4566107504621399
 20
5.032332365627699
 30
0.0
 40
21.8068083750990205
 50
179.853102181807003
 51
183.3746530354628135
  0
ARC
  5
381C
  8
0
 10
3.587571868600445
 20
4.1004177875277099
 30
0.0
 40
5.9104312490129622
 50
183.4117668841070099
 51
189.9438471070936032
  0
ARC
  5
381D
  8
0
 10
-1.3903411341291809
 20
3.1727938475389692
 30
0.0
 40
0.8488393004730145
 50
186.2904829232647046
 51
216.3428389880118061
  0
ARC
  5
381E
  8
0
 10
-1.541644059602862
 20
3.1295278982064358
 30
0.0
 40
0.7034657565107839
 50
220.8118831405982121
 51
251.177117384740086
  0
ARC
  5
381F
  8
0
 10
11.1521496313227004
 20
38.6874879805055016
 30
0.0
 40
38.4592009807903494
 50
250.3690595906359988
 51
251.1512182611556057
  0
ARC
  5
3820
  8
0
 10
-2.326370781522987
 20
-0.6959261716627206
 30
0.0
 40
3.1669483859596519
 50
61.0909803361222288
 51
70.5710478610036347
  0
ARC
  5
3821
  8
0
 10
-1.104825537958674
 20
1.459435087559114
 30
0.0
 40
0.6901937756785655
 50
27.1415693417515804
 51
63.3646195159380028
  0
ARC
  5
3822
  8
0
 10
-2.184622839720114
 20
1.2836256839010529
 30
0.0
 40
1.763619286581074
 50
3.094047077451493
 51
16.1538349864727486
  0
ARC
  5
3823
  8
0
 10
-55.6011178576980711
 20
-0.8441492935532872
 30
0.0
 40
55.2223041963868795
 50
0.8314385540997152
 51
2.3070572830568201
  0
ARC
  5
3824
  8
0
 10
93.8105168117940451
 20
1.3452350978686021
 30
0.0
 40
94.2053714155386075
 50
180.8442514562198085
 51
182.1781474835136123
  0
ARC
  5
3825
  8
0
 10
-0.3069826517999643
 20
-2.2343729418381799
 30
0.0
 40
0.0198243618674105
 50
182.3886079632520136
 51
269.6124662601051796
  0
LINE
  5
3826
  8
0
 10
0.7219560086048737
 20
-2.2541968502431331
 30
0.0
 11
-0.3071167376012212
 21
-2.2541968502431331
 31
0.0
  0
ARC
  5
3827
  8
0
 10
0.721444133133435
 20
-2.234368934373113
 30
0.0
 40
0.0198345220322259
 50
271.4788135857172051
 51
357.594782213586825
  0
ARC
  5
3828
  8
0
 10
-51.7587519733801287
 20
-0.030009359528159
 30
0.0
 40
52.5463057961748703
 50
357.594782213586825
 51
358.6299959385700049
  0
ARC
  5
3829
  8
0
 10
-588.5571919443830211
 20
12.8078686968920099
 30
0.0
 40
589.4982368554587993
 50
358.6299959385701186
 51
358.8457811957210879
  0
ARC
  5
382A
  8
0
 10
0.2107025666808053
 20
1.763388317299639
 30
0.0
 40
0.5477267918316256
 50
262.524723596041099
 51
269.6374349407150817
  0
ARC
  5
382B
  8
0
 10
0.2105370630967625
 20
1.7012909849552069
 30
0.0
 40
0.4862001113991889
 50
245.0294673965161962
 51
261.5919864731915823
  0
ARC
  5
382C
  8
0
 10
0.2203278850508394
 20
1.7223156945558671
 30
0.0
 40
0.5093927526530098
 50
227.8544328340948937
 51
245.0294673965161962
  0
ARC
  5
382D
  8
0
 10
0.2659753573538812
 20
1.772754055369109
 30
0.0
 40
0.5774200998685521
 50
208.9974882197566899
 51
227.8544328340944958
  0
ARC
  5
382E
  8
0
 10
0.8732196915133378
 20
2.1093202867046972
 30
0.0
 40
1.271698509041848
 50
201.7813798575961073
 51
208.9974882197566899
  0
ARC
  5
382F
  8
0
 10
-9.2818233326850201
 20
-1.948579463650459
 30
0.0
 40
9.6640890349465671
 50
21.781379857596221
 51
22.3613110753408293
  0
ARC
  5
3830
  8
0
 10
-1.165696723079878
 20
1.390236867793049
 30
0.0
 40
0.8880303729813592
 50
22.3613110753407511
 51
35.037559312846021
  0
ARC
  5
3831
  8
0
 10
-1.0666028040579569
 20
1.4226990590859641
 30
0.0
 40
0.7888402829884109
 50
37.2397418907251065
 51
50.1461298803703031
  0
ARC
  5
3832
  8
0
 10
-1.2495051145507721
 20
1.192366215414743
 30
0.0
 40
1.0828960165081141
 50
50.526760851363278
 51
60.063839783705653
  0
ARC
  5
3833
  8
0
 10
-2.0090608853081151
 20
-0.1567248235145575
 30
0.0
 40
2.6310816233927938
 50
60.3910548413842818
 51
70.4456647576644031
  0
ARC
  5
3834
  8
0
 10
-13.6366775318931897
 20
-33.2904990634527422
 30
0.0
 40
37.7458539131371822
 50
70.6474100713306399
 51
71.486059121090733
  0
ARC
  5
3835
  8
0
 10
-1.4113231205430921
 20
3.2895895946534242
 30
0.0
 40
0.8233833402911779
 50
226.3032907955079054
 51
253.0744920854941995
  0
ARC
  5
3836
  8
0
 10
-1.728199555130945
 20
2.9439933821531912
 30
0.0
 40
0.3547349537492633
 50
211.9174057366801094
 51
224.7447538876575948
  0
ARC
  5
3837
  8
0
 10
-1.5134064891524741
 20
3.0777808401571418
 30
0.0
 40
0.6077866186550502
 50
194.2646294394008066
 51
211.9174057366799104
  0
ARC
  5
3838
  8
0
 10
0.6345254126901168
 20
3.6238698972828969
 30
0.0
 40
2.8240503018086649
 50
187.4756047232507115
 51
194.2646294394008066
  0
ARC
  5
3839
  8
0
 10
6.8026265060006876
 20
4.353384924414307
 30
0.0
 40
9.0349844965166124
 50
181.038354992924809
 51
186.9734714243842006
  0
ARC
  5
383A
  8
0
 10
17.6289741268869911
 20
4.8017134463744986
 30
0.0
 40
19.869277693628689
 50
178.0815050236118964
 51
181.7652321768894979
  0
ARC
  5
383B
  8
0
 10
5.250086201162496
 20
5.3468966793093493
 30
0.0
 40
7.4802148152723991
 50
171.0063524342943992
 51
179.0808307594612074
  0
ARC
  5
383C
  8
0
 10
-1.1548366373469561
 20
6.3827661872792483
 30
0.0
 40
0.9923452504937138
 50
154.0446179590288978
 51
172.2700397333846922
  0
ARC
  5
383D
  8
0
 10
-1.737972100602156
 20
6.6666184403631226
 30
0.0
 40
0.3437937335834174
 50
124.3535479173910971
 51
154.0446179590288978
  0
ARC
  5
383E
  8
0
 10
-1.6637514836632821
 20
6.5580332181423451
 30
0.0
 40
0.4753211089222513
 50
105.1148957971457065
 51
124.3535479173910971
  0
ARC
  5
383F
  8
0
 10
-1.125470972555312
 20
4.5651371149728561
 30
0.0
 40
2.5396323225397111
 50
95.0040358247961763
 51
105.114895797145607
  0
ARC
  5
3840
  8
0
 10
0.2352611635666091
 20
-10.9754945282648002
 30
0.0
 40
18.1397228292346817
 50
92.3458056314019444
 51
95.0040358247961052
  0
ARC
  5
3841
  8
0
 10
0.2021345800399144
 20
-15.3775919795896403
 30
0.0
 40
22.5377845708632414
 50
89.9870295945191998
 51
91.8035968127467328
  0
ARC
  5
3842
  8
0
 10
0.2064729319697105
 20
4.7074093352799231
 30
0.0
 40
0.2726932891756684
 50
89.6697139401963028
 51
150.4393538170592137
  0
ARC
  5
3843
  8
0
 10
0.1832966505536686
 20
4.7205542478630518
 30
0.0
 40
0.2460488010572279
 50
150.4393538170594127
 51
209.1920157335079011
  0
ARC
  5
3844
  8
0
 10
0.2063773278391037
 20
4.7334493817754932
 30
0.0
 40
0.2724874497098027
 50
209.1920157335081001
 51
270.1806789312449268
  0
ARC
  5
3845
  8
0
 10
0.2063621472646067
 20
4.7382633352355441
 30
0.0
 40
0.277301427105407
 50
270.1806789312449837
 51
320.3145770519589064
  0
ARC
  5
3846
  8
0
 10
0.2281226785341528
 20
4.7202067443073084
 30
0.0
 40
0.2490249139348883
 50
320.3145770519589064
 51
32.6372119689749525
  0
ARC
  5
3847
  8
0
 10
0.20825926371591
 20
4.7074853759668427
 30
0.0
 40
0.2726128019432576
 50
32.6372119689748104
 51
90.0450564971778533
  0
ARC
  5
3848
  8
0
 10
-0.2684330797857046
 20
2.483380700855164
 30
0.0
 40
0.2573423723367922
 50
114.327575015210499
 51
169.0088439861351901
  0
ARC
  5
3849
  8
0
 10
-0.2487934721249458
 20
2.439939547671865
 30
0.0
 40
0.3050167677599445
 50
64.6897893303153779
 51
114.327575015210499
  0
ARC
  5
384A
  8
0
 10
-0.2332090941813028
 20
2.4728933530389869
 30
0.0
 40
0.2685637003435443
 50
22.6319845438372091
 51
64.6897893303152642
  0
ARC
  5
384B
  8
0
 10
-0.2173399987484568
 20
2.4795094159904099
 30
0.0
 40
0.2513706645780388
 50
331.1227694284585823
 51
22.6319845438373513
  0
ARC
  5
384C
  8
0
 10
-0.2301084471940942
 20
2.4865513591723589
 30
0.0
 40
0.2659522364921587
 50
287.0452283513919269
 51
331.1227694284585823
  0
ARC
  5
384D
  8
0
 10
-0.2385107442058785
 20
2.513956642424179
 30
0.0
 40
0.294616642036086
 50
228.8850809335760914
 51
287.0452283513919269
  0
ARC
  5
384E
  8
0
 10
-0.2519405983954726
 20
2.498569801258796
 30
0.0
 40
0.2741932274194631
 50
188.6447875299938914
 51
228.8850809335762051
  0
ARC
  5
384F
  8
0
 10
-0.312175376849678
 20
2.4894119799414041
 30
0.0
 40
0.2132662692916476
 50
168.3589048292494965
 51
188.6447875299936072
  0
ARC
  5
3850
  8
0
 10
0.6374085141753519
 20
2.4826744120304021
 30
0.0
 40
0.2573423723367922
 50
114.327575015210499
 51
169.0088439861351901
  0
ARC
  5
3851
  8
0
 10
0.6570481218361089
 20
2.4392332588471031
 30
0.0
 40
0.3050167677599445
 50
64.6897893303153779
 51
114.327575015210499
  0
ARC
  5
3852
  8
0
 10
0.672632499779752
 20
2.4721870642142281
 30
0.0
 40
0.2685637003435443
 50
22.6319845438372091
 51
64.6897893303152642
  0
ARC
  5
3853
  8
0
 10
0.6885015952125962
 20
2.478803127165651
 30
0.0
 40
0.2513706645780388
 50
331.1227694284585823
 51
22.6319845438373513
  0
ARC
  5
3854
  8
0
 10
0.6757331467669623
 20
2.4858450703475969
 30
0.0
 40
0.2659522364921587
 50
287.0452283513919269
 51
331.1227694284585823
  0
ARC
  5
3855
  8
0
 10
0.667330849755178
 20
2.5132503535994171
 30
0.0
 40
0.294616642036086
 50
228.8850809335760061
 51
287.0452283513919269
  0
ARC
  5
3856
  8
0
 10
0.6539009955655822
 20
2.4978635124340371
 30
0.0
 40
0.2741932274194631
 50
188.6447875299938062
 51
228.8850809335762051
  0
ARC
  5
3857
  8
0
 10
0.5936662171113772
 20
2.4887056911166421
 30
0.0
 40
0.2132662692916476
 50
168.3589048292494965
 51
188.6447875299934935
  0
ARC
  5
3858
  8
0
 10
0.1846165494454124
 20
1.848336558957278
 30
0.0
 40
0.2573423723367922
 50
114.327575015210499
 51
169.0088439861351901
  0
ARC
  5
3859
  8
0
 10
0.2042561571061694
 20
1.804895405773979
 30
0.0
 40
0.3050167677599445
 50
64.6897893303153779
 51
114.327575015210499
  0
ARC
  5
385A
  8
0
 10
0.2198405350498125
 20
1.837849211141104
 30
0.0
 40
0.2685637003435443
 50
22.6319845438372091
 51
64.6897893303152642
  0
ARC
  5
385B
  8
0
 10
0.2357096304826567
 20
1.8444652740925269
 30
0.0
 40
0.2513706645780388
 50
331.1227694284585823
 51
22.6319845438373513
  0
ARC
  5
385C
  8
0
 10
0.2229411820370228
 20
1.8515072172744731
 30
0.0
 40
0.2659522364921587
 50
287.0452283513919269
 51
331.1227694284585823
  0
ARC
  5
385D
  8
0
 10
0.2145388850252385
 20
1.878912500526293
 30
0.0
 40
0.294616642036086
 50
228.8850809335760061
 51
287.0452283513919269
  0
ARC
  5
385E
  8
0
 10
0.2011090308356427
 20
1.8635256593609131
 30
0.0
 40
0.2741932274194631
 50
188.6447875299938062
 51
228.8850809335762051
  0
ARC
  5
385F
  8
0
 10
0.1408742523814372
 20
1.854367838043518
 30
0.0
 40
0.2132662692916476
 50
168.3589048292494965
 51
188.6447875299934935
  0
ARC
  5
3860
  8
0
 10
-0.222242637023379
 20
5.9524990933290134
 30
0.0
 40
0.0234812541910901
 50
157.8786780817135025
 51
218.3078935176922073
  0
ARC
  5
3861
  8
0
 10
-0.2224880213131875
 20
5.9525988399459742
 30
0.0
 40
0.0232163715052031
 50
93.4847910568193754
 51
157.8786780817121098
  0
ARC
  5
3862
  8
0
 10
-0.222427687042408
 20
5.9516080673639742
 30
0.0
 40
0.0242089794507037
 50
42.7460331603323525
 51
93.4847910568136342
  0
ARC
  5
3863
  8
0
 10
-0.2217686586111944
 20
5.952217182368936
 30
0.0
 40
0.0233115723176723
 50
352.309797187623019
 51
42.7460331603314216
  0
ARC
  5
3864
  8
0
 10
-0.221857502559446
 20
5.9522291790729609
 30
0.0
 40
0.0234012225717067
 50
296.4607048357422059
 51
352.3097971876277938
  0
ARC
  5
3865
  8
0
 10
-0.2219784163033878
 20
5.9524721116199331
 30
0.0
 40
0.0236725827674818
 50
217.8602238666755966
 51
296.4607048357424901
  0
ARC
  5
3866
  8
0
 10
-0.2219517481293276
 20
5.9681259726963658
 30
0.0
 40
0.0951293626435644
 50
50.8599309833852615
 51
110.5397474864755054
  0
ARC
  5
3867
  8
0
 10
-0.2214329840448754
 20
5.9682311645406569
 30
0.0
 40
0.0947209176757482
 50
0.1026218484183482
 51
51.0631486408825666
  0
ARC
  5
3868
  8
0
 10
-0.2197215440329958
 20
5.9683275996592862
 30
0.0
 40
0.0930093545508699
 50
291.240707227552889
 51
0.0451041254708175
  0
ARC
  5
3869
  8
0
 10
-0.2204833849685701
 20
5.9702876113988914
 30
0.0
 40
0.0951122210778945
 50
214.7032766636561973
 51
291.2407072275527753
  0
ARC
  5
386A
  8
0
 10
-0.2207533952586576
 20
5.9701006245640746
 30
0.0
 40
0.0947837859501335
 50
155.966420389111704
 51
214.7032766636581016
  0
ARC
  5
386B
  8
0
 10
-0.2240610338159406
 20
5.9715756035312211
 30
0.0
 40
0.0911621791549156
 50
110.0590188159440999
 51
155.9664203891124998
  0
ARC
  5
386C
  8
0
 10
-0.220912599855303
 20
5.9655847831398878
 30
0.0
 40
0.0683612722615737
 50
142.7403140952438889
 51
182.2697788567309942
  0
ARC
  5
386D
  8
0
 10
-0.2235542779323523
 20
5.9675942667238706
 30
0.0
 40
0.0650421628423086
 50
114.8912197500962975
 51
142.7403140952438889
  0
ARC
  5
386E
  8
0
 10
-0.2227451059706254
 20
5.9658503552264932
 30
0.0
 40
0.0669646577250933
 50
73.3396503210197324
 51
114.8912197500965959
  0
ARC
  5
386F
  8
0
 10
-0.2229143890421716
 20
5.9652846834068214
 30
0.0
 40
0.0675551163315021
 50
40.5069955350157898
 51
73.3396503210201587
  0
ARC
  5
3870
  8
0
 10
-0.22470021662313
 20
5.9637590654314776
 30
0.0
 40
0.0699038799116861
 50
15.0665672411678404
 51
40.506995535017623
  0
ARC
  5
3871
  8
0
 10
-0.2316663459475889
 20
5.9618838195503576
 30
0.0
 40
0.0771179983526137
 50
342.0891145704512724
 51
15.0665672411665792
  0
ARC
  5
3872
  8
0
 10
-0.2203045032106341
 20
5.9582116604018722
 30
0.0
 40
0.0651774697549724
 50
297.6787828538548979
 51
342.0891145704512724
  0
ARC
  5
3873
  8
0
 10
-0.2217565450947183
 20
5.9609798828616043
 30
0.0
 40
0.0683034066096931
 50
243.1925646978021121
 51
297.6787828538559211
  0
ARC
  5
3874
  8
0
 10
-0.2229509554790616
 20
5.958616114453946
 30
0.0
 40
0.065655007611945
 50
208.3494222455435931
 51
243.1925646978017994
  0
ARC
  5
3875
  8
0
 10
-0.2182860290562831
 20
5.9611331114406951
 30
0.0
 40
0.0709556502485733
 50
178.5914063378093886
 51
208.3494222455418026
  0
ARC
  5
3876
  8
0
 10
0.2074819841383513
 20
6.70970094141527
 30
0.0
 40
0.0234812541910901
 50
157.8786780817135025
 51
218.3078935176922073
  0
ARC
  5
3877
  8
0
 10
0.2072365998485464
 20
6.7098006880322307
 30
0.0
 40
0.0232163715052031
 50
93.4847910568193754
 51
157.8786780817121098
  0
ARC
  5
3878
  8
0
 10
0.207296934119324
 20
6.7088099154502308
 30
0.0
 40
0.0242089794507037
 50
42.7460331603323525
 51
93.4847910568136342
  0
ARC
  5
3879
  8
0
 10
0.2079559625505394
 20
6.7094190304551944
 30
0.0
 40
0.0233115723176723
 50
352.309797187623019
 51
42.7460331603314216
  0
ARC
  5
387A
  8
0
 10
0.2078671186022842
 20
6.7094310271592192
 30
0.0
 40
0.0234012225717067
 50
296.4607048357422059
 51
352.3097971876277938
  0
ARC
  5
387B
  8
0
 10
0.2077462048583425
 20
6.7096739597061896
 30
0.0
 40
0.0236725827674818
 50
217.8602238666755966
 51
296.4607048357424901
  0
ARC
  5
387C
  8
0
 10
0.2077728730324044
 20
6.7253278207826241
 30
0.0
 40
0.0951293626435644
 50
50.8599309833852615
 51
110.5397474864755054
  0
ARC
  5
387D
  8
0
 10
0.2082916371168548
 20
6.7254330126269153
 30
0.0
 40
0.0947209176757482
 50
0.1026218484183482
 51
51.0631486408825666
  0
ARC
  5
387E
  8
0
 10
0.2100030771287362
 20
6.7255294477455427
 30
0.0
 40
0.0930093545508699
 50
291.240707227552889
 51
0.0451041254708175
  0
ARC
  5
387F
  8
0
 10
0.2092412361931619
 20
6.727489459485148
 30
0.0
 40
0.0951122210778945
 50
214.7032766636561973
 51
291.2407072275527753
  0
ARC
  5
3880
  8
0
 10
0.2089712259030745
 20
6.7273024726503321
 30
0.0
 40
0.0947837859501335
 50
155.966420389111704
 51
214.7032766636581016
  0
ARC
  5
3881
  8
0
 10
0.2056635873457933
 20
6.7287774516174776
 30
0.0
 40
0.0911621791549156
 50
110.0590188159440999
 51
155.9664203891124998
  0
ARC
  5
3882
  8
0
 10
0.2088120213064291
 20
6.7227866312261462
 30
0.0
 40
0.0683612722615737
 50
142.7403140952438889
 51
182.2697788567309942
  0
ARC
  5
3883
  8
0
 10
0.206170343229378
 20
6.7247961148101281
 30
0.0
 40
0.0650421628423086
 50
114.8912197500962975
 51
142.7403140952438889
  0
ARC
  5
3884
  8
0
 10
0.2069795151911049
 20
6.7230522033127498
 30
0.0
 40
0.0669646577250933
 50
73.3396503210197324
 51
114.8912197500965959
  0
ARC
  5
3885
  8
0
 10
0.2068102321195622
 20
6.722486531493078
 30
0.0
 40
0.0675551163315021
 50
40.5069955350157898
 51
73.3396503210201587
  0
ARC
  5
3886
  8
0
 10
0.205024404538602
 20
6.7209609135177351
 30
0.0
 40
0.0699038799116861
 50
15.0665672411678404
 51
40.506995535017623
  0
ARC
  5
3887
  8
0
 10
0.1980582752141413
 20
6.7190856676366151
 30
0.0
 40
0.0771179983526137
 50
342.0891145704512724
 51
15.0665672411665792
  0
ARC
  5
3888
  8
0
 10
0.2094201179510979
 20
6.7154135084881288
 30
0.0
 40
0.0651774697549724
 50
297.6787828538548979
 51
342.0891145704512724
  0
ARC
  5
3889
  8
0
 10
0.2079680760670155
 20
6.7181817309478609
 30
0.0
 40
0.0683034066096931
 50
243.1925646978021121
 51
297.6787828538559211
  0
ARC
  5
388A
  8
0
 10
0.2067736656826722
 20
6.7158179625402026
 30
0.0
 40
0.065655007611945
 50
208.3494222455435931
 51
243.1925646978017994
  0
ARC
  5
388B
  8
0
 10
0.2114385921054489
 20
6.7183349595269517
 30
0.0
 40
0.0709556502485733
 50
178.5914063378093886
 51
208.3494222455418026
  0
ARC
  5
388C
  8
0
 10
-0.3102690861100821
 20
6.6978583367838018
 30
0.0
 40
0.0234812541910901
 50
157.8786780817135025
 51
218.3078935176922073
  0
ARC
  5
388D
  8
0
 10
-0.3105144703998905
 20
6.6979580834007626
 30
0.0
 40
0.0232163715052031
 50
93.4847910568193754
 51
157.8786780817121098
  0
ARC
  5
388E
  8
0
 10
-0.3104541361291111
 20
6.6969673108187626
 30
0.0
 40
0.0242089794507037
 50
42.7460331603323525
 51
93.4847910568136342
  0
ARC
  5
388F
  8
0
 10
-0.3097951076978975
 20
6.6975764258237263
 30
0.0
 40
0.0233115723176723
 50
352.309797187623019
 51
42.7460331603314216
  0
ARC
  5
3890
  8
0
 10
-0.3098839516461491
 20
6.6975884225277511
 30
0.0
 40
0.0234012225717067
 50
296.4607048357422059
 51
352.3097971876277938
  0
ARC
  5
3891
  8
0
 10
-0.3100048653900909
 20
6.6978313550747224
 30
0.0
 40
0.0236725827674818
 50
217.8602238666755966
 51
296.4607048357424901
  0
ARC
  5
3892
  8
0
 10
-0.3099781972160307
 20
6.713485216151156
 30
0.0
 40
0.0951293626435644
 50
50.8599309833852615
 51
110.5397474864755054
  0
ARC
  5
3893
  8
0
 10
-0.3094594331315785
 20
6.7135904079954472
 30
0.0
 40
0.0947209176757482
 50
0.1026218484183482
 51
51.0631486408825666
  0
ARC
  5
3894
  8
0
 10
-0.3077479931196989
 20
6.7136868431140746
 30
0.0
 40
0.0930093545508699
 50
291.240707227552889
 51
0.0451041254708175
  0
ARC
  5
3895
  8
0
 10
-0.3085098340552732
 20
6.7156468548536798
 30
0.0
 40
0.0951122210778945
 50
214.7032766636561973
 51
291.2407072275527753
  0
ARC
  5
3896
  8
0
 10
-0.3087798443453606
 20
6.715459868018864
 30
0.0
 40
0.0947837859501335
 50
155.966420389111704
 51
214.7032766636581016
  0
ARC
  5
3897
  8
0
 10
-0.3120874829026436
 20
6.7169348469860104
 30
0.0
 40
0.0911621791549156
 50
110.0590188159440999
 51
155.9664203891124998
  0
ARC
  5
3898
  8
0
 10
-0.3089390489420061
 20
6.710944026594678
 30
0.0
 40
0.0683612722615737
 50
142.7403140952438889
 51
182.2697788567309942
  0
ARC
  5
3899
  8
0
 10
-0.3115807270190554
 20
6.7129535101786599
 30
0.0
 40
0.0650421628423086
 50
114.8912197500962975
 51
142.7403140952438889
  0
ARC
  5
389A
  8
0
 10
-0.3107715550573284
 20
6.7112095986812816
 30
0.0
 40
0.0669646577250933
 50
73.3396503210197324
 51
114.8912197500965959
  0
ARC
  5
389B
  8
0
 10
-0.3109408381288747
 20
6.7106439268616098
 30
0.0
 40
0.0675551163315021
 50
40.5069955350157898
 51
73.3396503210201587
  0
ARC
  5
389C
  8
0
 10
-0.3127266657098331
 20
6.7091183088862669
 30
0.0
 40
0.0699038799116861
 50
15.0665672411678404
 51
40.506995535017623
  0
ARC
  5
389D
  8
0
 10
-0.319692795034292
 20
6.7072430630051469
 30
0.0
 40
0.0771179983526137
 50
342.0891145704512724
 51
15.0665672411665792
  0
ARC
  5
389E
  8
0
 10
-0.3083309522973372
 20
6.7035709038566607
 30
0.0
 40
0.0651774697549724
 50
297.6787828538548979
 51
342.0891145704512724
  0
ARC
  5
389F
  8
0
 10
-0.3097829941814214
 20
6.7063391263163927
 30
0.0
 40
0.0683034066096931
 50
243.1925646978021121
 51
297.6787828538559211
  0
ARC
  5
38A0
  8
0
 10
-0.3109774045657647
 20
6.7039753579087353
 30
0.0
 40
0.065655007611945
 50
208.3494222455435931
 51
243.1925646978017994
  0
ARC
  5
38A1
  8
0
 10
-0.3063124781429862
 20
6.7064923548954836
 30
0.0
 40
0.0709556502485733
 50
178.5914063378093886
 51
208.3494222455418026
  0
ARC
  5
38A2
  8
0
 10
-0.8264923391765531
 20
6.6762462031677989
 30
0.0
 40
0.0234812541910901
 50
157.8786780817135025
 51
218.3078935176922073
  0
ARC
  5
38A3
  8
0
 10
-0.8267377234663617
 20
6.6763459497847597
 30
0.0
 40
0.0232163715052031
 50
93.4847910568193754
 51
157.8786780817121098
  0
ARC
  5
38A4
  8
0
 10
-0.8266773891955821
 20
6.6753551772027597
 30
0.0
 40
0.0242089794507037
 50
42.7460331603323525
 51
93.4847910568136342
  0
ARC
  5
38A5
  8
0
 10
-0.8260183607643686
 20
6.6759642922077234
 30
0.0
 40
0.0233115723176723
 50
352.309797187623019
 51
42.7460331603314216
  0
ARC
  5
38A6
  8
0
 10
-0.8261072047126202
 20
6.6759762889117482
 30
0.0
 40
0.0234012225717067
 50
296.4607048357422059
 51
352.3097971876277938
  0
ARC
  5
38A7
  8
0
 10
-0.8262281184565619
 20
6.6762192214587186
 30
0.0
 40
0.0236725827674818
 50
217.8602238666755966
 51
296.4607048357424901
  0
ARC
  5
38A8
  8
0
 10
-0.8262014502825017
 20
6.6918730825351531
 30
0.0
 40
0.0951293626435644
 50
50.8599309833852615
 51
110.5397474864755054
  0
ARC
  5
38A9
  8
0
 10
-0.8256826861980496
 20
6.6919782743794443
 30
0.0
 40
0.0947209176757482
 50
0.1026218484183482
 51
51.0631486408825666
  0
ARC
  5
38AA
  8
0
 10
-0.8239712461861699
 20
6.6920747094980717
 30
0.0
 40
0.0930093545508699
 50
291.240707227552889
 51
0.0451041254708175
  0
ARC
  5
38AB
  8
0
 10
-0.8247330871217442
 20
6.694034721237677
 30
0.0
 40
0.0951122210778945
 50
214.7032766636561973
 51
291.2407072275527753
  0
ARC
  5
38AC
  8
0
 10
-0.8250030974118318
 20
6.6938477344028611
 30
0.0
 40
0.0947837859501335
 50
155.966420389111704
 51
214.7032766636581016
  0
ARC
  5
38AD
  8
0
 10
-0.8283107359691148
 20
6.6953227133700066
 30
0.0
 40
0.0911621791549156
 50
110.0590188159440999
 51
155.9664203891124998
  0
ARC
  5
38AE
  8
0
 10
-0.8251623020084771
 20
6.6893318929786751
 30
0.0
 40
0.0683612722615737
 50
142.7403140952438889
 51
182.2697788567309942
  0
ARC
  5
38AF
  8
0
 10
-0.8278039800855264
 20
6.691341376562657
 30
0.0
 40
0.0650421628423086
 50
114.8912197500962975
 51
142.7403140952438889
  0
ARC
  5
38B0
  8
0
 10
-0.8269948081237996
 20
6.6895974650652787
 30
0.0
 40
0.0669646577250933
 50
73.3396503210197324
 51
114.8912197500965959
  0
ARC
  5
38B1
  8
0
 10
-0.8271640911953458
 20
6.6890317932456069
 30
0.0
 40
0.0675551163315021
 50
40.5069955350157898
 51
73.3396503210201587
  0
ARC
  5
38B2
  8
0
 10
-0.8289499187763041
 20
6.687506175270264
 30
0.0
 40
0.0699038799116861
 50
15.0665672411678404
 51
40.506995535017623
  0
ARC
  5
38B3
  8
0
 10
-0.8359160481007631
 20
6.6856309293891441
 30
0.0
 40
0.0771179983526137
 50
342.0891145704512724
 51
15.0665672411665792
  0
ARC
  5
38B4
  8
0
 10
-0.8245542053638082
 20
6.6819587702406578
 30
0.0
 40
0.0651774697549724
 50
297.6787828538548979
 51
342.0891145704512724
  0
ARC
  5
38B5
  8
0
 10
-0.8260062472478924
 20
6.6847269927003898
 30
0.0
 40
0.0683034066096931
 50
243.1925646978021121
 51
297.6787828538559211
  0
ARC
  5
38B6
  8
0
 10
-0.8272006576322358
 20
6.6823632242927324
 30
0.0
 40
0.065655007611945
 50
208.3494222455435931
 51
243.1925646978017994
  0
ARC
  5
38B7
  8
0
 10
-0.8225357312094573
 20
6.6848802212794807
 30
0.0
 40
0.0709556502485733
 50
178.5914063378093886
 51
208.3494222455418026
  0
ARC
  5
38B8
  8
0
 10
-1.3368465613985161
 20
6.6019596654653654
 30
0.0
 40
0.0234812541910901
 50
157.8786780817135025
 51
218.3078935176922073
  0
ARC
  5
38B9
  8
0
 10
-1.3370919456883239
 20
6.6020594120823262
 30
0.0
 40
0.0232163715052031
 50
93.4847910568193754
 51
157.8786780817121098
  0
ARC
  5
38BA
  8
0
 10
-1.3370316114175449
 20
6.6010686395003262
 30
0.0
 40
0.0242089794507037
 50
42.7460331603323525
 51
93.4847910568136342
  0
ARC
  5
38BB
  8
0
 10
-1.3363725829863311
 20
6.601677754505288
 30
0.0
 40
0.0233115723176723
 50
352.309797187623019
 51
42.7460331603314216
  0
ARC
  5
38BC
  8
0
 10
-1.3364614269345829
 20
6.6016897512093129
 30
0.0
 40
0.0234012225717067
 50
296.4607048357422059
 51
352.3097971876277938
  0
ARC
  5
38BD
  8
0
 10
-1.336582340678524
 20
6.6019326837562851
 30
0.0
 40
0.0236725827674818
 50
217.8602238666755966
 51
296.4607048357424901
  0
ARC
  5
38BE
  8
0
 10
-1.3365556725044641
 20
6.6175865448327178
 30
0.0
 40
0.0951293626435644
 50
50.8599309833852615
 51
110.5397474864755054
  0
ARC
  5
38BF
  8
0
 10
-1.3360369084200121
 20
6.6176917366770089
 30
0.0
 40
0.0947209176757482
 50
0.1026218484183482
 51
51.0631486408825666
  0
ARC
  5
38C0
  8
0
 10
-1.334325468408132
 20
6.6177881717956382
 30
0.0
 40
0.0930093545508699
 50
291.240707227552889
 51
0.0451041254708175
  0
ARC
  5
38C1
  8
0
 10
-1.335087309343707
 20
6.6197481835352434
 30
0.0
 40
0.0951122210778945
 50
214.7032766636561973
 51
291.2407072275527753
  0
ARC
  5
38C2
  8
0
 10
-1.335357319633794
 20
6.6195611967004266
 30
0.0
 40
0.0947837859501335
 50
155.966420389111704
 51
214.7032766636581016
  0
ARC
  5
38C3
  8
0
 10
-1.338664958191077
 20
6.6210361756675731
 30
0.0
 40
0.0911621791549156
 50
110.0590188159440999
 51
155.9664203891124998
  0
ARC
  5
38C4
  8
0
 10
-1.3355165242304401
 20
6.6150453552762398
 30
0.0
 40
0.0683612722615737
 50
142.7403140952438889
 51
182.2697788567309942
  0
ARC
  5
38C5
  8
0
 10
-1.3381582023074889
 20
6.6170548388602226
 30
0.0
 40
0.0650421628423086
 50
114.8912197500962975
 51
142.7403140952438889
  0
ARC
  5
38C6
  8
0
 10
-1.337349030345762
 20
6.6153109273628452
 30
0.0
 40
0.0669646577250933
 50
73.3396503210197324
 51
114.8912197500965959
  0
ARC
  5
38C7
  8
0
 10
-1.3375183134173081
 20
6.6147452555431734
 30
0.0
 40
0.0675551163315021
 50
40.5069955350157898
 51
73.3396503210201587
  0
ARC
  5
38C8
  8
0
 10
-1.3393041409982669
 20
6.6132196375678296
 30
0.0
 40
0.0699038799116861
 50
15.0665672411678404
 51
40.506995535017623
  0
ARC
  5
38C9
  8
0
 10
-1.3462702703227261
 20
6.6113443916867096
 30
0.0
 40
0.0771179983526137
 50
342.0891145704512724
 51
15.0665672411665792
  0
ARC
  5
38CA
  8
0
 10
-1.334908427585771
 20
6.6076722325382242
 30
0.0
 40
0.0651774697549724
 50
297.6787828538548979
 51
342.0891145704512724
  0
ARC
  5
38CB
  8
0
 10
-1.336360469469855
 20
6.6104404549979563
 30
0.0
 40
0.0683034066096931
 50
243.1925646978021121
 51
297.6787828538559211
  0
ARC
  5
38CC
  8
0
 10
-1.3375548798541981
 20
6.608076686590298
 30
0.0
 40
0.065655007611945
 50
208.3494222455435931
 51
243.1925646978017994
  0
ARC
  5
38CD
  8
0
 10
-1.33288995343142
 20
6.6105936835770471
 30
0.0
 40
0.0709556502485733
 50
178.5914063378093886
 51
208.3494222455418026
  0
ARC
  5
38CE
  8
0
 10
-1.7037114415971071
 20
6.2495125159639917
 30
0.0
 40
0.0234812541910901
 50
157.8786780817135025
 51
218.3078935176922073
  0
ARC
  5
38CF
  8
0
 10
-1.7039568258869151
 20
6.2496122625809534
 30
0.0
 40
0.0232163715052031
 50
93.4847910568193754
 51
157.8786780817121098
  0
ARC
  5
38D0
  8
0
 10
-1.7038964916161361
 20
6.2486214899989534
 30
0.0
 40
0.0242089794507037
 50
42.7460331603323525
 51
93.4847910568136342
  0
ARC
  5
38D1
  8
0
 10
-1.7032374631849221
 20
6.2492306050039161
 30
0.0
 40
0.0233115723176723
 50
352.309797187623019
 51
42.7460331603314216
  0
ARC
  5
38D2
  8
0
 10
-1.7033263071331739
 20
6.2492426017079401
 30
0.0
 40
0.0234012225717067
 50
296.4607048357422059
 51
352.3097971876277938
  0
ARC
  5
38D3
  8
0
 10
-1.703447220877115
 20
6.2494855342549123
 30
0.0
 40
0.0236725827674818
 50
217.8602238666755966
 51
296.4607048357424901
  0
ARC
  5
38D4
  8
0
 10
-1.703420552703055
 20
6.265139395331345
 30
0.0
 40
0.0951293626435644
 50
50.8599309833852615
 51
110.5397474864755054
  0
ARC
  5
38D5
  8
0
 10
-1.7029017886186031
 20
6.265244587175637
 30
0.0
 40
0.0947209176757482
 50
0.1026218484183482
 51
51.0631486408825666
  0
ARC
  5
38D6
  8
0
 10
-1.701190348606723
 20
6.2653410222942654
 30
0.0
 40
0.0930093545508699
 50
291.240707227552889
 51
0.0451041254708175
  0
ARC
  5
38D7
  8
0
 10
-1.701952189542298
 20
6.2673010340338697
 30
0.0
 40
0.0951122210778945
 50
214.7032766636561973
 51
291.2407072275527753
  0
ARC
  5
38D8
  8
0
 10
-1.702222199832385
 20
6.2671140471990539
 30
0.0
 40
0.0947837859501335
 50
155.966420389111704
 51
214.7032766636581016
  0
ARC
  5
38D9
  8
0
 10
-1.705529838389668
 20
6.2685890261662003
 30
0.0
 40
0.0911621791549156
 50
110.0590188159440999
 51
155.9664203891124998
  0
ARC
  5
38DA
  8
0
 10
-1.7023814044290311
 20
6.262598205774867
 30
0.0
 40
0.0683612722615737
 50
142.7403140952438889
 51
182.2697788567309942
  0
ARC
  5
38DB
  8
0
 10
-1.7050230825060799
 20
6.2646076893588498
 30
0.0
 40
0.0650421628423086
 50
114.8912197500962975
 51
142.7403140952438889
  0
ARC
  5
38DC
  8
0
 10
-1.704213910544353
 20
6.2628637778614724
 30
0.0
 40
0.0669646577250933
 50
73.3396503210197324
 51
114.8912197500965959
  0
ARC
  5
38DD
  8
0
 10
-1.7043831936158991
 20
6.2622981060417997
 30
0.0
 40
0.0675551163315021
 50
40.5069955350157898
 51
73.3396503210201587
  0
ARC
  5
38DE
  8
0
 10
-1.7061690211968581
 20
6.2607724880664568
 30
0.0
 40
0.0699038799116861
 50
15.0665672411678404
 51
40.506995535017623
  0
ARC
  5
38DF
  8
0
 10
-1.713135150521317
 20
6.2588972421853368
 30
0.0
 40
0.0771179983526137
 50
342.0891145704512724
 51
15.0665672411665792
  0
ARC
  5
38E0
  8
0
 10
-1.701773307784362
 20
6.2552250830368514
 30
0.0
 40
0.0651774697549724
 50
297.6787828538548979
 51
342.0891145704512724
  0
ARC
  5
38E1
  8
0
 10
-1.703225349668446
 20
6.2579933054965826
 30
0.0
 40
0.0683034066096931
 50
243.1925646978021121
 51
297.6787828538559211
  0
ARC
  5
38E2
  8
0
 10
-1.7044197600527891
 20
6.2556295370889252
 30
0.0
 40
0.065655007611945
 50
208.3494222455435931
 51
243.1925646978017994
  0
ARC
  5
38E3
  8
0
 10
-1.699754833630011
 20
6.2581465340756743
 30
0.0
 40
0.0709556502485733
 50
178.5914063378093886
 51
208.3494222455418026
  0
ARC
  5
38E4
  8
0
 10
-1.7863524998571441
 20
5.753640863975626
 30
0.0
 40
0.0234812541910901
 50
157.8786780817135025
 51
218.3078935176922073
  0
ARC
  5
38E5
  8
0
 10
-1.7865978841469521
 20
5.7537406105925859
 30
0.0
 40
0.0232163715052031
 50
93.4847910568193754
 51
157.8786780817121098
  0
ARC
  5
38E6
  8
0
 10
-1.7865375498761731
 20
5.7527498380105859
 30
0.0
 40
0.0242089794507037
 50
42.7460331603323525
 51
93.4847910568136342
  0
ARC
  5
38E7
  8
0
 10
-1.7858785214449591
 20
5.7533589530155487
 30
0.0
 40
0.0233115723176723
 50
352.309797187623019
 51
42.7460331603314216
  0
ARC
  5
38E8
  8
0
 10
-1.7859673653932111
 20
5.7533709497195744
 30
0.0
 40
0.0234012225717067
 50
296.4607048357422059
 51
352.3097971876277938
  0
ARC
  5
38E9
  8
0
 10
-1.7860882791371531
 20
5.7536138822665448
 30
0.0
 40
0.0236725827674818
 50
217.8602238666755966
 51
296.4607048357424901
  0
ARC
  5
38EA
  8
0
 10
-1.7860616109630929
 20
5.7692677433429793
 30
0.0
 40
0.0951293626435644
 50
50.8599309833852615
 51
110.5397474864755054
  0
ARC
  5
38EB
  8
0
 10
-1.7855428468786401
 20
5.7693729351872696
 30
0.0
 40
0.0947209176757482
 50
0.1026218484183482
 51
51.0631486408825666
  0
ARC
  5
38EC
  8
0
 10
-1.7838314068667609
 20
5.7694693703058979
 30
0.0
 40
0.0930093545508699
 50
291.240707227552889
 51
0.0451041254708175
  0
ARC
  5
38ED
  8
0
 10
-1.784593247802335
 20
5.771429382045504
 30
0.0
 40
0.0951122210778945
 50
214.7032766636561973
 51
291.2407072275527753
  0
ARC
  5
38EE
  8
0
 10
-1.7848632580924231
 20
5.7712423952106882
 30
0.0
 40
0.0947837859501335
 50
155.966420389111704
 51
214.7032766636581016
  0
ARC
  5
38EF
  8
0
 10
-1.7881708966497061
 20
5.7727173741778328
 30
0.0
 40
0.0911621791549156
 50
110.0590188159440999
 51
155.9664203891124998
  0
ARC
  5
38F0
  8
0
 10
-1.7850224626890681
 20
5.7667265537865013
 30
0.0
 40
0.0683612722615737
 50
142.7403140952438889
 51
182.2697788567309942
  0
ARC
  5
38F1
  8
0
 10
-1.7876641407661169
 20
5.7687360373704841
 30
0.0
 40
0.0650421628423086
 50
114.8912197500962975
 51
142.7403140952438889
  0
ARC
  5
38F2
  8
0
 10
-1.78685496880439
 20
5.7669921258731049
 30
0.0
 40
0.0669646577250933
 50
73.3396503210197324
 51
114.8912197500965959
  0
ARC
  5
38F3
  8
0
 10
-1.7870242518759369
 20
5.766426454053434
 30
0.0
 40
0.0675551163315021
 50
40.5069955350157898
 51
73.3396503210201587
  0
ARC
  5
38F4
  8
0
 10
-1.7888100794568951
 20
5.7649008360780911
 30
0.0
 40
0.0699038799116861
 50
15.0665672411678404
 51
40.506995535017623
  0
ARC
  5
38F5
  8
0
 10
-1.795776208781354
 20
5.7630255901969711
 30
0.0
 40
0.0771179983526137
 50
342.0891145704512724
 51
15.0665672411665792
  0
ARC
  5
38F6
  8
0
 10
-1.784414366044399
 20
5.759353431048484
 30
0.0
 40
0.0651774697549724
 50
297.6787828538548979
 51
342.0891145704512724
  0
ARC
  5
38F7
  8
0
 10
-1.7858664079284829
 20
5.762121653508216
 30
0.0
 40
0.0683034066096931
 50
243.1925646978021121
 51
297.6787828538559211
  0
ARC
  5
38F8
  8
0
 10
-1.7870608183128269
 20
5.7597578851005578
 30
0.0
 40
0.065655007611945
 50
208.3494222455435931
 51
243.1925646978017994
  0
ARC
  5
38F9
  8
0
 10
-1.782395891890048
 20
5.7622748820873069
 30
0.0
 40
0.0709556502485733
 50
178.5914063378093886
 51
208.3494222455418026
  0
ARC
  5
38FA
  8
0
 10
-1.3144454215195931
 20
5.8831303351937194
 30
0.0
 40
0.0234812541910901
 50
157.8786780817135025
 51
218.3078935176922073
  0
ARC
  5
38FB
  8
0
 10
-1.3146908058094009
 20
5.8832300818106802
 30
0.0
 40
0.0232163715052031
 50
93.4847910568193754
 51
157.8786780817121098
  0
ARC
  5
38FC
  8
0
 10
-1.3146304715386219
 20
5.8822393092286802
 30
0.0
 40
0.0242089794507037
 50
42.7460331603323525
 51
93.4847910568136342
  0
ARC
  5
38FD
  8
0
 10
-1.3139714431074081
 20
5.8828484242336421
 30
0.0
 40
0.0233115723176723
 50
352.309797187623019
 51
42.7460331603314216
  0
ARC
  5
38FE
  8
0
 10
-1.3140602870556599
 20
5.8828604209376669
 30
0.0
 40
0.0234012225717067
 50
296.4607048357422059
 51
352.3097971876277938
  0
ARC
  5
38FF
  8
0
 10
-1.314181200799601
 20
5.8831033534846391
 30
0.0
 40
0.0236725827674818
 50
217.8602238666755966
 51
296.4607048357424901
  0
ARC
  5
3900
  8
0
 10
-1.314154532625541
 20
5.8987572145610718
 30
0.0
 40
0.0951293626435644
 50
50.8599309833852615
 51
110.5397474864755054
  0
ARC
  5
3901
  8
0
 10
-1.3136357685410891
 20
5.898862406405363
 30
0.0
 40
0.0947209176757482
 50
0.1026218484183482
 51
51.0631486408825666
  0
ARC
  5
3902
  8
0
 10
-1.311924328529209
 20
5.8989588415239922
 30
0.0
 40
0.0930093545508699
 50
291.240707227552889
 51
0.0451041254708175
  0
ARC
  5
3903
  8
0
 10
-1.312686169464784
 20
5.9009188532635974
 30
0.0
 40
0.0951122210778945
 50
214.7032766636561973
 51
291.2407072275527753
  0
ARC
  5
3904
  8
0
 10
-1.312956179754871
 20
5.9007318664287807
 30
0.0
 40
0.0947837859501335
 50
155.966420389111704
 51
214.7032766636581016
  0
ARC
  5
3905
  8
0
 10
-1.316263818312154
 20
5.9022068453959271
 30
0.0
 40
0.0911621791549156
 50
110.0590188159440999
 51
155.9664203891124998
  0
ARC
  5
3906
  8
0
 10
-1.3131153843515171
 20
5.8962160250045939
 30
0.0
 40
0.0683612722615737
 50
142.7403140952438889
 51
182.2697788567309942
  0
ARC
  5
3907
  8
0
 10
-1.3157570624285659
 20
5.8982255085885766
 30
0.0
 40
0.0650421628423086
 50
114.8912197500962975
 51
142.7403140952438889
  0
ARC
  5
3908
  8
0
 10
-1.314947890466839
 20
5.8964815970911992
 30
0.0
 40
0.0669646577250933
 50
73.3396503210197324
 51
114.8912197500965959
  0
ARC
  5
3909
  8
0
 10
-1.3151171735383851
 20
5.8959159252715274
 30
0.0
 40
0.0675551163315021
 50
40.5069955350157898
 51
73.3396503210201587
  0
ARC
  5
390A
  8
0
 10
-1.3169030011193441
 20
5.8943903072961836
 30
0.0
 40
0.0699038799116861
 50
15.0665672411678404
 51
40.506995535017623
  0
ARC
  5
390B
  8
0
 10
-1.3238691304438031
 20
5.8925150614150636
 30
0.0
 40
0.0771179983526137
 50
342.0891145704512724
 51
15.0665672411665792
  0
ARC
  5
390C
  8
0
 10
-1.312507287706848
 20
5.8888429022665782
 30
0.0
 40
0.0651774697549724
 50
297.6787828538548979
 51
342.0891145704512724
  0
ARC
  5
390D
  8
0
 10
-1.313959329590932
 20
5.8916111247263103
 30
0.0
 40
0.0683034066096931
 50
243.1925646978021121
 51
297.6787828538559211
  0
ARC
  5
390E
  8
0
 10
-1.3151537399752751
 20
5.889247356318652
 30
0.0
 40
0.065655007611945
 50
208.3494222455435931
 51
243.1925646978017994
  0
ARC
  5
390F
  8
0
 10
-1.310488813552497
 20
5.8917643533054012
 30
0.0
 40
0.0709556502485733
 50
178.5914063378093886
 51
208.3494222455418026
  0
ARC
  5
3910
  8
0
 10
-0.6310175212251177
 20
5.8205005519845301
 30
0.0
 40
0.0234812541910901
 50
157.8786780817135025
 51
218.3078935176922073
  0
ARC
  5
3911
  8
0
 10
-0.6312629055149263
 20
5.82060029860149
 30
0.0
 40
0.0232163715052031
 50
93.4847910568193754
 51
157.8786780817121098
  0
ARC
  5
3912
  8
0
 10
-0.6312025712441467
 20
5.81960952601949
 30
0.0
 40
0.0242089794507037
 50
42.7460331603323525
 51
93.4847910568136342
  0
ARC
  5
3913
  8
0
 10
-0.6305435428129332
 20
5.8202186410244527
 30
0.0
 40
0.0233115723176723
 50
352.309797187623019
 51
42.7460331603314216
  0
ARC
  5
3914
  8
0
 10
-0.6306323867611848
 20
5.8202306377284776
 30
0.0
 40
0.0234012225717067
 50
296.4607048357422059
 51
352.3097971876277938
  0
ARC
  5
3915
  8
0
 10
-0.6307533005051265
 20
5.8204735702754489
 30
0.0
 40
0.0236725827674818
 50
217.8602238666755966
 51
296.4607048357424901
  0
ARC
  5
3916
  8
0
 10
-0.6307266323310663
 20
5.8361274313518834
 30
0.0
 40
0.0951293626435644
 50
50.8599309833852615
 51
110.5397474864755054
  0
ARC
  5
3917
  8
0
 10
-0.6302078682466142
 20
5.8362326231961736
 30
0.0
 40
0.0947209176757482
 50
0.1026218484183482
 51
51.0631486408825666
  0
ARC
  5
3918
  8
0
 10
-0.6284964282347345
 20
5.836329058314802
 30
0.0
 40
0.0930093545508699
 50
291.240707227552889
 51
0.0451041254708175
  0
ARC
  5
3919
  8
0
 10
-0.6292582691703088
 20
5.8382890700544081
 30
0.0
 40
0.0951122210778945
 50
214.7032766636561973
 51
291.2407072275527753
  0
ARC
  5
391A
  8
0
 10
-0.6295282794603962
 20
5.8381020832195922
 30
0.0
 40
0.0947837859501335
 50
155.966420389111704
 51
214.7032766636581016
  0
ARC
  5
391B
  8
0
 10
-0.6328359180176794
 20
5.8395770621867369
 30
0.0
 40
0.0911621791549156
 50
110.0590188159440999
 51
155.9664203891124998
  0
ARC
  5
391C
  8
0
 10
-0.6296874840570417
 20
5.8335862417954054
 30
0.0
 40
0.0683612722615737
 50
142.7403140952438889
 51
182.2697788567309942
  0
ARC
  5
391D
  8
0
 10
-0.632329162134091
 20
5.8355957253793882
 30
0.0
 40
0.0650421628423086
 50
114.8912197500962975
 51
142.7403140952438889
  0
ARC
  5
391E
  8
0
 10
-0.6315199901723642
 20
5.833851813882009
 30
0.0
 40
0.0669646577250933
 50
73.3396503210197324
 51
114.8912197500965959
  0
ARC
  5
391F
  8
0
 10
-0.6316892732439104
 20
5.8332861420623381
 30
0.0
 40
0.0675551163315021
 50
40.5069955350157898
 51
73.3396503210201587
  0
ARC
  5
3920
  8
0
 10
-0.6334751008248687
 20
5.8317605240869952
 30
0.0
 40
0.0699038799116861
 50
15.0665672411678404
 51
40.506995535017623
  0
ARC
  5
3921
  8
0
 10
-0.6404412301493277
 20
5.8298852782058752
 30
0.0
 40
0.0771179983526137
 50
342.0891145704512724
 51
15.0665672411665792
  0
ARC
  5
3922
  8
0
 10
-0.6290793874123728
 20
5.826213119057388
 30
0.0
 40
0.0651774697549724
 50
297.6787828538548979
 51
342.0891145704512724
  0
ARC
  5
3923
  8
0
 10
-0.630531429296457
 20
5.8289813415171201
 30
0.0
 40
0.0683034066096931
 50
243.1925646978021121
 51
297.6787828538559211
  0
ARC
  5
3924
  8
0
 10
-0.6317258396808004
 20
5.8266175731094618
 30
0.0
 40
0.065655007611945
 50
208.3494222455435931
 51
243.1925646978017994
  0
ARC
  5
3925
  8
0
 10
-0.6270609132580219
 20
5.8291345700962109
 30
0.0
 40
0.0709556502485733
 50
178.5914063378093886
 51
208.3494222455418026
  0
ARC
  5
3926
  8
0
 10
-0.9798703548379702
 20
6.2060664178457401
 30
0.0
 40
0.0234812541910901
 50
157.8786780817135025
 51
218.3078935176922073
  0
ARC
  5
3927
  8
0
 10
-0.9801157391277786
 20
6.2061661644627
 30
0.0
 40
0.0232163715052031
 50
93.4847910568193754
 51
157.8786780817121098
  0
ARC
  5
3928
  8
0
 10
-0.9800554048569992
 20
6.2051753918807
 30
0.0
 40
0.0242089794507037
 50
42.7460331603323525
 51
93.4847910568136342
  0
ARC
  5
3929
  8
0
 10
-0.9793963764257856
 20
6.2057845068856627
 30
0.0
 40
0.0233115723176723
 50
352.309797187623019
 51
42.7460331603314216
  0
ARC
  5
392A
  8
0
 10
-0.9794852203740372
 20
6.2057965035896876
 30
0.0
 40
0.0234012225717067
 50
296.4607048357422059
 51
352.3097971876277938
  0
ARC
  5
392B
  8
0
 10
-0.979606134117979
 20
6.2060394361366589
 30
0.0
 40
0.0236725827674818
 50
217.8602238666755966
 51
296.4607048357424901
  0
ARC
  5
392C
  8
0
 10
-0.9795794659439188
 20
6.2216932972130934
 30
0.0
 40
0.0951293626435644
 50
50.8599309833852615
 51
110.5397474864755054
  0
ARC
  5
392D
  8
0
 10
-0.9790607018594666
 20
6.2217984890573836
 30
0.0
 40
0.0947209176757482
 50
0.1026218484183482
 51
51.0631486408825666
  0
ARC
  5
392E
  8
0
 10
-0.977349261847587
 20
6.221894924176012
 30
0.0
 40
0.0930093545508699
 50
291.240707227552889
 51
0.0451041254708175
  0
ARC
  5
392F
  8
0
 10
-0.9781111027831613
 20
6.2238549359156181
 30
0.0
 40
0.0951122210778945
 50
214.7032766636561973
 51
291.2407072275527753
  0
ARC
  5
3930
  8
0
 10
-0.9783811130732487
 20
6.2236679490808022
 30
0.0
 40
0.0947837859501335
 50
155.966420389111704
 51
214.7032766636581016
  0
ARC
  5
3931
  8
0
 10
-0.9816887516305317
 20
6.2251429280479469
 30
0.0
 40
0.0911621791549156
 50
110.0590188159440999
 51
155.9664203891124998
  0
ARC
  5
3932
  8
0
 10
-0.9785403176698942
 20
6.2191521076566154
 30
0.0
 40
0.0683612722615737
 50
142.7403140952438889
 51
182.2697788567309942
  0
ARC
  5
3933
  8
0
 10
-0.9811819957469435
 20
6.2211615912405982
 30
0.0
 40
0.0650421628423086
 50
114.8912197500962975
 51
142.7403140952438889
  0
ARC
  5
3934
  8
0
 10
-0.9803728237852165
 20
6.219417679743219
 30
0.0
 40
0.0669646577250933
 50
73.3396503210197324
 51
114.8912197500965959
  0
ARC
  5
3935
  8
0
 10
-0.9805421068567628
 20
6.2188520079235481
 30
0.0
 40
0.0675551163315021
 50
40.5069955350157898
 51
73.3396503210201587
  0
ARC
  5
3936
  8
0
 10
-0.9823279344377212
 20
6.2173263899482052
 30
0.0
 40
0.0699038799116861
 50
15.0665672411678404
 51
40.506995535017623
  0
ARC
  5
3937
  8
0
 10
-0.9892940637621801
 20
6.2154511440670852
 30
0.0
 40
0.0771179983526137
 50
342.0891145704512724
 51
15.0665672411665792
  0
ARC
  5
3938
  8
0
 10
-0.9779322210252253
 20
6.211778984918598
 30
0.0
 40
0.0651774697549724
 50
297.6787828538548979
 51
342.0891145704512724
  0
ARC
  5
3939
  8
0
 10
-0.9793842629093095
 20
6.2145472073783301
 30
0.0
 40
0.0683034066096931
 50
243.1925646978021121
 51
297.6787828538559211
  0
ARC
  5
393A
  8
0
 10
-0.9805786732936528
 20
6.2121834389706718
 30
0.0
 40
0.065655007611945
 50
208.3494222455435931
 51
243.1925646978017994
  0
ARC
  5
393B
  8
0
 10
-0.9759137468708743
 20
6.2147004359574209
 30
0.0
 40
0.0709556502485733
 50
178.5914063378093886
 51
208.3494222455418026
  0
ARC
  5
393C
  8
0
 10
-0.5185102340491592
 20
6.2951391280411784
 30
0.0
 40
0.0234812541910901
 50
157.8786780817135025
 51
218.3078935176922073
  0
ARC
  5
393D
  8
0
 10
-0.5187556183389677
 20
6.2952388746581391
 30
0.0
 40
0.0232163715052031
 50
93.4847910568193754
 51
157.8786780817121098
  0
ARC
  5
393E
  8
0
 10
-0.5186952840681883
 20
6.2942481020761392
 30
0.0
 40
0.0242089794507037
 50
42.7460331603323525
 51
93.4847910568136342
  0
ARC
  5
393F
  8
0
 10
-0.5180362556369748
 20
6.294857217081101
 30
0.0
 40
0.0233115723176723
 50
352.309797187623019
 51
42.7460331603314216
  0
ARC
  5
3940
  8
0
 10
-0.5181250995852263
 20
6.2948692137851259
 30
0.0
 40
0.0234012225717067
 50
296.4607048357422059
 51
352.3097971876277938
  0
ARC
  5
3941
  8
0
 10
-0.518246013329168
 20
6.295112146332098
 30
0.0
 40
0.0236725827674818
 50
217.8602238666755966
 51
296.4607048357424901
  0
ARC
  5
3942
  8
0
 10
-0.5182193451551079
 20
6.3107660074085308
 30
0.0
 40
0.0951293626435644
 50
50.8599309833852615
 51
110.5397474864755054
  0
ARC
  5
3943
  8
0
 10
-0.5177005810706558
 20
6.3108711992528219
 30
0.0
 40
0.0947209176757482
 50
0.1026218484183482
 51
51.0631486408825666
  0
ARC
  5
3944
  8
0
 10
-0.5159891410587761
 20
6.3109676343714511
 30
0.0
 40
0.0930093545508699
 50
291.240707227552889
 51
0.0451041254708175
  0
ARC
  5
3945
  8
0
 10
-0.5167509819943504
 20
6.3129276461110564
 30
0.0
 40
0.0951122210778945
 50
214.7032766636561973
 51
291.2407072275527753
  0
ARC
  5
3946
  8
0
 10
-0.5170209922844378
 20
6.3127406592762396
 30
0.0
 40
0.0947837859501335
 50
155.966420389111704
 51
214.7032766636581016
  0
ARC
  5
3947
  8
0
 10
-0.5203286308417208
 20
6.3142156382433861
 30
0.0
 40
0.0911621791549156
 50
110.0590188159440999
 51
155.9664203891124998
  0
ARC
  5
3948
  8
0
 10
-0.5171801968810832
 20
6.3082248178520528
 30
0.0
 40
0.0683612722615737
 50
142.7403140952438889
 51
182.2697788567309942
  0
ARC
  5
3949
  8
0
 10
-0.5198218749581325
 20
6.3102343014360356
 30
0.0
 40
0.0650421628423086
 50
114.8912197500962975
 51
142.7403140952438889
  0
ARC
  5
394A
  8
0
 10
-0.5190127029964056
 20
6.3084903899386582
 30
0.0
 40
0.0669646577250933
 50
73.3396503210197324
 51
114.8912197500965959
  0
ARC
  5
394B
  8
0
 10
-0.5191819860679519
 20
6.3079247181189864
 30
0.0
 40
0.0675551163315021
 50
40.5069955350157898
 51
73.3396503210201587
  0
ARC
  5
394C
  8
0
 10
-0.5209678136489102
 20
6.3063991001436426
 30
0.0
 40
0.0699038799116861
 50
15.0665672411678404
 51
40.506995535017623
  0
ARC
  5
394D
  8
0
 10
-0.5279339429733692
 20
6.3045238542625226
 30
0.0
 40
0.0771179983526137
 50
342.0891145704512724
 51
15.0665672411665792
  0
ARC
  5
394E
  8
0
 10
-0.5165721002364143
 20
6.3008516951140372
 30
0.0
 40
0.0651774697549724
 50
297.6787828538548979
 51
342.0891145704512724
  0
ARC
  5
394F
  8
0
 10
-0.5180241421204986
 20
6.3036199175737693
 30
0.0
 40
0.0683034066096931
 50
243.1925646978021121
 51
297.6787828538559211
  0
ARC
  5
3950
  8
0
 10
-0.5192185525048419
 20
6.3012561491661101
 30
0.0
 40
0.065655007611945
 50
208.3494222455435931
 51
243.1925646978017994
  0
ARC
  5
3951
  8
0
 10
-0.5145536260820635
 20
6.3037731461528601
 30
0.0
 40
0.0709556502485733
 50
178.5914063378093886
 51
208.3494222455418026
  0
ARC
  5
3952
  8
0
 10
-0.046709719711648
 20
6.3311369034399041
 30
0.0
 40
0.0234812541910901
 50
157.8786780817135025
 51
218.3078935176922073
  0
ARC
  5
3953
  8
0
 10
-0.0469551040014564
 20
6.3312366500568649
 30
0.0
 40
0.0232163715052031
 50
93.4847910568193754
 51
157.8786780817121098
  0
ARC
  5
3954
  8
0
 10
-0.046894769730677
 20
6.3302458774748649
 30
0.0
 40
0.0242089794507037
 50
42.7460331603323525
 51
93.4847910568136342
  0
ARC
  5
3955
  8
0
 10
-0.0462357412994634
 20
6.3308549924798276
 30
0.0
 40
0.0233115723176723
 50
352.309797187623019
 51
42.7460331603314216
  0
ARC
  5
3956
  8
0
 10
-0.046324585247715
 20
6.3308669891838534
 30
0.0
 40
0.0234012225717067
 50
296.4607048357422059
 51
352.3097971876277938
  0
ARC
  5
3957
  8
0
 10
-0.0464454989916567
 20
6.3311099217308238
 30
0.0
 40
0.0236725827674818
 50
217.8602238666755966
 51
296.4607048357424901
  0
ARC
  5
3958
  8
0
 10
-0.0464188308175966
 20
6.3467637828072583
 30
0.0
 40
0.0951293626435644
 50
50.8599309833852615
 51
110.5397474864755054
  0
ARC
  5
3959
  8
0
 10
-0.0459000667331444
 20
6.3468689746515494
 30
0.0
 40
0.0947209176757482
 50
0.1026218484183482
 51
51.0631486408825666
  0
ARC
  5
395A
  8
0
 10
-0.0441886267212648
 20
6.3469654097701769
 30
0.0
 40
0.0930093545508699
 50
291.240707227552889
 51
0.0451041254708175
  0
ARC
  5
395B
  8
0
 10
-0.0449504676568391
 20
6.348925421509783
 30
0.0
 40
0.0951122210778945
 50
214.7032766636561973
 51
291.2407072275527753
  0
ARC
  5
395C
  8
0
 10
-0.0452204779469265
 20
6.3487384346749671
 30
0.0
 40
0.0947837859501335
 50
155.966420389111704
 51
214.7032766636581016
  0
ARC
  5
395D
  8
0
 10
-0.0485281165042095
 20
6.3502134136421118
 30
0.0
 40
0.0911621791549156
 50
110.0590188159440999
 51
155.9664203891124998
  0
ARC
  5
395E
  8
0
 10
-0.045379682543572
 20
6.3442225932507803
 30
0.0
 40
0.0683612722615737
 50
142.7403140952438889
 51
182.2697788567309942
  0
ARC
  5
395F
  8
0
 10
-0.0480213606206212
 20
6.3462320768347631
 30
0.0
 40
0.0650421628423086
 50
114.8912197500962975
 51
142.7403140952438889
  0
ARC
  5
3960
  8
0
 10
-0.0472121886588943
 20
6.3444881653373839
 30
0.0
 40
0.0669646577250933
 50
73.3396503210197324
 51
114.8912197500965959
  0
ARC
  5
3961
  8
0
 10
-0.0473814717304406
 20
6.3439224935177121
 30
0.0
 40
0.0675551163315021
 50
40.5069955350157898
 51
73.3396503210201587
  0
ARC
  5
3962
  8
0
 10
-0.049167299311399
 20
6.3423968755423701
 30
0.0
 40
0.0699038799116861
 50
15.0665672411678404
 51
40.506995535017623
  0
ARC
  5
3963
  8
0
 10
-0.0561334286358579
 20
6.3405216296612501
 30
0.0
 40
0.0771179983526137
 50
342.0891145704512724
 51
15.0665672411665792
  0
ARC
  5
3964
  8
0
 10
-0.0447715858989031
 20
6.3368494705127629
 30
0.0
 40
0.0651774697549724
 50
297.6787828538548979
 51
342.0891145704512724
  0
ARC
  5
3965
  8
0
 10
-0.0462236277829873
 20
6.339617692972495
 30
0.0
 40
0.0683034066096931
 50
243.1925646978021121
 51
297.6787828538559211
  0
ARC
  5
3966
  8
0
 10
-0.0474180381673306
 20
6.3372539245648367
 30
0.0
 40
0.065655007611945
 50
208.3494222455435931
 51
243.1925646978017994
  0
ARC
  5
3967
  8
0
 10
-0.0427531117445521
 20
6.3397709215515858
 30
0.0
 40
0.0709556502485733
 50
178.5914063378093886
 51
208.3494222455418026
  0
ARC
  5
3968
  8
0
 10
-0.93662676111208
 20
5.5274368554581406
 30
0.0
 40
0.0234812541910901
 50
157.8786780817135025
 51
218.3078935176922073
  0
ARC
  5
3969
  8
0
 10
-0.9368721454018885
 20
5.5275366020751022
 30
0.0
 40
0.0232163715052031
 50
93.4847910568193754
 51
157.8786780817121098
  0
ARC
  5
396A
  8
0
 10
-0.936811811131109
 20
5.5265458294931022
 30
0.0
 40
0.0242089794507037
 50
42.7460331603323525
 51
93.4847910568136342
  0
ARC
  5
396B
  8
0
 10
-0.9361527826998955
 20
5.5271549444980641
 30
0.0
 40
0.0233115723176723
 50
352.309797187623019
 51
42.7460331603314216
  0
ARC
  5
396C
  8
0
 10
-0.9362416266481471
 20
5.527166941202089
 30
0.0
 40
0.0234012225717067
 50
296.4607048357422059
 51
352.3097971876277938
  0
ARC
  5
396D
  8
0
 10
-0.9363625403920888
 20
5.5274098737490611
 30
0.0
 40
0.0236725827674818
 50
217.8602238666755966
 51
296.4607048357424901
  0
ARC
  5
396E
  8
0
 10
-0.9363358722180286
 20
5.5430637348254939
 30
0.0
 40
0.0951293626435644
 50
50.8599309833852615
 51
110.5397474864755054
  0
ARC
  5
396F
  8
0
 10
-0.9358171081335765
 20
5.543168926669785
 30
0.0
 40
0.0947209176757482
 50
0.1026218484183482
 51
51.0631486408825666
  0
ARC
  5
3970
  8
0
 10
-0.9341056681216969
 20
5.5432653617884142
 30
0.0
 40
0.0930093545508699
 50
291.240707227552889
 51
0.0451041254708175
  0
ARC
  5
3971
  8
0
 10
-0.9348675090572712
 20
5.5452253735280186
 30
0.0
 40
0.0951122210778945
 50
214.7032766636561973
 51
291.2407072275527753
  0
ARC
  5
3972
  8
0
 10
-0.9351375193473586
 20
5.5450383866932027
 30
0.0
 40
0.0947837859501335
 50
155.966420389111704
 51
214.7032766636581016
  0
ARC
  5
3973
  8
0
 10
-0.9384451579046416
 20
5.5465133656603491
 30
0.0
 40
0.0911621791549156
 50
110.0590188159440999
 51
155.9664203891124998
  0
ARC
  5
3974
  8
0
 10
-0.935296723944004
 20
5.5405225452690159
 30
0.0
 40
0.0683612722615737
 50
142.7403140952438889
 51
182.2697788567309942
  0
ARC
  5
3975
  8
0
 10
-0.9379384020210533
 20
5.5425320288529987
 30
0.0
 40
0.0650421628423086
 50
114.8912197500962975
 51
142.7403140952438889
  0
ARC
  5
3976
  8
0
 10
-0.9371292300593264
 20
5.5407881173556213
 30
0.0
 40
0.0669646577250933
 50
73.3396503210197324
 51
114.8912197500965959
  0
ARC
  5
3977
  8
0
 10
-0.9372985131308726
 20
5.5402224455359486
 30
0.0
 40
0.0675551163315021
 50
40.5069955350157898
 51
73.3396503210201587
  0
ARC
  5
3978
  8
0
 10
-0.939084340711831
 20
5.5386968275606057
 30
0.0
 40
0.0699038799116861
 50
15.0665672411678404
 51
40.506995535017623
  0
ARC
  5
3979
  8
0
 10
-0.9460504700362899
 20
5.5368215816794857
 30
0.0
 40
0.0771179983526137
 50
342.0891145704512724
 51
15.0665672411665792
  0
ARC
  5
397A
  8
0
 10
-0.9346886272993351
 20
5.5331494225310003
 30
0.0
 40
0.0651774697549724
 50
297.6787828538548979
 51
342.0891145704512724
  0
ARC
  5
397B
  8
0
 10
-0.9361406691834194
 20
5.5359176449907324
 30
0.0
 40
0.0683034066096931
 50
243.1925646978021121
 51
297.6787828538559211
  0
ARC
  5
397C
  8
0
 10
-0.9373350795677627
 20
5.5335538765830741
 30
0.0
 40
0.065655007611945
 50
208.3494222455435931
 51
243.1925646978017994
  0
ARC
  5
397D
  8
0
 10
-0.9326701531449842
 20
5.5360708735698232
 30
0.0
 40
0.0709556502485733
 50
178.5914063378093886
 51
208.3494222455418026
  0
ARC
  5
397E
  8
0
 10
-1.4125702997152689
 20
5.4341458309000004
 30
0.0
 40
0.0234812541910901
 50
157.8786780817135025
 51
218.3078935176922073
  0
ARC
  5
397F
  8
0
 10
-1.4128156840050781
 20
5.4342455775169611
 30
0.0
 40
0.0232163715052031
 50
93.4847910568193754
 51
157.8786780817121098
  0
ARC
  5
3980
  8
0
 10
-1.4127553497342979
 20
5.4332548049349612
 30
0.0
 40
0.0242089794507037
 50
42.7460331603323525
 51
93.4847910568136342
  0
ARC
  5
3981
  8
0
 10
-1.412096321303085
 20
5.433863919939923
 30
0.0
 40
0.0233115723176723
 50
352.309797187623019
 51
42.7460331603314216
  0
ARC
  5
3982
  8
0
 10
-1.412185165251336
 20
5.4338759166439479
 30
0.0
 40
0.0234012225717067
 50
296.4607048357422059
 51
352.3097971876277938
  0
ARC
  5
3983
  8
0
 10
-1.4123060789952779
 20
5.43411884919092
 30
0.0
 40
0.0236725827674818
 50
217.8602238666755966
 51
296.4607048357424901
  0
ARC
  5
3984
  8
0
 10
-1.412279410821218
 20
5.4497727102673528
 30
0.0
 40
0.0951293626435644
 50
50.8599309833852615
 51
110.5397474864755054
  0
ARC
  5
3985
  8
0
 10
-1.411760646736766
 20
5.4498779021116439
 30
0.0
 40
0.0947209176757482
 50
0.1026218484183482
 51
51.0631486408825666
  0
ARC
  5
3986
  8
0
 10
-1.410049206724886
 20
5.4499743372302731
 30
0.0
 40
0.0930093545508699
 50
291.240707227552889
 51
0.0451041254708175
  0
ARC
  5
3987
  8
0
 10
-1.4108110476604601
 20
5.4519343489698784
 30
0.0
 40
0.0951122210778945
 50
214.7032766636561973
 51
291.2407072275527753
  0
ARC
  5
3988
  8
0
 10
-1.4110810579505479
 20
5.4517473621350616
 30
0.0
 40
0.0947837859501335
 50
155.966420389111704
 51
214.7032766636581016
  0
ARC
  5
3989
  8
0
 10
-1.4143886965078309
 20
5.453222341102208
 30
0.0
 40
0.0911621791549156
 50
110.0590188159440999
 51
155.9664203891124998
  0
ARC
  5
398A
  8
0
 10
-1.4112402625471929
 20
5.4472315207108748
 30
0.0
 40
0.0683612722615737
 50
142.7403140952438889
 51
182.2697788567309942
  0
ARC
  5
398B
  8
0
 10
-1.413881940624242
 20
5.4492410042948576
 30
0.0
 40
0.0650421628423086
 50
114.8912197500962975
 51
142.7403140952438889
  0
ARC
  5
398C
  8
0
 10
-1.4130727686625151
 20
5.4474970927974802
 30
0.0
 40
0.0669646577250933
 50
73.3396503210197324
 51
114.8912197500965959
  0
ARC
  5
398D
  8
0
 10
-1.413242051734062
 20
5.4469314209778084
 30
0.0
 40
0.0675551163315021
 50
40.5069955350157898
 51
73.3396503210201587
  0
ARC
  5
398E
  8
0
 10
-1.4150278793150199
 20
5.4454058030024646
 30
0.0
 40
0.0699038799116861
 50
15.0665672411678404
 51
40.506995535017623
  0
ARC
  5
398F
  8
0
 10
-1.4219940086394789
 20
5.4435305571213446
 30
0.0
 40
0.0771179983526137
 50
342.0891145704512724
 51
15.0665672411665792
  0
ARC
  5
3990
  8
0
 10
-1.410632165902524
 20
5.4398583979728592
 30
0.0
 40
0.0651774697549724
 50
297.6787828538548979
 51
342.0891145704512724
  0
ARC
  5
3991
  8
0
 10
-1.412084207786608
 20
5.4426266204325913
 30
0.0
 40
0.0683034066096931
 50
243.1925646978021121
 51
297.6787828538559211
  0
ARC
  5
3992
  8
0
 10
-1.413278618170952
 20
5.4402628520249321
 30
0.0
 40
0.065655007611945
 50
208.3494222455435931
 51
243.1925646978017994
  0
ARC
  5
3993
  8
0
 10
-1.4086136917481731
 20
5.4427798490116821
 30
0.0
 40
0.0709556502485733
 50
178.5914063378093886
 51
208.3494222455418026
  0
ARC
  5
3994
  8
0
 10
-1.812516482398933
 20
5.2521995534525479
 30
0.0
 40
0.0234812541910901
 50
157.8786780817135025
 51
218.3078935176922073
  0
ARC
  5
3995
  8
0
 10
-1.8127618666887411
 20
5.2522993000695086
 30
0.0
 40
0.0232163715052031
 50
93.4847910568193754
 51
157.8786780817121098
  0
ARC
  5
3996
  8
0
 10
-1.8127015324179621
 20
5.2513085274875086
 30
0.0
 40
0.0242089794507037
 50
42.7460331603323525
 51
93.4847910568136342
  0
ARC
  5
3997
  8
0
 10
-1.812042503986748
 20
5.2519176424924723
 30
0.0
 40
0.0233115723176723
 50
352.309797187623019
 51
42.7460331603314216
  0
ARC
  5
3998
  8
0
 10
-1.8121313479350001
 20
5.2519296391964971
 30
0.0
 40
0.0234012225717067
 50
296.4607048357422059
 51
352.3097971876277938
  0
ARC
  5
3999
  8
0
 10
-1.812252261678942
 20
5.2521725717434684
 30
0.0
 40
0.0236725827674818
 50
217.8602238666755966
 51
296.4607048357424901
  0
ARC
  5
399A
  8
0
 10
-1.812225593504881
 20
5.267826432819902
 30
0.0
 40
0.0951293626435644
 50
50.8599309833852615
 51
110.5397474864755054
  0
ARC
  5
399B
  8
0
 10
-1.811706829420429
 20
5.2679316246641932
 30
0.0
 40
0.0947209176757482
 50
0.1026218484183482
 51
51.0631486408825666
  0
ARC
  5
399C
  8
0
 10
-1.8099953894085501
 20
5.2680280597828206
 30
0.0
 40
0.0930093545508699
 50
291.240707227552889
 51
0.0451041254708175
  0
ARC
  5
399D
  8
0
 10
-1.8107572303441239
 20
5.2699880715224259
 30
0.0
 40
0.0951122210778945
 50
214.7032766636561973
 51
291.2407072275527753
  0
ARC
  5
399E
  8
0
 10
-1.8110272406342109
 20
5.26980108468761
 30
0.0
 40
0.0947837859501335
 50
155.966420389111704
 51
214.7032766636581016
  0
ARC
  5
399F
  8
0
 10
-1.8143348791914939
 20
5.2712760636547564
 30
0.0
 40
0.0911621791549156
 50
110.0590188159440999
 51
155.9664203891124998
  0
ARC
  5
39A0
  8
0
 10
-1.811186445230857
 20
5.2652852432634241
 30
0.0
 40
0.0683612722615737
 50
142.7403140952438889
 51
182.2697788567309942
  0
ARC
  5
39A1
  8
0
 10
-1.8138281233079061
 20
5.267294726847406
 30
0.0
 40
0.0650421628423086
 50
114.8912197500962975
 51
142.7403140952438889
  0
ARC
  5
39A2
  8
0
 10
-1.813018951346179
 20
5.2655508153500277
 30
0.0
 40
0.0669646577250933
 50
73.3396503210197324
 51
114.8912197500965959
  0
ARC
  5
39A3
  8
0
 10
-1.8131882344177259
 20
5.2649851435303558
 30
0.0
 40
0.0675551163315021
 50
40.5069955350157898
 51
73.3396503210201587
  0
ARC
  5
39A4
  8
0
 10
-1.8149740619986841
 20
5.263459525555013
 30
0.0
 40
0.0699038799116861
 50
15.0665672411678404
 51
40.506995535017623
  0
ARC
  5
39A5
  8
0
 10
-1.821940191323143
 20
5.261584279673893
 30
0.0
 40
0.0771179983526137
 50
342.0891145704512724
 51
15.0665672411665792
  0
ARC
  5
39A6
  8
0
 10
-1.8105783485861879
 20
5.2579121205254067
 30
0.0
 40
0.0651774697549724
 50
297.6787828538548979
 51
342.0891145704512724
  0
ARC
  5
39A7
  8
0
 10
-1.8120303904702719
 20
5.2606803429851388
 30
0.0
 40
0.0683034066096931
 50
243.1925646978021121
 51
297.6787828538559211
  0
ARC
  5
39A8
  8
0
 10
-1.813224800854615
 20
5.2583165745774814
 30
0.0
 40
0.065655007611945
 50
208.3494222455435931
 51
243.1925646978017994
  0
ARC
  5
39A9
  8
0
 10
-1.808559874431837
 20
5.2608335715642296
 30
0.0
 40
0.0709556502485733
 50
178.5914063378093886
 51
208.3494222455418026
  0
ARC
  5
39AA
  8
0
 10
-1.8229660053866319
 20
4.7508658828142876
 30
0.0
 40
0.0234812541910901
 50
157.8786780817135025
 51
218.3078935176922073
  0
ARC
  5
39AB
  8
0
 10
-1.8232113896764399
 20
4.7509656294312492
 30
0.0
 40
0.0232163715052031
 50
93.4847910568193754
 51
157.8786780817121098
  0
ARC
  5
39AC
  8
0
 10
-1.8231510554056609
 20
4.7499748568492492
 30
0.0
 40
0.0242089794507037
 50
42.7460331603323525
 51
93.4847910568136342
  0
ARC
  5
39AD
  8
0
 10
-1.8224920269744469
 20
4.7505839718542111
 30
0.0
 40
0.0233115723176723
 50
352.309797187623019
 51
42.7460331603314216
  0
ARC
  5
39AE
  8
0
 10
-1.8225808709226989
 20
4.750595968558236
 30
0.0
 40
0.0234012225717067
 50
296.4607048357422059
 51
352.3097971876277938
  0
ARC
  5
39AF
  8
0
 10
-1.82270178466664
 20
4.7508389011052081
 30
0.0
 40
0.0236725827674818
 50
217.8602238666755966
 51
296.4607048357424901
  0
ARC
  5
39B0
  8
0
 10
-1.8226751164925801
 20
4.7664927621816409
 30
0.0
 40
0.0951293626435644
 50
50.8599309833852615
 51
110.5397474864755054
  0
ARC
  5
39B1
  8
0
 10
-1.8221563524081279
 20
4.766597954025932
 30
0.0
 40
0.0947209176757482
 50
0.1026218484183482
 51
51.0631486408825666
  0
ARC
  5
39B2
  8
0
 10
-1.8204449123962489
 20
4.7666943891445612
 30
0.0
 40
0.0930093545508699
 50
291.240707227552889
 51
0.0451041254708175
  0
ARC
  5
39B3
  8
0
 10
-1.821206753331823
 20
4.7686544008841656
 30
0.0
 40
0.0951122210778945
 50
214.7032766636561973
 51
291.2407072275527753
  0
ARC
  5
39B4
  8
0
 10
-1.82147676362191
 20
4.7684674140493497
 30
0.0
 40
0.0947837859501335
 50
155.966420389111704
 51
214.7032766636581016
  0
ARC
  5
39B5
  8
0
 10
-1.824784402179193
 20
4.7699423930164961
 30
0.0
 40
0.0911621791549156
 50
110.0590188159440999
 51
155.9664203891124998
  0
ARC
  5
39B6
  8
0
 10
-1.8216359682185559
 20
4.7639515726251629
 30
0.0
 40
0.0683612722615737
 50
142.7403140952438889
 51
182.2697788567309942
  0
ARC
  5
39B7
  8
0
 10
-1.824277646295605
 20
4.7659610562091457
 30
0.0
 40
0.0650421628423086
 50
114.8912197500962975
 51
142.7403140952438889
  0
ARC
  5
39B8
  8
0
 10
-1.823468474333878
 20
4.7642171447117683
 30
0.0
 40
0.0669646577250933
 50
73.3396503210197324
 51
114.8912197500965959
  0
ARC
  5
39B9
  8
0
 10
-1.8236377574054241
 20
4.7636514728920956
 30
0.0
 40
0.0675551163315021
 50
40.5069955350157898
 51
73.3396503210201587
  0
ARC
  5
39BA
  8
0
 10
-1.8254235849863829
 20
4.7621258549167527
 30
0.0
 40
0.0699038799116861
 50
15.0665672411678404
 51
40.506995535017623
  0
ARC
  5
39BB
  8
0
 10
-1.8323897143108421
 20
4.7602506090356327
 30
0.0
 40
0.0771179983526137
 50
342.0891145704512724
 51
15.0665672411665792
  0
ARC
  5
39BC
  8
0
 10
-1.821027871573887
 20
4.7565784498871473
 30
0.0
 40
0.0651774697549724
 50
297.6787828538548979
 51
342.0891145704512724
  0
ARC
  5
39BD
  8
0
 10
-1.822479913457971
 20
4.7593466723468794
 30
0.0
 40
0.0683034066096931
 50
243.1925646978021121
 51
297.6787828538559211
  0
ARC
  5
39BE
  8
0
 10
-1.8236743238423141
 20
4.7569829039392211
 30
0.0
 40
0.065655007611945
 50
208.3494222455435931
 51
243.1925646978017994
  0
ARC
  5
39BF
  8
0
 10
-1.819009397419536
 20
4.7594999009259702
 30
0.0
 40
0.0709556502485733
 50
178.5914063378093886
 51
208.3494222455418026
  0
ARC
  5
39C0
  8
0
 10
-1.452063330202491
 20
4.9789439138208911
 30
0.0
 40
0.0234812541910901
 50
157.8786780817135025
 51
218.3078935176922073
  0
ARC
  5
39C1
  8
0
 10
-1.452308714492299
 20
4.9790436604378518
 30
0.0
 40
0.0232163715052031
 50
93.4847910568193754
 51
157.8786780817121098
  0
ARC
  5
39C2
  8
0
 10
-1.45224838022152
 20
4.9780528878558519
 30
0.0
 40
0.0242089794507037
 50
42.7460331603323525
 51
93.4847910568136342
  0
ARC
  5
39C3
  8
0
 10
-1.451589351790306
 20
4.9786620028608146
 30
0.0
 40
0.0233115723176723
 50
352.309797187623019
 51
42.7460331603314216
  0
ARC
  5
39C4
  8
0
 10
-1.4516781957385581
 20
4.9786739995648404
 30
0.0
 40
0.0234012225717067
 50
296.4607048357422059
 51
352.3097971876277938
  0
ARC
  5
39C5
  8
0
 10
-1.4517991094825
 20
4.9789169321118107
 30
0.0
 40
0.0236725827674818
 50
217.8602238666755966
 51
296.4607048357424901
  0
ARC
  5
39C6
  8
0
 10
-1.4517724413084401
 20
4.9945707931882453
 30
0.0
 40
0.0951293626435644
 50
50.8599309833852615
 51
110.5397474864755054
  0
ARC
  5
39C7
  8
0
 10
-1.451253677223987
 20
4.9946759850325364
 30
0.0
 40
0.0947209176757482
 50
0.1026218484183482
 51
51.0631486408825666
  0
ARC
  5
39C8
  8
0
 10
-1.4495422372121081
 20
4.9947724201511638
 30
0.0
 40
0.0930093545508699
 50
291.240707227552889
 51
0.0451041254708175
  0
ARC
  5
39C9
  8
0
 10
-1.4503040781476819
 20
4.9967324318907691
 30
0.0
 40
0.0951122210778945
 50
214.7032766636561973
 51
291.2407072275527753
  0
ARC
  5
39CA
  8
0
 10
-1.45057408843777
 20
4.9965454450559541
 30
0.0
 40
0.0947837859501335
 50
155.966420389111704
 51
214.7032766636581016
  0
ARC
  5
39CB
  8
0
 10
-1.453881726995053
 20
4.9980204240230988
 30
0.0
 40
0.0911621791549156
 50
110.0590188159440999
 51
155.9664203891124998
  0
ARC
  5
39CC
  8
0
 10
-1.450733293034415
 20
4.9920296036317673
 30
0.0
 40
0.0683612722615737
 50
142.7403140952438889
 51
182.2697788567309942
  0
ARC
  5
39CD
  8
0
 10
-1.4533749711114641
 20
4.9940390872157501
 30
0.0
 40
0.0650421628423086
 50
114.8912197500962975
 51
142.7403140952438889
  0
ARC
  5
39CE
  8
0
 10
-1.4525657991497369
 20
4.9922951757183709
 30
0.0
 40
0.0669646577250933
 50
73.3396503210197324
 51
114.8912197500965959
  0
ARC
  5
39CF
  8
0
 10
-1.4527350822212839
 20
4.9917295038986991
 30
0.0
 40
0.0675551163315021
 50
40.5069955350157898
 51
73.3396503210201587
  0
ARC
  5
39D0
  8
0
 10
-1.454520909802242
 20
4.9902038859233571
 30
0.0
 40
0.0699038799116861
 50
15.0665672411678404
 51
40.506995535017623
  0
ARC
  5
39D1
  8
0
 10
-1.461487039126701
 20
4.9883286400422371
 30
0.0
 40
0.0771179983526137
 50
342.0891145704512724
 51
15.0665672411665792
  0
ARC
  5
39D2
  8
0
 10
-1.4501251963897459
 20
4.9846564808937499
 30
0.0
 40
0.0651774697549724
 50
297.6787828538548979
 51
342.0891145704512724
  0
ARC
  5
39D3
  8
0
 10
-1.4515772382738299
 20
4.987424703353482
 30
0.0
 40
0.0683034066096931
 50
243.1925646978021121
 51
297.6787828538559211
  0
ARC
  5
39D4
  8
0
 10
-1.4527716486581741
 20
4.9850609349458237
 30
0.0
 40
0.065655007611945
 50
208.3494222455435931
 51
243.1925646978017994
  0
ARC
  5
39D5
  8
0
 10
-1.4481067222353949
 20
4.9875779319325728
 30
0.0
 40
0.0709556502485733
 50
178.5914063378093886
 51
208.3494222455418026
  0
ARC
  5
39D6
  8
0
 10
-1.072985761878015
 20
5.1334030162983382
 30
0.0
 40
0.0234812541910901
 50
157.8786780817135025
 51
218.3078935176922073
  0
ARC
  5
39D7
  8
0
 10
-1.073231146167823
 20
5.1335027629152981
 30
0.0
 40
0.0232163715052031
 50
93.4847910568193754
 51
157.8786780817121098
  0
ARC
  5
39D8
  8
0
 10
-1.073170811897044
 20
5.1325119903332981
 30
0.0
 40
0.0242089794507037
 50
42.7460331603323525
 51
93.4847910568136342
  0
ARC
  5
39D9
  8
0
 10
-1.07251178346583
 20
5.1331211053382608
 30
0.0
 40
0.0233115723176723
 50
352.309797187623019
 51
42.7460331603314216
  0
ARC
  5
39DA
  8
0
 10
-1.072600627414082
 20
5.1331331020422857
 30
0.0
 40
0.0234012225717067
 50
296.4607048357422059
 51
352.3097971876277938
  0
ARC
  5
39DB
  8
0
 10
-1.072721541158024
 20
5.133376034589257
 30
0.0
 40
0.0236725827674818
 50
217.8602238666755966
 51
296.4607048357424901
  0
ARC
  5
39DC
  8
0
 10
-1.072694872983964
 20
5.1490298956656906
 30
0.0
 40
0.0951293626435644
 50
50.8599309833852615
 51
110.5397474864755054
  0
ARC
  5
39DD
  8
0
 10
-1.072176108899511
 20
5.1491350875099817
 30
0.0
 40
0.0947209176757482
 50
0.1026218484183482
 51
51.0631486408825666
  0
ARC
  5
39DE
  8
0
 10
-1.070464668887632
 20
5.1492315226286101
 30
0.0
 40
0.0930093545508699
 50
291.240707227552889
 51
0.0451041254708175
  0
ARC
  5
39DF
  8
0
 10
-1.0712265098232061
 20
5.1511915343682162
 30
0.0
 40
0.0951122210778945
 50
214.7032766636561973
 51
291.2407072275527753
  0
ARC
  5
39E0
  8
0
 10
-1.0714965201132931
 20
5.1510045475334003
 30
0.0
 40
0.0947837859501335
 50
155.966420389111704
 51
214.7032766636581016
  0
ARC
  5
39E1
  8
0
 10
-1.0748041586705761
 20
5.152479526500545
 30
0.0
 40
0.0911621791549156
 50
110.0590188159440999
 51
155.9664203891124998
  0
ARC
  5
39E2
  8
0
 10
-1.071655724709939
 20
5.1464887061092126
 30
0.0
 40
0.0683612722615737
 50
142.7403140952438889
 51
182.2697788567309942
  0
ARC
  5
39E3
  8
0
 10
-1.074297402786988
 20
5.1484981896931963
 30
0.0
 40
0.0650421628423086
 50
114.8912197500962975
 51
142.7403140952438889
  0
ARC
  5
39E4
  8
0
 10
-1.0734882308252609
 20
5.1467542781958171
 30
0.0
 40
0.0669646577250933
 50
73.3396503210197324
 51
114.8912197500965959
  0
ARC
  5
39E5
  8
0
 10
-1.0736575138968081
 20
5.1461886063761462
 30
0.0
 40
0.0675551163315021
 50
40.5069955350157898
 51
73.3396503210201587
  0
ARC
  5
39E6
  8
0
 10
-1.075443341477766
 20
5.1446629884008033
 30
0.0
 40
0.0699038799116861
 50
15.0665672411678404
 51
40.506995535017623
  0
ARC
  5
39E7
  8
0
 10
-1.0824094708022249
 20
5.1427877425196833
 30
0.0
 40
0.0771179983526137
 50
342.0891145704512724
 51
15.0665672411665792
  0
ARC
  5
39E8
  8
0
 10
-1.0710476280652701
 20
5.139115583371197
 30
0.0
 40
0.0651774697549724
 50
297.6787828538548979
 51
342.0891145704512724
  0
ARC
  5
39E9
  8
0
 10
-1.0724996699493541
 20
5.1418838058309291
 30
0.0
 40
0.0683034066096931
 50
243.1925646978021121
 51
297.6787828538559211
  0
ARC
  5
39EA
  8
0
 10
-1.0736940803336981
 20
5.1395200374232699
 30
0.0
 40
0.065655007611945
 50
208.3494222455435931
 51
243.1925646978017994
  0
ARC
  5
39EB
  8
0
 10
-1.0690291539109189
 20
5.142037034410019
 30
0.0
 40
0.0709556502485733
 50
178.5914063378093886
 51
208.3494222455418026
  0
ARC
  5
39EC
  8
0
 10
-1.1129892018116461
 20
4.7198213572399039
 30
0.0
 40
0.0234812541910901
 50
157.8786780817135025
 51
218.3078935176922073
  0
ARC
  5
39ED
  8
0
 10
-1.113234586101455
 20
4.7199211038568647
 30
0.0
 40
0.0232163715052031
 50
93.4847910568193754
 51
157.8786780817121098
  0
ARC
  5
39EE
  8
0
 10
-1.1131742518306751
 20
4.7189303312748647
 30
0.0
 40
0.0242089794507037
 50
42.7460331603323525
 51
93.4847910568136342
  0
ARC
  5
39EF
  8
0
 10
-1.112515223399462
 20
4.7195394462798284
 30
0.0
 40
0.0233115723176723
 50
352.309797187623019
 51
42.7460331603314216
  0
ARC
  5
39F0
  8
0
 10
-1.1126040673477131
 20
4.7195514429838532
 30
0.0
 40
0.0234012225717067
 50
296.4607048357422059
 51
352.3097971876277938
  0
ARC
  5
39F1
  8
0
 10
-1.1127249810916551
 20
4.7197943755308236
 30
0.0
 40
0.0236725827674818
 50
217.8602238666755966
 51
296.4607048357424901
  0
ARC
  5
39F2
  8
0
 10
-1.1126983129175949
 20
4.7354482366072581
 30
0.0
 40
0.0951293626435644
 50
50.8599309833852615
 51
110.5397474864755054
  0
ARC
  5
39F3
  8
0
 10
-1.112179548833143
 20
4.7355534284515493
 30
0.0
 40
0.0947209176757482
 50
0.1026218484183482
 51
51.0631486408825666
  0
ARC
  5
39F4
  8
0
 10
-1.1104681088212629
 20
4.7356498635701767
 30
0.0
 40
0.0930093545508699
 50
291.240707227552889
 51
0.0451041254708175
  0
ARC
  5
39F5
  8
0
 10
-1.111229949756837
 20
4.7376098753097819
 30
0.0
 40
0.0951122210778945
 50
214.7032766636561973
 51
291.2407072275527753
  0
ARC
  5
39F6
  8
0
 10
-1.1114999600469251
 20
4.7374228884749661
 30
0.0
 40
0.0947837859501335
 50
155.966420389111704
 51
214.7032766636581016
  0
ARC
  5
39F7
  8
0
 10
-1.1148075986042081
 20
4.7388978674421116
 30
0.0
 40
0.0911621791549156
 50
110.0590188159440999
 51
155.9664203891124998
  0
ARC
  5
39F8
  8
0
 10
-1.1116591646435701
 20
4.7329070470507801
 30
0.0
 40
0.0683612722615737
 50
142.7403140952438889
 51
182.2697788567309942
  0
ARC
  5
39F9
  8
0
 10
-1.11430084272062
 20
4.734916530634762
 30
0.0
 40
0.0650421628423086
 50
114.8912197500962975
 51
142.7403140952438889
  0
ARC
  5
39FA
  8
0
 10
-1.1134916707588931
 20
4.7331726191373837
 30
0.0
 40
0.0669646577250933
 50
73.3396503210197324
 51
114.8912197500965959
  0
ARC
  5
39FB
  8
0
 10
-1.1136609538304389
 20
4.7326069473177119
 30
0.0
 40
0.0675551163315021
 50
40.5069955350157898
 51
73.3396503210201587
  0
ARC
  5
39FC
  8
0
 10
-1.1154467814113971
 20
4.731081329342369
 30
0.0
 40
0.0699038799116861
 50
15.0665672411678404
 51
40.506995535017623
  0
ARC
  5
39FD
  8
0
 10
-1.122412910735856
 20
4.729206083461249
 30
0.0
 40
0.0771179983526137
 50
342.0891145704512724
 51
15.0665672411665792
  0
ARC
  5
39FE
  8
0
 10
-1.111051067998901
 20
4.7255339243127628
 30
0.0
 40
0.0651774697549724
 50
297.6787828538548979
 51
342.0891145704512724
  0
ARC
  5
39FF
  8
0
 10
-1.1125031098829861
 20
4.7283021467724948
 30
0.0
 40
0.0683034066096931
 50
243.1925646978021121
 51
297.6787828538559211
  0
ARC
  5
3A00
  8
0
 10
-1.1136975202673289
 20
4.7259383783648374
 30
0.0
 40
0.065655007611945
 50
208.3494222455435931
 51
243.1925646978017994
  0
ARC
  5
3A01
  8
0
 10
-1.10903259384455
 20
4.7284553753515857
 30
0.0
 40
0.0709556502485733
 50
178.5914063378093886
 51
208.3494222455418026
  0
ARC
  5
3A02
  8
0
 10
-1.451343916115063
 20
4.4904122336414707
 30
0.0
 40
0.0234812541910901
 50
157.8786780817135025
 51
218.3078935176922073
  0
ARC
  5
3A03
  8
0
 10
-1.4515893004048721
 20
4.4905119802584323
 30
0.0
 40
0.0232163715052031
 50
93.4847910568193754
 51
157.8786780817121098
  0
ARC
  5
3A04
  8
0
 10
-1.451528966134092
 20
4.4895212076764324
 30
0.0
 40
0.0242089794507037
 50
42.7460331603323525
 51
93.4847910568136342
  0
ARC
  5
3A05
  8
0
 10
-1.4508699377028791
 20
4.4901303226813951
 30
0.0
 40
0.0233115723176723
 50
352.309797187623019
 51
42.7460331603314216
  0
ARC
  5
3A06
  8
0
 10
-1.45095878165113
 20
4.4901423193854191
 30
0.0
 40
0.0234012225717067
 50
296.4607048357422059
 51
352.3097971876277938
  0
ARC
  5
3A07
  8
0
 10
-1.451079695395072
 20
4.4903852519323912
 30
0.0
 40
0.0236725827674818
 50
217.8602238666755966
 51
296.4607048357424901
  0
ARC
  5
3A08
  8
0
 10
-1.451053027221012
 20
4.506039113008824
 30
0.0
 40
0.0951293626435644
 50
50.8599309833852615
 51
110.5397474864755054
  0
ARC
  5
3A09
  8
0
 10
-1.4505342631365601
 20
4.506144304853116
 30
0.0
 40
0.0947209176757482
 50
0.1026218484183482
 51
51.0631486408825666
  0
ARC
  5
3A0A
  8
0
 10
-1.44882282312468
 20
4.5062407399717443
 30
0.0
 40
0.0930093545508699
 50
291.240707227552889
 51
0.0451041254708175
  0
ARC
  5
3A0B
  8
0
 10
-1.4495846640602541
 20
4.5082007517113487
 30
0.0
 40
0.0951122210778945
 50
214.7032766636561973
 51
291.2407072275527753
  0
ARC
  5
3A0C
  8
0
 10
-1.449854674350342
 20
4.5080137648765328
 30
0.0
 40
0.0947837859501335
 50
155.966420389111704
 51
214.7032766636581016
  0
ARC
  5
3A0D
  8
0
 10
-1.453162312907625
 20
4.5094887438436793
 30
0.0
 40
0.0911621791549156
 50
110.0590188159440999
 51
155.9664203891124998
  0
ARC
  5
3A0E
  8
0
 10
-1.450013878946987
 20
4.503497923452346
 30
0.0
 40
0.0683612722615737
 50
142.7403140952438889
 51
182.2697788567309942
  0
ARC
  5
3A0F
  8
0
 10
-1.4526555570240369
 20
4.5055074070363288
 30
0.0
 40
0.0650421628423086
 50
114.8912197500962975
 51
142.7403140952438889
  0
ARC
  5
3A10
  8
0
 10
-1.45184638506231
 20
4.5037634955389514
 30
0.0
 40
0.0669646577250933
 50
73.3396503210197324
 51
114.8912197500965959
  0
ARC
  5
3A11
  8
0
 10
-1.4520156681338561
 20
4.5031978237192787
 30
0.0
 40
0.0675551163315021
 50
40.5069955350157898
 51
73.3396503210201587
  0
ARC
  5
3A12
  8
0
 10
-1.453801495714814
 20
4.5016722057439358
 30
0.0
 40
0.0699038799116861
 50
15.0665672411678404
 51
40.506995535017623
  0
ARC
  5
3A13
  8
0
 10
-1.4607676250392729
 20
4.4997969598628158
 30
0.0
 40
0.0771179983526137
 50
342.0891145704512724
 51
15.0665672411665792
  0
ARC
  5
3A14
  8
0
 10
-1.4494057823023181
 20
4.4961248007143304
 30
0.0
 40
0.0651774697549724
 50
297.6787828538548979
 51
342.0891145704512724
  0
ARC
  5
3A15
  8
0
 10
-1.450857824186403
 20
4.4988930231740616
 30
0.0
 40
0.0683034066096931
 50
243.1925646978021121
 51
297.6787828538559211
  0
ARC
  5
3A16
  8
0
 10
-1.4520522345707461
 20
4.4965292547664042
 30
0.0
 40
0.065655007611945
 50
208.3494222455435931
 51
243.1925646978017994
  0
ARC
  5
3A17
  8
0
 10
-1.447387308147968
 20
4.4990462517531533
 30
0.0
 40
0.0709556502485733
 50
178.5914063378093886
 51
208.3494222455418026
  0
ARC
  5
3A18
  8
0
 10
-1.8137326792754309
 20
4.2543044486426487
 30
0.0
 40
0.0234812541910901
 50
157.8786780817135025
 51
218.3078935176922073
  0
ARC
  5
3A19
  8
0
 10
-1.8139780635652401
 20
4.2544041952596103
 30
0.0
 40
0.0232163715052031
 50
93.4847910568193754
 51
157.8786780817121098
  0
ARC
  5
3A1A
  8
0
 10
-1.8139177292944599
 20
4.2534134226776104
 30
0.0
 40
0.0242089794507037
 50
42.7460331603323525
 51
93.4847910568136342
  0
ARC
  5
3A1B
  8
0
 10
-1.813258700863247
 20
4.2540225376825731
 30
0.0
 40
0.0233115723176723
 50
352.309797187623019
 51
42.7460331603314216
  0
ARC
  5
3A1C
  8
0
 10
-1.813347544811498
 20
4.2540345343865971
 30
0.0
 40
0.0234012225717067
 50
296.4607048357422059
 51
352.3097971876277938
  0
ARC
  5
3A1D
  8
0
 10
-1.8134684585554399
 20
4.2542774669335692
 30
0.0
 40
0.0236725827674818
 50
217.8602238666755966
 51
296.4607048357424901
  0
ARC
  5
3A1E
  8
0
 10
-1.81344179038138
 20
4.269931328010002
 30
0.0
 40
0.0951293626435644
 50
50.8599309833852615
 51
110.5397474864755054
  0
ARC
  5
3A1F
  8
0
 10
-1.812923026296928
 20
4.2700365198542931
 30
0.0
 40
0.0947209176757482
 50
0.1026218484183482
 51
51.0631486408825666
  0
ARC
  5
3A20
  8
0
 10
-1.811211586285048
 20
4.2701329549729223
 30
0.0
 40
0.0930093545508699
 50
291.240707227552889
 51
0.0451041254708175
  0
ARC
  5
3A21
  8
0
 10
-1.8119734272206229
 20
4.2720929667125267
 30
0.0
 40
0.0951122210778945
 50
214.7032766636561973
 51
291.2407072275527753
  0
ARC
  5
3A22
  8
0
 10
-1.8122434375107099
 20
4.2719059798777108
 30
0.0
 40
0.0947837859501335
 50
155.966420389111704
 51
214.7032766636581016
  0
ARC
  5
3A23
  8
0
 10
-1.8155510760679929
 20
4.2733809588448572
 30
0.0
 40
0.0911621791549156
 50
110.0590188159440999
 51
155.9664203891124998
  0
ARC
  5
3A24
  8
0
 10
-1.8124026421073549
 20
4.267390138453524
 30
0.0
 40
0.0683612722615737
 50
142.7403140952438889
 51
182.2697788567309942
  0
ARC
  5
3A25
  8
0
 10
-1.8150443201844051
 20
4.2693996220375068
 30
0.0
 40
0.0650421628423086
 50
114.8912197500962975
 51
142.7403140952438889
  0
ARC
  5
3A26
  8
0
 10
-1.814235148222678
 20
4.2676557105401294
 30
0.0
 40
0.0669646577250933
 50
73.3396503210197324
 51
114.8912197500965959
  0
ARC
  5
3A27
  8
0
 10
-1.814404431294224
 20
4.2670900387204567
 30
0.0
 40
0.0675551163315021
 50
40.5069955350157898
 51
73.3396503210201587
  0
ARC
  5
3A28
  8
0
 10
-1.8161902588751819
 20
4.2655644207451138
 30
0.0
 40
0.0699038799116861
 50
15.0665672411678404
 51
40.506995535017623
  0
ARC
  5
3A29
  8
0
 10
-1.8231563881996411
 20
4.2636891748639938
 30
0.0
 40
0.0771179983526137
 50
342.0891145704512724
 51
15.0665672411665792
  0
ARC
  5
3A2A
  8
0
 10
-1.8117945454626869
 20
4.2600170157155084
 30
0.0
 40
0.0651774697549724
 50
297.6787828538548979
 51
342.0891145704512724
  0
ARC
  5
3A2B
  8
0
 10
-1.8132465873467709
 20
4.2627852381752396
 30
0.0
 40
0.0683034066096931
 50
243.1925646978021121
 51
297.6787828538559211
  0
ARC
  5
3A2C
  8
0
 10
-1.814440997731114
 20
4.2604214697675822
 30
0.0
 40
0.065655007611945
 50
208.3494222455435931
 51
243.1925646978017994
  0
ARC
  5
3A2D
  8
0
 10
-1.809776071308336
 20
4.2629384667543313
 30
0.0
 40
0.0709556502485733
 50
178.5914063378093886
 51
208.3494222455418026
  0
ARC
  5
3A2E
  8
0
 10
-1.411279283811647
 20
4.0363307862399038
 30
0.0
 40
0.0234812541910901
 50
157.8786780817135025
 51
218.3078935176922073
  0
ARC
  5
3A2F
  8
0
 10
-1.4115246681014559
 20
4.0364305328568646
 30
0.0
 40
0.0232163715052031
 50
93.4847910568193754
 51
157.8786780817121098
  0
ARC
  5
3A30
  8
0
 10
-1.4114643338306749
 20
4.0354397602748646
 30
0.0
 40
0.0242089794507037
 50
42.7460331603323525
 51
93.4847910568136342
  0
ARC
  5
3A31
  8
0
 10
-1.4108053053994629
 20
4.0360488752798283
 30
0.0
 40
0.0233115723176723
 50
352.309797187623019
 51
42.7460331603314216
  0
ARC
  5
3A32
  8
0
 10
-1.4108941493477141
 20
4.0360608719838531
 30
0.0
 40
0.0234012225717067
 50
296.4607048357422059
 51
352.3097971876277938
  0
ARC
  5
3A33
  8
0
 10
-1.411015063091656
 20
4.0363038045308244
 30
0.0
 40
0.0236725827674818
 50
217.8602238666755966
 51
296.4607048357424901
  0
ARC
  5
3A34
  8
0
 10
-1.4109883949175941
 20
4.051957665607258
 30
0.0
 40
0.0951293626435644
 50
50.8599309833852615
 51
110.5397474864755054
  0
ARC
  5
3A35
  8
0
 10
-1.4104696308331439
 20
4.0520628574515491
 30
0.0
 40
0.0947209176757482
 50
0.1026218484183482
 51
51.0631486408825666
  0
ARC
  5
3A36
  8
0
 10
-1.4087581908212621
 20
4.0521592925701766
 30
0.0
 40
0.0930093545508699
 50
291.240707227552889
 51
0.0451041254708175
  0
ARC
  5
3A37
  8
0
 10
-1.409520031756837
 20
4.0541193043097818
 30
0.0
 40
0.0951122210778945
 50
214.7032766636561973
 51
291.2407072275527753
  0
ARC
  5
3A38
  8
0
 10
-1.409790042046924
 20
4.053932317474966
 30
0.0
 40
0.0947837859501335
 50
155.966420389111704
 51
214.7032766636581016
  0
ARC
  5
3A39
  8
0
 10
-1.413097680604209
 20
4.0554072964421124
 30
0.0
 40
0.0911621791549156
 50
110.0590188159440999
 51
155.9664203891124998
  0
ARC
  5
3A3A
  8
0
 10
-1.4099492466435699
 20
4.04941647605078
 30
0.0
 40
0.0683612722615737
 50
142.7403140952438889
 51
182.2697788567309942
  0
ARC
  5
3A3B
  8
0
 10
-1.412590924720621
 20
4.0514259596347619
 30
0.0
 40
0.0650421628423086
 50
114.8912197500962975
 51
142.7403140952438889
  0
ARC
  5
3A3C
  8
0
 10
-1.4117817527588941
 20
4.0496820481373836
 30
0.0
 40
0.0669646577250933
 50
73.3396503210197324
 51
114.8912197500965959
  0
ARC
  5
3A3D
  8
0
 10
-1.4119510358304399
 20
4.0491163763177118
 30
0.0
 40
0.0675551163315021
 50
40.5069955350157898
 51
73.3396503210201587
  0
ARC
  5
3A3E
  8
0
 10
-1.4137368634113969
 20
4.0475907583423689
 30
0.0
 40
0.0699038799116861
 50
15.0665672411678404
 51
40.506995535017623
  0
ARC
  5
3A3F
  8
0
 10
-1.420702992735857
 20
4.0457155124612489
 30
0.0
 40
0.0771179983526137
 50
342.0891145704512724
 51
15.0665672411665792
  0
ARC
  5
3A40
  8
0
 10
-1.409341149998901
 20
4.0420433533127627
 30
0.0
 40
0.0651774697549724
 50
297.6787828538548979
 51
342.0891145704512724
  0
ARC
  5
3A41
  8
0
 10
-1.410793191882987
 20
4.0448115757724947
 30
0.0
 40
0.0683034066096931
 50
243.1925646978021121
 51
297.6787828538559211
  0
ARC
  5
3A42
  8
0
 10
-1.4119876022673301
 20
4.0424478073648373
 30
0.0
 40
0.065655007611945
 50
208.3494222455435931
 51
243.1925646978017994
  0
ARC
  5
3A43
  8
0
 10
-1.4073226758445501
 20
4.0449648043515856
 30
0.0
 40
0.0709556502485733
 50
178.5914063378093886
 51
208.3494222455418026
  0
ARC
  5
3A44
  8
0
 10
-1.0729601352537359
 20
4.3083358409399821
 30
0.0
 40
0.0234812541910901
 50
157.8786780817135025
 51
218.3078935176922073
  0
ARC
  5
3A45
  8
0
 10
-1.073205519543545
 20
4.308435587556942
 30
0.0
 40
0.0232163715052031
 50
93.4847910568193754
 51
157.8786780817121098
  0
ARC
  5
3A46
  8
0
 10
-1.0731451852727649
 20
4.307444814974942
 30
0.0
 40
0.0242089794507037
 50
42.7460331603323525
 51
93.4847910568136342
  0
ARC
  5
3A47
  8
0
 10
-1.072486156841552
 20
4.3080539299799048
 30
0.0
 40
0.0233115723176723
 50
352.309797187623019
 51
42.7460331603314216
  0
ARC
  5
3A48
  8
0
 10
-1.0725750007898029
 20
4.3080659266839296
 30
0.0
 40
0.0234012225717067
 50
296.4607048357422059
 51
352.3097971876277938
  0
ARC
  5
3A49
  8
0
 10
-1.0726959145337449
 20
4.3083088592309009
 30
0.0
 40
0.0236725827674818
 50
217.8602238666755966
 51
296.4607048357424901
  0
ARC
  5
3A4A
  8
0
 10
-1.072669246359685
 20
4.3239627203073354
 30
0.0
 40
0.0951293626435644
 50
50.8599309833852615
 51
110.5397474864755054
  0
ARC
  5
3A4B
  8
0
 10
-1.072150482275233
 20
4.3240679121516257
 30
0.0
 40
0.0947209176757482
 50
0.1026218484183482
 51
51.0631486408825666
  0
ARC
  5
3A4C
  8
0
 10
-1.070439042263353
 20
4.324164347270254
 30
0.0
 40
0.0930093545508699
 50
291.240707227552889
 51
0.0451041254708175
  0
ARC
  5
3A4D
  8
0
 10
-1.071200883198927
 20
4.3261243590098601
 30
0.0
 40
0.0951122210778945
 50
214.7032766636561973
 51
291.2407072275527753
  0
ARC
  5
3A4E
  8
0
 10
-1.0714708934890149
 20
4.3259373721750443
 30
0.0
 40
0.0947837859501335
 50
155.966420389111704
 51
214.7032766636581016
  0
ARC
  5
3A4F
  8
0
 10
-1.0747785320462979
 20
4.3274123511421889
 30
0.0
 40
0.0911621791549156
 50
110.0590188159440999
 51
155.9664203891124998
  0
ARC
  5
3A50
  8
0
 10
-1.0716300980856599
 20
4.3214215307508574
 30
0.0
 40
0.0683612722615737
 50
142.7403140952438889
 51
182.2697788567309942
  0
ARC
  5
3A51
  8
0
 10
-1.0742717761627101
 20
4.3234310143348402
 30
0.0
 40
0.0650421628423086
 50
114.8912197500962975
 51
142.7403140952438889
  0
ARC
  5
3A52
  8
0
 10
-1.0734626042009829
 20
4.321687102837461
 30
0.0
 40
0.0669646577250933
 50
73.3396503210197324
 51
114.8912197500965959
  0
ARC
  5
3A53
  8
0
 10
-1.073631887272529
 20
4.3211214310177901
 30
0.0
 40
0.0675551163315021
 50
40.5069955350157898
 51
73.3396503210201587
  0
ARC
  5
3A54
  8
0
 10
-1.0754177148534869
 20
4.3195958130424472
 30
0.0
 40
0.0699038799116861
 50
15.0665672411678404
 51
40.506995535017623
  0
ARC
  5
3A55
  8
0
 10
-1.0823838441779461
 20
4.3177205671613272
 30
0.0
 40
0.0771179983526137
 50
342.0891145704512724
 51
15.0665672411665792
  0
ARC
  5
3A56
  8
0
 10
-1.071022001440991
 20
4.3140484080128401
 30
0.0
 40
0.0651774697549724
 50
297.6787828538548979
 51
342.0891145704512724
  0
ARC
  5
3A57
  8
0
 10
-1.0724740433250759
 20
4.316816630472573
 30
0.0
 40
0.0683034066096931
 50
243.1925646978021121
 51
297.6787828538559211
  0
ARC
  5
3A58
  8
0
 10
-1.073668453709419
 20
4.3144528620649139
 30
0.0
 40
0.065655007611945
 50
208.3494222455435931
 51
243.1925646978017994
  0
ARC
  5
3A59
  8
0
 10
-1.0690035272866401
 20
4.316969859051663
 30
0.0
 40
0.0709556502485733
 50
178.5914063378093886
 51
208.3494222455418026
  0
ARC
  5
3A5A
  8
0
 10
-0.9362145995718545
 20
3.9092206533971341
 30
0.0
 40
0.0234812541910901
 50
157.8786780817135025
 51
218.3078935176922073
  0
ARC
  5
3A5B
  8
0
 10
-0.936459983861663
 20
3.9093204000140949
 30
0.0
 40
0.0232163715052031
 50
93.4847910568193754
 51
157.8786780817121098
  0
ARC
  5
3A5C
  8
0
 10
-0.9363996495908835
 20
3.9083296274320949
 30
0.0
 40
0.0242089794507037
 50
42.7460331603323525
 51
93.4847910568136342
  0
ARC
  5
3A5D
  8
0
 10
-0.93574062115967
 20
3.9089387424370581
 30
0.0
 40
0.0233115723176723
 50
352.309797187623019
 51
42.7460331603314216
  0
ARC
  5
3A5E
  8
0
 10
-0.9358294651079216
 20
3.9089507391410829
 30
0.0
 40
0.0234012225717067
 50
296.4607048357422059
 51
352.3097971876277938
  0
ARC
  5
3A5F
  8
0
 10
-0.9359503788518633
 20
3.9091936716880542
 30
0.0
 40
0.0236725827674818
 50
217.8602238666755966
 51
296.4607048357424901
  0
ARC
  5
3A60
  8
0
 10
-0.9359237106778032
 20
3.9248475327644878
 30
0.0
 40
0.0951293626435644
 50
50.8599309833852615
 51
110.5397474864755054
  0
ARC
  5
3A61
  8
0
 10
-0.935404946593351
 20
3.924952724608779
 30
0.0
 40
0.0947209176757482
 50
0.1026218484183482
 51
51.0631486408825666
  0
ARC
  5
3A62
  8
0
 10
-0.9336935065814714
 20
3.9250491597274069
 30
0.0
 40
0.0930093545508699
 50
291.240707227552889
 51
0.0451041254709193
  0
ARC
  5
3A63
  8
0
 10
-0.9344553475170457
 20
3.927009171467013
 30
0.0
 40
0.0951122210778945
 50
214.7032766636561973
 51
291.2407072275527753
  0
ARC
  5
3A64
  8
0
 10
-0.9347253578071331
 20
3.9268221846321971
 30
0.0
 40
0.0947837859501335
 50
155.966420389111704
 51
214.7032766636581016
  0
ARC
  5
3A65
  8
0
 10
-0.9380329963644161
 20
3.9282971635993418
 30
0.0
 40
0.0911621791549156
 50
110.0590188159440999
 51
155.9664203891124998
  0
ARC
  5
3A66
  8
0
 10
-0.9348845624037785
 20
3.9223063432080099
 30
0.0
 40
0.0683612722615737
 50
142.7403140952438889
 51
182.2697788567309942
  0
ARC
  5
3A67
  8
0
 10
-0.9375262404808278
 20
3.9243158267919931
 30
0.0
 40
0.0650421628423086
 50
114.8912197500962975
 51
142.7403140952438889
  0
ARC
  5
3A68
  8
0
 10
-0.9367170685191009
 20
3.9225719152946139
 30
0.0
 40
0.0669646577250933
 50
73.3396503210197324
 51
114.8912197500965959
  0
ARC
  5
3A69
  8
0
 10
-0.9368863515906471
 20
3.9220062434749421
 30
0.0
 40
0.0675551163315021
 50
40.5069955350157898
 51
73.3396503210201587
  0
ARC
  5
3A6A
  8
0
 10
-0.9386721791716055
 20
3.9204806254996001
 30
0.0
 40
0.0699038799116861
 50
15.0665672411678404
 51
40.506995535017623
  0
ARC
  5
3A6B
  8
0
 10
-0.9456383084960645
 20
3.9186053796184801
 30
0.0
 40
0.0771179983526137
 50
342.0891145704512724
 51
15.0665672411665792
  0
ARC
  5
3A6C
  8
0
 10
-0.9342764657591096
 20
3.9149332204699929
 30
0.0
 40
0.0651774697549724
 50
297.6787828538548979
 51
342.0891145704512724
  0
ARC
  5
3A6D
  8
0
 10
-0.9357285076431939
 20
3.917701442929725
 30
0.0
 40
0.0683034066096931
 50
243.1925646978021121
 51
297.6787828538559211
  0
ARC
  5
3A6E
  8
0
 10
-0.9369229180275372
 20
3.9153376745220672
 30
0.0
 40
0.065655007611945
 50
208.3494222455435931
 51
243.1925646978017994
  0
ARC
  5
3A6F
  8
0
 10
-0.9322579916047588
 20
3.9178546715088158
 30
0.0
 40
0.0709556502485733
 50
178.5914063378093886
 51
208.3494222455418026
  0
ARC
  5
3A70
  8
0
 10
-1.314210510797152
 20
3.58944845769674
 30
0.0
 40
0.0234812541910901
 50
157.8786780817135025
 51
218.3078935176922073
  0
ARC
  5
3A71
  8
0
 10
-1.3144558950869609
 20
3.5895482043136999
 30
0.0
 40
0.0232163715052031
 50
93.4847910568193754
 51
157.8786780817121098
  0
ARC
  5
3A72
  8
0
 10
-1.314395560816181
 20
3.5885574317316999
 30
0.0
 40
0.0242089794507037
 50
42.7460331603323525
 51
93.4847910568136342
  0
ARC
  5
3A73
  8
0
 10
-1.3137365323849679
 20
3.5891665467366631
 30
0.0
 40
0.0233115723176723
 50
352.309797187623019
 51
42.7460331603314216
  0
ARC
  5
3A74
  8
0
 10
-1.3138253763332191
 20
3.589178543440688
 30
0.0
 40
0.0234012225717067
 50
296.4607048357422059
 51
352.3097971876277938
  0
ARC
  5
3A75
  8
0
 10
-1.313946290077161
 20
3.5894214759876588
 30
0.0
 40
0.0236725827674818
 50
217.8602238666755966
 51
296.4607048357424901
  0
ARC
  5
3A76
  8
0
 10
-1.3139196219031011
 20
3.6050753370640929
 30
0.0
 40
0.0951293626435644
 50
50.8599309833852615
 51
110.5397474864755054
  0
ARC
  5
3A77
  8
0
 10
-1.3134008578186489
 20
3.605180528908384
 30
0.0
 40
0.0947209176757482
 50
0.1026218484183482
 51
51.0631486408825666
  0
ARC
  5
3A78
  8
0
 10
-1.3116894178067691
 20
3.6052769640270119
 30
0.0
 40
0.0930093545508699
 50
291.240707227552889
 51
0.0451041254709193
  0
ARC
  5
3A79
  8
0
 10
-1.3124512587423429
 20
3.6072369757666181
 30
0.0
 40
0.0951122210778945
 50
214.7032766636561973
 51
291.2407072275527753
  0
ARC
  5
3A7A
  8
0
 10
-1.312721269032431
 20
3.6070499889318022
 30
0.0
 40
0.0947837859501335
 50
155.966420389111704
 51
214.7032766636581016
  0
ARC
  5
3A7B
  8
0
 10
-1.316028907589714
 20
3.6085249678989468
 30
0.0
 40
0.0911621791549156
 50
110.0590188159440999
 51
155.9664203891124998
  0
ARC
  5
3A7C
  8
0
 10
-1.312880473629076
 20
3.6025341475076149
 30
0.0
 40
0.0683612722615737
 50
142.7403140952438889
 51
182.2697788567309942
  0
ARC
  5
3A7D
  8
0
 10
-1.3155221517061251
 20
3.6045436310915981
 30
0.0
 40
0.0650421628423086
 50
114.8912197500962975
 51
142.7403140952438889
  0
ARC
  5
3A7E
  8
0
 10
-1.314712979744399
 20
3.602799719594219
 30
0.0
 40
0.0669646577250933
 50
73.3396503210197324
 51
114.8912197500965959
  0
ARC
  5
3A7F
  8
0
 10
-1.3148822628159449
 20
3.602234047774548
 30
0.0
 40
0.0675551163315021
 50
40.5069955350157898
 51
73.3396503210201587
  0
ARC
  5
3A80
  8
0
 10
-1.316668090396903
 20
3.6007084297992051
 30
0.0
 40
0.0699038799116861
 50
15.0665672411678404
 51
40.506995535017623
  0
ARC
  5
3A81
  8
0
 10
-1.323634219721362
 20
3.5988331839180852
 30
0.0
 40
0.0771179983526137
 50
342.0891145704512724
 51
15.0665672411665792
  0
ARC
  5
3A82
  8
0
 10
-1.3122723769844069
 20
3.595161024769598
 30
0.0
 40
0.0651774697549724
 50
297.6787828538548979
 51
342.0891145704512724
  0
ARC
  5
3A83
  8
0
 10
-1.313724418868492
 20
3.5979292472293301
 30
0.0
 40
0.0683034066096931
 50
243.1925646978021121
 51
297.6787828538559211
  0
ARC
  5
3A84
  8
0
 10
-1.3149188292528351
 20
3.5955654788216722
 30
0.0
 40
0.065655007611945
 50
208.3494222455435931
 51
243.1925646978017994
  0
ARC
  5
3A85
  8
0
 10
-1.3102539028300559
 20
3.5980824758084209
 30
0.0
 40
0.0709556502485733
 50
178.5914063378093886
 51
208.3494222455418026
  0
ARC
  5
3A86
  8
0
 10
-1.784718535616292
 20
3.7569784487722648
 30
0.0
 40
0.0234812541910901
 50
157.8786780817135025
 51
218.3078935176922073
  0
ARC
  5
3A87
  8
0
 10
-1.7849639199061
 20
3.757078195389226
 30
0.0
 40
0.0232163715052031
 50
93.4847910568193754
 51
157.8786780817121098
  0
ARC
  5
3A88
  8
0
 10
-1.784903585635321
 20
3.7560874228072261
 30
0.0
 40
0.0242089794507037
 50
42.7460331603323525
 51
93.4847910568136342
  0
ARC
  5
3A89
  8
0
 10
-1.784244557204107
 20
3.7566965378121888
 30
0.0
 40
0.0233115723176723
 50
352.309797187623019
 51
42.7460331603314216
  0
ARC
  5
3A8A
  8
0
 10
-1.7843334011523591
 20
3.7567085345162141
 30
0.0
 40
0.0234012225717067
 50
296.4607048357422059
 51
352.3097971876277938
  0
ARC
  5
3A8B
  8
0
 10
-1.7844543148962999
 20
3.7569514670631849
 30
0.0
 40
0.0236725827674818
 50
217.8602238666755966
 51
296.4607048357424901
  0
ARC
  5
3A8C
  8
0
 10
-1.78442764672224
 20
3.772605328139619
 30
0.0
 40
0.0951293626435644
 50
50.8599309833852615
 51
110.5397474864755054
  0
ARC
  5
3A8D
  8
0
 10
-1.783908882637788
 20
3.7727105199839102
 30
0.0
 40
0.0947209176757482
 50
0.1026218484183482
 51
51.0631486408825666
  0
ARC
  5
3A8E
  8
0
 10
-1.782197442625908
 20
3.7728069551025381
 30
0.0
 40
0.0930093545508699
 50
291.240707227552889
 51
0.0451041254709193
  0
ARC
  5
3A8F
  8
0
 10
-1.7829592835614829
 20
3.7747669668421429
 30
0.0
 40
0.0951122210778945
 50
214.7032766636561973
 51
291.2407072275527753
  0
ARC
  5
3A90
  8
0
 10
-1.7832292938515699
 20
3.774579980007327
 30
0.0
 40
0.0947837859501335
 50
155.966420389111704
 51
214.7032766636581016
  0
ARC
  5
3A91
  8
0
 10
-1.7865369324088529
 20
3.776054958974473
 30
0.0
 40
0.0911621791549156
 50
110.0590188159440999
 51
155.9664203891124998
  0
ARC
  5
3A92
  8
0
 10
-1.783388498448216
 20
3.770064138583141
 30
0.0
 40
0.0683612722615737
 50
142.7403140952438889
 51
182.2697788567309942
  0
ARC
  5
3A93
  8
0
 10
-1.7860301765252651
 20
3.7720736221671229
 30
0.0
 40
0.0650421628423086
 50
114.8912197500962975
 51
142.7403140952438889
  0
ARC
  5
3A94
  8
0
 10
-1.7852210045635379
 20
3.7703297106697451
 30
0.0
 40
0.0669646577250933
 50
73.3396503210197324
 51
114.8912197500965959
  0
ARC
  5
3A95
  8
0
 10
-1.785390287635084
 20
3.7697640388500728
 30
0.0
 40
0.0675551163315021
 50
40.5069955350157898
 51
73.3396503210201587
  0
ARC
  5
3A96
  8
0
 10
-1.787176115216043
 20
3.7682384208747299
 30
0.0
 40
0.0699038799116861
 50
15.0665672411678404
 51
40.506995535017623
  0
ARC
  5
3A97
  8
0
 10
-1.7941422445405011
 20
3.76636317499361
 30
0.0
 40
0.0771179983526137
 50
342.0891145704512724
 51
15.0665672411665792
  0
ARC
  5
3A98
  8
0
 10
-1.7827804018035469
 20
3.7626910158451241
 30
0.0
 40
0.0651774697549724
 50
297.6787828538548979
 51
342.0891145704512724
  0
ARC
  5
3A99
  8
0
 10
-1.7842324436876309
 20
3.7654592383048562
 30
0.0
 40
0.0683034066096931
 50
243.1925646978021121
 51
297.6787828538559211
  0
ARC
  5
3A9A
  8
0
 10
-1.785426854071974
 20
3.7630954698971979
 30
0.0
 40
0.065655007611945
 50
208.3494222455435931
 51
243.1925646978017994
  0
ARC
  5
3A9B
  8
0
 10
-1.7807619276491959
 20
3.765612466883947
 30
0.0
 40
0.0709556502485733
 50
178.5914063378093886
 51
208.3494222455418026
  0
ARC
  5
3A9C
  8
0
 10
-1.7025982851056081
 20
3.2655589356154802
 30
0.0
 40
0.0234812541910901
 50
157.8786780817135025
 51
218.3078935176922073
  0
ARC
  5
3A9D
  8
0
 10
-1.7028436693954161
 20
3.2656586822324409
 30
0.0
 40
0.0232163715052031
 50
93.4847910568193754
 51
157.8786780817121098
  0
ARC
  5
3A9E
  8
0
 10
-1.7027833351246371
 20
3.264667909650441
 30
0.0
 40
0.0242089794507037
 50
42.7460331603323525
 51
93.4847910568136342
  0
ARC
  5
3A9F
  8
0
 10
-1.7021243066934231
 20
3.2652770246554041
 30
0.0
 40
0.0233115723176723
 50
352.309797187623019
 51
42.7460331603314216
  0
ARC
  5
3AA0
  8
0
 10
-1.7022131506416751
 20
3.265289021359429
 30
0.0
 40
0.0234012225717067
 50
296.4607048357422059
 51
352.3097971876277938
  0
ARC
  5
3AA1
  8
0
 10
-1.702334064385616
 20
3.2655319539063998
 30
0.0
 40
0.0236725827674818
 50
217.8602238666755966
 51
296.4607048357424901
  0
ARC
  5
3AA2
  8
0
 10
-1.702307396211556
 20
3.281185814982833
 30
0.0
 40
0.0951293626435644
 50
50.8599309833852615
 51
110.5397474864755054
  0
ARC
  5
3AA3
  8
0
 10
-1.7017886321271041
 20
3.281291006827125
 30
0.0
 40
0.0947209176757482
 50
0.1026218484183482
 51
51.0631486408825666
  0
ARC
  5
3AA4
  8
0
 10
-1.700077192115224
 20
3.2813874419457529
 30
0.0
 40
0.0930093545508699
 50
291.240707227552889
 51
0.0451041254709193
  0
ARC
  5
3AA5
  8
0
 10
-1.700839033050799
 20
3.2833474536853582
 30
0.0
 40
0.0951122210778945
 50
214.7032766636561973
 51
291.2407072275527753
  0
ARC
  5
3AA6
  8
0
 10
-1.701109043340886
 20
3.2831604668505419
 30
0.0
 40
0.0947837859501335
 50
155.966420389111704
 51
214.7032766636581016
  0
ARC
  5
3AA7
  8
0
 10
-1.704416681898169
 20
3.2846354458176878
 30
0.0
 40
0.0911621791549156
 50
110.0590188159440999
 51
155.9664203891124998
  0
ARC
  5
3AA8
  8
0
 10
-1.7012682479375321
 20
3.278644625426355
 30
0.0
 40
0.0683612722615737
 50
142.7403140952438889
 51
182.2697788567309942
  0
ARC
  5
3AA9
  8
0
 10
-1.7039099260145809
 20
3.2806541090103378
 30
0.0
 40
0.0650421628423086
 50
114.8912197500962975
 51
142.7403140952438889
  0
ARC
  5
3AAA
  8
0
 10
-1.703100754052854
 20
3.27891019751296
 30
0.0
 40
0.0669646577250933
 50
73.3396503210197324
 51
114.8912197500965959
  0
ARC
  5
3AAB
  8
0
 10
-1.7032700371244001
 20
3.2783445256932882
 30
0.0
 40
0.0675551163315021
 50
40.5069955350157898
 51
73.3396503210201587
  0
ARC
  5
3AAC
  8
0
 10
-1.7050558647053591
 20
3.2768189077179448
 30
0.0
 40
0.0699038799116861
 50
15.0665672411678404
 51
40.506995535017623
  0
ARC
  5
3AAD
  8
0
 10
-1.712021994029818
 20
3.2749436618368248
 30
0.0
 40
0.0771179983526137
 50
342.0891145704512724
 51
15.0665672411665792
  0
ARC
  5
3AAE
  8
0
 10
-1.700660151292863
 20
3.271271502688339
 30
0.0
 40
0.0651774697549724
 50
297.6787828538548979
 51
342.0891145704512724
  0
ARC
  5
3AAF
  8
0
 10
-1.702112193176947
 20
3.2740397251480711
 30
0.0
 40
0.0683034066096931
 50
243.1925646978021121
 51
297.6787828538559211
  0
ARC
  5
3AB0
  8
0
 10
-1.70330660356129
 20
3.2716759567404128
 30
0.0
 40
0.065655007611945
 50
208.3494222455435931
 51
243.1925646978017994
  0
ARC
  5
3AB1
  8
0
 10
-1.698641677138512
 20
3.2741929537271619
 30
0.0
 40
0.0709556502485733
 50
178.5914063378093886
 51
208.3494222455418026
  0
ARC
  5
3AB2
  8
0
 10
-1.388481806794942
 20
2.9437645614047261
 30
0.0
 40
0.0234812541910901
 50
157.8786780817135025
 51
218.3078935176922073
  0
ARC
  5
3AB3
  8
0
 10
-1.3887271910847501
 20
2.9438643080216869
 30
0.0
 40
0.0232163715052031
 50
93.4847910568193754
 51
157.8786780817121098
  0
ARC
  5
3AB4
  8
0
 10
-1.3886668568139711
 20
2.9428735354396869
 30
0.0
 40
0.0242089794507037
 50
42.7460331603323525
 51
93.4847910568136342
  0
ARC
  5
3AB5
  8
0
 10
-1.388007828382757
 20
2.9434826504446501
 30
0.0
 40
0.0233115723176723
 50
352.309797187623019
 51
42.7460331603314216
  0
ARC
  5
3AB6
  8
0
 10
-1.3880966723310091
 20
2.9434946471486749
 30
0.0
 40
0.0234012225717067
 50
296.4607048357422059
 51
352.3097971876277938
  0
ARC
  5
3AB7
  8
0
 10
-1.3882175860749499
 20
2.9437375796956462
 30
0.0
 40
0.0236725827674818
 50
217.8602238666755966
 51
296.4607048357424901
  0
ARC
  5
3AB8
  8
0
 10
-1.38819091790089
 20
2.9593914407720798
 30
0.0
 40
0.0951293626435644
 50
50.8599309833852615
 51
110.5397474864755054
  0
ARC
  5
3AB9
  8
0
 10
-1.387672153816438
 20
2.959496632616371
 30
0.0
 40
0.0947209176757482
 50
0.1026218484183482
 51
51.0631486408825666
  0
ARC
  5
3ABA
  8
0
 10
-1.385960713804558
 20
2.9595930677349989
 30
0.0
 40
0.0930093545508699
 50
291.240707227552889
 51
0.0451041254709193
  0
ARC
  5
3ABB
  8
0
 10
-1.386722554740133
 20
2.9615530794746041
 30
0.0
 40
0.0951122210778945
 50
214.7032766636561973
 51
291.2407072275527753
  0
ARC
  5
3ABC
  8
0
 10
-1.3869925650302199
 20
2.9613660926397891
 30
0.0
 40
0.0947837859501335
 50
155.966420389111704
 51
214.7032766636581016
  0
ARC
  5
3ABD
  8
0
 10
-1.3903002035875029
 20
2.9628410716069342
 30
0.0
 40
0.0911621791549156
 50
110.0590188159440999
 51
155.9664203891124998
  0
ARC
  5
3ABE
  8
0
 10
-1.387151769626866
 20
2.9568502512156019
 30
0.0
 40
0.0683612722615737
 50
142.7403140952438889
 51
182.2697788567309942
  0
ARC
  5
3ABF
  8
0
 10
-1.3897934477039151
 20
2.9588597347995851
 30
0.0
 40
0.0650421628423086
 50
114.8912197500962975
 51
142.7403140952438889
  0
ARC
  5
3AC0
  8
0
 10
-1.388984275742188
 20
2.9571158233022059
 30
0.0
 40
0.0669646577250933
 50
73.3396503210197324
 51
114.8912197500965959
  0
ARC
  5
3AC1
  8
0
 10
-1.389153558813734
 20
2.9565501514825341
 30
0.0
 40
0.0675551163315021
 50
40.5069955350157898
 51
73.3396503210201587
  0
ARC
  5
3AC2
  8
0
 10
-1.3909393863946931
 20
2.9550245335071921
 30
0.0
 40
0.0699038799116861
 50
15.0665672411678404
 51
40.506995535017623
  0
ARC
  5
3AC3
  8
0
 10
-1.397905515719152
 20
2.9531492876260721
 30
0.0
 40
0.0771179983526137
 50
342.0891145704512724
 51
15.0665672411665792
  0
ARC
  5
3AC4
  8
0
 10
-1.3865436729821969
 20
2.9494771284775849
 30
0.0
 40
0.0651774697549724
 50
297.6787828538548979
 51
342.0891145704512724
  0
ARC
  5
3AC5
  8
0
 10
-1.3879957148662809
 20
2.952245350937317
 30
0.0
 40
0.0683034066096931
 50
243.1925646978021121
 51
297.6787828538559211
  0
ARC
  5
3AC6
  8
0
 10
-1.389190125250624
 20
2.9498815825296592
 30
0.0
 40
0.065655007611945
 50
208.3494222455435931
 51
243.1925646978017994
  0
ARC
  5
3AC7
  8
0
 10
-1.384525198827846
 20
2.9523985795164078
 30
0.0
 40
0.0709556502485733
 50
178.5914063378093886
 51
208.3494222455418026
  0
ARC
  5
3AC8
  8
0
 10
-1.02235769620401
 20
3.2710088598962761
 30
0.0
 40
0.0234812541910901
 50
157.8786780817135025
 51
218.3078935176922073
  0
ARC
  5
3AC9
  8
0
 10
-1.0226030804938191
 20
3.2711086065132369
 30
0.0
 40
0.0232163715052031
 50
93.4847910568193754
 51
157.8786780817121098
  0
ARC
  5
3ACA
  8
0
 10
-1.022542746223039
 20
3.2701178339312369
 30
0.0
 40
0.0242089794507037
 50
42.7460331603323525
 51
93.4847910568136342
  0
ARC
  5
3ACB
  8
0
 10
-1.0218837177918261
 20
3.2707269489362001
 30
0.0
 40
0.0233115723176723
 50
352.309797187623019
 51
42.7460331603314216
  0
ARC
  5
3ACC
  8
0
 10
-1.021972561740077
 20
3.2707389456402249
 30
0.0
 40
0.0234012225717067
 50
296.4607048357422059
 51
352.3097971876277938
  0
ARC
  5
3ACD
  8
0
 10
-1.022093475484019
 20
3.2709818781871962
 30
0.0
 40
0.0236725827674818
 50
217.8602238666755966
 51
296.4607048357424901
  0
ARC
  5
3ACE
  8
0
 10
-1.022066807309959
 20
3.2866357392636298
 30
0.0
 40
0.0951293626435644
 50
50.8599309833852615
 51
110.5397474864755054
  0
ARC
  5
3ACF
  8
0
 10
-1.0215480432255071
 20
3.286740931107921
 30
0.0
 40
0.0947209176757482
 50
0.1026218484183482
 51
51.0631486408825666
  0
ARC
  5
3AD0
  8
0
 10
-1.019836603213627
 20
3.2868373662265489
 30
0.0
 40
0.0930093545508699
 50
291.240707227552889
 51
0.0451041254709193
  0
ARC
  5
3AD1
  8
0
 10
-1.0205984441492011
 20
3.288797377966155
 30
0.0
 40
0.0951122210778945
 50
214.7032766636561973
 51
291.2407072275527753
  0
ARC
  5
3AD2
  8
0
 10
-1.020868454439289
 20
3.2886103911313391
 30
0.0
 40
0.0947837859501335
 50
155.966420389111704
 51
214.7032766636581016
  0
ARC
  5
3AD3
  8
0
 10
-1.024176092996572
 20
3.2900853700984838
 30
0.0
 40
0.0911621791549156
 50
110.0590188159440999
 51
155.9664203891124998
  0
ARC
  5
3AD4
  8
0
 10
-1.021027659035934
 20
3.2840945497071519
 30
0.0
 40
0.0683612722615737
 50
142.7403140952438889
 51
182.2697788567309942
  0
ARC
  5
3AD5
  8
0
 10
-1.0236693371129839
 20
3.2861040332911351
 30
0.0
 40
0.0650421628423086
 50
114.8912197500962975
 51
142.7403140952438889
  0
ARC
  5
3AD6
  8
0
 10
-1.022860165151257
 20
3.2843601217937559
 30
0.0
 40
0.0669646577250933
 50
73.3396503210197324
 51
114.8912197500965959
  0
ARC
  5
3AD7
  8
0
 10
-1.0230294482228031
 20
3.2837944499740841
 30
0.0
 40
0.0675551163315021
 50
40.5069955350157898
 51
73.3396503210201587
  0
ARC
  5
3AD8
  8
0
 10
-1.024815275803761
 20
3.2822688319987421
 30
0.0
 40
0.0699038799116861
 50
15.0665672411678404
 51
40.506995535017623
  0
ARC
  5
3AD9
  8
0
 10
-1.0317814051282199
 20
3.2803935861176221
 30
0.0
 40
0.0771179983526137
 50
342.0891145704512724
 51
15.0665672411665792
  0
ARC
  5
3ADA
  8
0
 10
-1.0204195623912651
 20
3.2767214269691349
 30
0.0
 40
0.0651774697549724
 50
297.6787828538548979
 51
342.0891145704512724
  0
ARC
  5
3ADB
  8
0
 10
-1.02187160427535
 20
3.279489649428867
 30
0.0
 40
0.0683034066096931
 50
243.1925646978021121
 51
297.6787828538559211
  0
ARC
  5
3ADC
  8
0
 10
-1.023066014659693
 20
3.2771258810212092
 30
0.0
 40
0.065655007611945
 50
208.3494222455435931
 51
243.1925646978017994
  0
ARC
  5
3ADD
  8
0
 10
-1.0184010882369141
 20
3.2796428780079578
 30
0.0
 40
0.0709556502485733
 50
178.5914063378093886
 51
208.3494222455418026
  0
ARC
  5
3ADE
  8
0
 10
-0.9167490428911546
 20
2.838526920641022
 30
0.0
 40
0.0234812541910901
 50
157.8786780817135025
 51
218.3078935176922073
  0
ARC
  5
3ADF
  8
0
 10
-0.916994427180963
 20
2.8386266672579832
 30
0.0
 40
0.0232163715052031
 50
93.4847910568193754
 51
157.8786780817121098
  0
ARC
  5
3AE0
  8
0
 10
-0.9169340929101835
 20
2.8376358946759832
 30
0.0
 40
0.0242089794507037
 50
42.7460331603323525
 51
93.4847910568136342
  0
ARC
  5
3AE1
  8
0
 10
-0.9162750644789699
 20
2.838245009680946
 30
0.0
 40
0.0233115723176723
 50
352.309797187623019
 51
42.7460331603314216
  0
ARC
  5
3AE2
  8
0
 10
-0.9163639084272215
 20
2.8382570063849708
 30
0.0
 40
0.0234012225717067
 50
296.4607048357422059
 51
352.3097971876277938
  0
ARC
  5
3AE3
  8
0
 10
-0.9164848221711633
 20
2.8384999389319421
 30
0.0
 40
0.0236725827674818
 50
217.8602238666755966
 51
296.4607048357424901
  0
ARC
  5
3AE4
  8
0
 10
-0.9164581539971031
 20
2.8541538000083762
 30
0.0
 40
0.0951293626435644
 50
50.8599309833852615
 51
110.5397474864755054
  0
ARC
  5
3AE5
  8
0
 10
-0.9159393899126509
 20
2.8542589918526668
 30
0.0
 40
0.0947209176757482
 50
0.1026218484183482
 51
51.0631486408825666
  0
ARC
  5
3AE6
  8
0
 10
-0.9142279499007713
 20
2.8543554269712952
 30
0.0
 40
0.0930093545508699
 50
291.240707227552889
 51
0.0451041254709193
  0
ARC
  5
3AE7
  8
0
 10
-0.9149897908363456
 20
2.8563154387109
 30
0.0
 40
0.0951122210778945
 50
214.7032766636561973
 51
291.2407072275527753
  0
ARC
  5
3AE8
  8
0
 10
-0.9152598011264331
 20
2.8561284518760841
 30
0.0
 40
0.0947837859501335
 50
155.966420389111704
 51
214.7032766636581016
  0
ARC
  5
3AE9
  8
0
 10
-0.9185674396837161
 20
2.8576034308432301
 30
0.0
 40
0.0911621791549156
 50
110.0590188159440999
 51
155.9664203891124998
  0
ARC
  5
3AEA
  8
0
 10
-0.9154190057230785
 20
2.8516126104518982
 30
0.0
 40
0.0683612722615737
 50
142.7403140952438889
 51
182.2697788567309942
  0
ARC
  5
3AEB
  8
0
 10
-0.9180606838001278
 20
2.8536220940358801
 30
0.0
 40
0.0650421628423086
 50
114.8912197500962975
 51
142.7403140952438889
  0
ARC
  5
3AEC
  8
0
 10
-0.9172515118384009
 20
2.8518781825385018
 30
0.0
 40
0.0669646577250933
 50
73.3396503210197324
 51
114.8912197500965959
  0
ARC
  5
3AED
  8
0
 10
-0.9174207949099471
 20
2.85131251071883
 30
0.0
 40
0.0675551163315021
 50
40.5069955350157898
 51
73.3396503210201587
  0
ARC
  5
3AEE
  8
0
 10
-0.9192066224909055
 20
2.8497868927434871
 30
0.0
 40
0.0699038799116861
 50
15.0665672411678404
 51
40.506995535017623
  0
ARC
  5
3AEF
  8
0
 10
-0.9261727518153644
 20
2.8479116468623671
 30
0.0
 40
0.0771179983526137
 50
342.0891145704512724
 51
15.0665672411665792
  0
ARC
  5
3AF0
  8
0
 10
-0.9148109090784096
 20
2.8442394877138808
 30
0.0
 40
0.0651774697549724
 50
297.6787828538548979
 51
342.0891145704512724
  0
ARC
  5
3AF1
  8
0
 10
-0.9162629509624938
 20
2.8470077101736129
 30
0.0
 40
0.0683034066096931
 50
243.1925646978021121
 51
297.6787828538559211
  0
ARC
  5
3AF2
  8
0
 10
-0.9174573613468371
 20
2.844643941765955
 30
0.0
 40
0.065655007611945
 50
208.3494222455435931
 51
243.1925646978017994
  0
ARC
  5
3AF3
  8
0
 10
-0.9127924349240586
 20
2.8471609387527042
 30
0.0
 40
0.0709556502485733
 50
178.5914063378093886
 51
208.3494222455418026
  0
ARC
  5
3AF4
  8
0
 10
-0.5536571492275182
 20
3.1708224323793308
 30
0.0
 40
0.0234812541910901
 50
157.8786780817135025
 51
218.3078935176922073
  0
ARC
  5
3AF5
  8
0
 10
-0.5539025335173267
 20
3.170922178996292
 30
0.0
 40
0.0232163715052031
 50
93.4847910568193754
 51
157.8786780817121098
  0
ARC
  5
3AF6
  8
0
 10
-0.5538421992465472
 20
3.1699314064142921
 30
0.0
 40
0.0242089794507037
 50
42.7460331603323525
 51
93.4847910568136342
  0
ARC
  5
3AF7
  8
0
 10
-0.5531831708153337
 20
3.1705405214192548
 30
0.0
 40
0.0233115723176723
 50
352.309797187623019
 51
42.7460331603314216
  0
ARC
  5
3AF8
  8
0
 10
-0.5532720147635853
 20
3.1705525181232801
 30
0.0
 40
0.0234012225717067
 50
296.4607048357422059
 51
352.3097971876277938
  0
ARC
  5
3AF9
  8
0
 10
-0.553392928507527
 20
3.1707954506702509
 30
0.0
 40
0.0236725827674818
 50
217.8602238666755966
 51
296.4607048357424901
  0
ARC
  5
3AFA
  8
0
 10
-0.5533662603334668
 20
3.1864493117466841
 30
0.0
 40
0.0951293626435644
 50
50.8599309833852615
 51
110.5397474864755054
  0
ARC
  5
3AFB
  8
0
 10
-0.5528474962490147
 20
3.1865545035909761
 30
0.0
 40
0.0947209176757482
 50
0.1026218484183482
 51
51.0631486408825666
  0
ARC
  5
3AFC
  8
0
 10
-0.5511360562371351
 20
3.186650938709604
 30
0.0
 40
0.0930093545508699
 50
291.240707227552889
 51
0.0451041254709193
  0
ARC
  5
3AFD
  8
0
 10
-0.5518978971727094
 20
3.1886109504492088
 30
0.0
 40
0.0951122210778945
 50
214.7032766636561973
 51
291.2407072275527753
  0
ARC
  5
3AFE
  8
0
 10
-0.5521679074627968
 20
3.188423963614393
 30
0.0
 40
0.0947837859501335
 50
155.966420389111704
 51
214.7032766636581016
  0
ARC
  5
3AFF
  8
0
 10
-0.5554755460200798
 20
3.1898989425815389
 30
0.0
 40
0.0911621791549156
 50
110.0590188159440999
 51
155.9664203891124998
  0
ARC
  5
3B00
  8
0
 10
-0.5523271120594422
 20
3.183908122190207
 30
0.0
 40
0.0683612722615737
 50
142.7403140952438889
 51
182.2697788567309942
  0
ARC
  5
3B01
  8
0
 10
-0.5549687901364915
 20
3.1859176057741889
 30
0.0
 40
0.0650421628423086
 50
114.8912197500962975
 51
142.7403140952438889
  0
ARC
  5
3B02
  8
0
 10
-0.5541596181747646
 20
3.1841736942768111
 30
0.0
 40
0.0669646577250933
 50
73.3396503210197324
 51
114.8912197500965959
  0
ARC
  5
3B03
  8
0
 10
-0.5543289012463108
 20
3.1836080224571388
 30
0.0
 40
0.0675551163315021
 50
40.5069955350157898
 51
73.3396503210201587
  0
ARC
  5
3B04
  8
0
 10
-0.5561147288272692
 20
3.1820824044817959
 30
0.0
 40
0.0699038799116861
 50
15.0665672411678404
 51
40.506995535017623
  0
ARC
  5
3B05
  8
0
 10
-0.5630808581517281
 20
3.1802071586006759
 30
0.0
 40
0.0771179983526137
 50
342.0891145704512724
 51
15.0665672411665792
  0
ARC
  5
3B06
  8
0
 10
-0.5517190154147733
 20
3.1765349994521901
 30
0.0
 40
0.0651774697549724
 50
297.6787828538548979
 51
342.0891145704512724
  0
ARC
  5
3B07
  8
0
 10
-0.5531710572988576
 20
3.1793032219119222
 30
0.0
 40
0.0683034066096931
 50
243.1925646978021121
 51
297.6787828538559211
  0
ARC
  5
3B08
  8
0
 10
-0.5543654676832009
 20
3.1769394535042639
 30
0.0
 40
0.065655007611945
 50
208.3494222455435931
 51
243.1925646978017994
  0
ARC
  5
3B09
  8
0
 10
-0.5497005412604224
 20
3.179456450491013
 30
0.0
 40
0.0709556502485733
 50
178.5914063378093886
 51
208.3494222455418026
  0
ARC
  5
3B0A
  8
0
 10
-0.0692031688725758
 20
3.1197658517303282
 30
0.0
 40
0.0234812541910901
 50
157.8786780817135025
 51
218.3078935176922073
  0
ARC
  5
3B0B
  8
0
 10
-0.0694485531623843
 20
3.119865598347288
 30
0.0
 40
0.0232163715052031
 50
93.4847910568193754
 51
157.8786780817121098
  0
ARC
  5
3B0C
  8
0
 10
-0.0693882188916049
 20
3.1188748257652881
 30
0.0
 40
0.0242089794507037
 50
42.7460331603323525
 51
93.4847910568136342
  0
ARC
  5
3B0D
  8
0
 10
-0.0687291904603913
 20
3.1194839407702508
 30
0.0
 40
0.0233115723176723
 50
352.309797187623019
 51
42.7460331603314216
  0
ARC
  5
3B0E
  8
0
 10
-0.0688180344086429
 20
3.1194959374742761
 30
0.0
 40
0.0234012225717067
 50
296.4607048357422059
 51
352.3097971876277938
  0
ARC
  5
3B0F
  8
0
 10
-0.0689389481525846
 20
3.1197388700212469
 30
0.0
 40
0.0236725827674818
 50
217.8602238666755966
 51
296.4607048357424901
  0
ARC
  5
3B10
  8
0
 10
-0.0689122799785245
 20
3.135392731097681
 30
0.0
 40
0.0951293626435644
 50
50.8599309833852615
 51
110.5397474864755054
  0
ARC
  5
3B11
  8
0
 10
-0.0683935158940723
 20
3.1354979229419722
 30
0.0
 40
0.0947209176757482
 50
0.1026218484183482
 51
51.0631486408825666
  0
ARC
  5
3B12
  8
0
 10
-0.0666820758821927
 20
3.1355943580606001
 30
0.0
 40
0.0930093545508699
 50
291.240707227552889
 51
0.0451041254709193
  0
ARC
  5
3B13
  8
0
 10
-0.067443916817767
 20
3.1375543698002062
 30
0.0
 40
0.0951122210778945
 50
214.7032766636561973
 51
291.2407072275527753
  0
ARC
  5
3B14
  8
0
 10
-0.0677139271078544
 20
3.1373673829653899
 30
0.0
 40
0.0947837859501335
 50
155.966420389111704
 51
214.7032766636581016
  0
ARC
  5
3B15
  8
0
 10
-0.0710215656651374
 20
3.138842361932535
 30
0.0
 40
0.0911621791549156
 50
110.0590188159440999
 51
155.9664203891124998
  0
ARC
  5
3B16
  8
0
 10
-0.0678731317044998
 20
3.132851541541203
 30
0.0
 40
0.0683612722615737
 50
142.7403140952438889
 51
182.2697788567309942
  0
ARC
  5
3B17
  8
0
 10
-0.0705148097815491
 20
3.1348610251251858
 30
0.0
 40
0.0650421628423086
 50
114.8912197500962975
 51
142.7403140952438889
  0
ARC
  5
3B18
  8
0
 10
-0.0697056378198222
 20
3.1331171136278071
 30
0.0
 40
0.0669646577250933
 50
73.3396503210197324
 51
114.8912197500965959
  0
ARC
  5
3B19
  8
0
 10
-0.0698749208913685
 20
3.1325514418081362
 30
0.0
 40
0.0675551163315021
 50
40.5069955350157898
 51
73.3396503210201587
  0
ARC
  5
3B1A
  8
0
 10
-0.0716607484723269
 20
3.1310258238327928
 30
0.0
 40
0.0699038799116861
 50
15.0665672411678404
 51
40.506995535017623
  0
ARC
  5
3B1B
  8
0
 10
-0.0786268777967858
 20
3.1291505779516728
 30
0.0
 40
0.0771179983526137
 50
342.0891145704512724
 51
15.0665672411665792
  0
ARC
  5
3B1C
  8
0
 10
-0.067265035059831
 20
3.1254784188031861
 30
0.0
 40
0.0651774697549724
 50
297.6787828538548979
 51
342.0891145704512724
  0
ARC
  5
3B1D
  8
0
 10
-0.0687170769439152
 20
3.1282466412629191
 30
0.0
 40
0.0683034066096931
 50
243.1925646978021121
 51
297.6787828538559211
  0
ARC
  5
3B1E
  8
0
 10
-0.0699114873282585
 20
3.1258828728552599
 30
0.0
 40
0.065655007611945
 50
208.3494222455435931
 51
243.1925646978017994
  0
ARC
  5
3B1F
  8
0
 10
-0.06524656090548
 20
3.128399869842009
 30
0.0
 40
0.0709556502485733
 50
178.5914063378093886
 51
208.3494222455418026
  0
ARC
  5
3B20
  8
0
 10
0.2074819841383513
 20
3.4414472443765969
 30
0.0
 40
0.0234812541910901
 50
157.8786780817135025
 51
218.3078935176922073
  0
ARC
  5
3B21
  8
0
 10
0.2072365998485464
 20
3.4415469909935581
 30
0.0
 40
0.0232163715052031
 50
93.4847910568193754
 51
157.8786780817121098
  0
ARC
  5
3B22
  8
0
 10
0.207296934119324
 20
3.4405562184115581
 30
0.0
 40
0.0242089794507037
 50
42.7460331603323525
 51
93.4847910568136342
  0
ARC
  5
3B23
  8
0
 10
0.2079559625505394
 20
3.44116533341652
 30
0.0
 40
0.0233115723176723
 50
352.309797187623019
 51
42.7460331603314216
  0
ARC
  5
3B24
  8
0
 10
0.2078671186022842
 20
3.4411773301205448
 30
0.0
 40
0.0234012225717067
 50
296.4607048357422059
 51
352.3097971876277938
  0
ARC
  5
3B25
  8
0
 10
0.2077462048583425
 20
3.4414202626675161
 30
0.0
 40
0.0236725827674818
 50
217.8602238666755966
 51
296.4607048357424901
  0
ARC
  5
3B26
  8
0
 10
0.2077728730324044
 20
3.4570741237439502
 30
0.0
 40
0.0951293626435644
 50
50.8599309833852615
 51
110.5397474864755054
  0
ARC
  5
3B27
  8
0
 10
0.2082916371168548
 20
3.4571793155882409
 30
0.0
 40
0.0947209176757482
 50
0.1026218484183482
 51
51.0631486408825666
  0
ARC
  5
3B28
  8
0
 10
0.2100030771287362
 20
3.4572757507068701
 30
0.0
 40
0.0930093545508699
 50
291.240707227552889
 51
0.0451041254709193
  0
ARC
  5
3B29
  8
0
 10
0.2092412361931619
 20
3.4592357624464749
 30
0.0
 40
0.0951122210778945
 50
214.7032766636561973
 51
291.2407072275527753
  0
ARC
  5
3B2A
  8
0
 10
0.2089712259030745
 20
3.459048775611659
 30
0.0
 40
0.0947837859501335
 50
155.966420389111704
 51
214.7032766636581016
  0
ARC
  5
3B2B
  8
0
 10
0.2056635873457933
 20
3.460523754578805
 30
0.0
 40
0.0911621791549156
 50
110.0590188159440999
 51
155.9664203891124998
  0
ARC
  5
3B2C
  8
0
 10
0.2088120213064291
 20
3.4545329341874722
 30
0.0
 40
0.0683612722615737
 50
142.7403140952438889
 51
182.2697788567309942
  0
ARC
  5
3B2D
  8
0
 10
0.206170343229378
 20
3.456542417771455
 30
0.0
 40
0.0650421628423086
 50
114.8912197500962975
 51
142.7403140952438889
  0
ARC
  5
3B2E
  8
0
 10
0.2069795151911049
 20
3.4547985062740771
 30
0.0
 40
0.0669646577250933
 50
73.3396503210197324
 51
114.8912197500965959
  0
ARC
  5
3B2F
  8
0
 10
0.2068102321195622
 20
3.4542328344544049
 30
0.0
 40
0.0675551163315021
 50
40.5069955350157898
 51
73.3396503210201587
  0
ARC
  5
3B30
  8
0
 10
0.205024404538602
 20
3.452707216479062
 30
0.0
 40
0.0699038799116861
 50
15.0665672411678404
 51
40.506995535017623
  0
ARC
  5
3B31
  8
0
 10
0.1980582752141413
 20
3.450831970597942
 30
0.0
 40
0.0771179983526137
 50
342.0891145704512724
 51
15.0665672411665792
  0
ARC
  5
3B32
  8
0
 10
0.2094201179510979
 20
3.4471598114494562
 30
0.0
 40
0.0651774697549724
 50
297.6787828538548979
 51
342.0891145704512724
  0
ARC
  5
3B33
  8
0
 10
0.2079680760670155
 20
3.4499280339091878
 30
0.0
 40
0.0683034066096931
 50
243.1925646978021121
 51
297.6787828538559211
  0
ARC
  5
3B34
  8
0
 10
0.2067736656826722
 20
3.4475642655015291
 30
0.0
 40
0.065655007611945
 50
208.3494222455435931
 51
243.1925646978017994
  0
ARC
  5
3B35
  8
0
 10
0.2114385921054489
 20
3.4500812624882791
 30
0.0
 40
0.0709556502485733
 50
178.5914063378093886
 51
208.3494222455418026
  0
ARC
  5
3B36
  8
0
 10
-0.2232576206369283
 20
3.4774954185007161
 30
0.0
 40
0.0234812541910901
 50
157.8786780817135025
 51
218.3078935176922073
  0
ARC
  5
3B37
  8
0
 10
-0.2235030049267368
 20
3.477595165117676
 30
0.0
 40
0.0232163715052031
 50
93.4847910568193754
 51
157.8786780817121098
  0
ARC
  5
3B38
  8
0
 10
-0.2234426706559573
 20
3.476604392535676
 30
0.0
 40
0.0242089794507037
 50
42.7460331603323525
 51
93.4847910568136342
  0
ARC
  5
3B39
  8
0
 10
-0.2227836422247438
 20
3.4772135075406392
 30
0.0
 40
0.0233115723176723
 50
352.309797187623019
 51
42.7460331603314216
  0
ARC
  5
3B3A
  8
0
 10
-0.2228724861729954
 20
3.477225504244664
 30
0.0
 40
0.0234012225717067
 50
296.4607048357422059
 51
352.3097971876277938
  0
ARC
  5
3B3B
  8
0
 10
-0.2229933999169371
 20
3.4774684367916349
 30
0.0
 40
0.0236725827674818
 50
217.8602238666755966
 51
296.4607048357424901
  0
ARC
  5
3B3C
  8
0
 10
-0.222966731742877
 20
3.4931222978680689
 30
0.0
 40
0.0951293626435644
 50
50.8599309833852615
 51
110.5397474864755054
  0
ARC
  5
3B3D
  8
0
 10
-0.2224479676584248
 20
3.4932274897123601
 30
0.0
 40
0.0947209176757482
 50
0.1026218484183482
 51
51.0631486408825666
  0
ARC
  5
3B3E
  8
0
 10
-0.2207365276465452
 20
3.493323924830988
 30
0.0
 40
0.0930093545508699
 50
291.240707227552889
 51
0.0451041254709193
  0
ARC
  5
3B3F
  8
0
 10
-0.2214983685821195
 20
3.4952839365705941
 30
0.0
 40
0.0951122210778945
 50
214.7032766636561973
 51
291.2407072275527753
  0
ARC
  5
3B40
  8
0
 10
-0.2217683788722069
 20
3.4950969497357778
 30
0.0
 40
0.0947837859501335
 50
155.966420389111704
 51
214.7032766636581016
  0
ARC
  5
3B41
  8
0
 10
-0.2250760174294899
 20
3.4965719287029229
 30
0.0
 40
0.0911621791549156
 50
110.0590188159440999
 51
155.9664203891124998
  0
ARC
  5
3B42
  8
0
 10
-0.2219275834688523
 20
3.490581108311591
 30
0.0
 40
0.0683612722615737
 50
142.7403140952438889
 51
182.2697788567309942
  0
ARC
  5
3B43
  8
0
 10
-0.2245692615459016
 20
3.4925905918955742
 30
0.0
 40
0.0650421628423086
 50
114.8912197500962975
 51
142.7403140952438889
  0
ARC
  5
3B44
  8
0
 10
-0.2237600895841747
 20
3.490846680398195
 30
0.0
 40
0.0669646577250933
 50
73.3396503210197324
 51
114.8912197500965959
  0
ARC
  5
3B45
  8
0
 10
-0.223929372655721
 20
3.4902810085785241
 30
0.0
 40
0.0675551163315021
 50
40.5069955350157898
 51
73.3396503210201587
  0
ARC
  5
3B46
  8
0
 10
-0.2257152002366793
 20
3.4887553906031812
 30
0.0
 40
0.0699038799116861
 50
15.0665672411678404
 51
40.506995535017623
  0
ARC
  5
3B47
  8
0
 10
-0.2326813295611383
 20
3.4868801447220612
 30
0.0
 40
0.0771179983526137
 50
342.0891145704512724
 51
15.0665672411665792
  0
ARC
  5
3B48
  8
0
 10
-0.2213194868241834
 20
3.483207985573574
 30
0.0
 40
0.0651774697549724
 50
297.6787828538548979
 51
342.0891145704512724
  0
ARC
  5
3B49
  8
0
 10
-0.2227715287082677
 20
3.4859762080333061
 30
0.0
 40
0.0683034066096931
 50
243.1925646978021121
 51
297.6787828538559211
  0
ARC
  5
3B4A
  8
0
 10
-0.223965939092611
 20
3.4836124396256478
 30
0.0
 40
0.065655007611945
 50
208.3494222455435931
 51
243.1925646978017994
  0
ARC
  5
3B4B
  8
0
 10
-0.2193010126698325
 20
3.4861294366123969
 30
0.0
 40
0.0709556502485733
 50
178.5914063378093886
 51
208.3494222455418026
  0
ARC
  5
3B4C
  8
0
 10
-0.6313672178687564
 20
3.6130823666774949
 30
0.0
 40
0.0234812541910901
 50
157.8786780817135025
 51
218.3078935176922073
  0
ARC
  5
3B4D
  8
0
 10
-0.6316126021585649
 20
3.6131821132944562
 30
0.0
 40
0.0232163715052031
 50
93.4847910568193754
 51
157.8786780817121098
  0
ARC
  5
3B4E
  8
0
 10
-0.6315522678877854
 20
3.6121913407124562
 30
0.0
 40
0.0242089794507037
 50
42.7460331603323525
 51
93.4847910568136342
  0
ARC
  5
3B4F
  8
0
 10
-0.6308932394565719
 20
3.6128004557174189
 30
0.0
 40
0.0233115723176723
 50
352.309797187623019
 51
42.7460331603314216
  0
ARC
  5
3B50
  8
0
 10
-0.6309820834048235
 20
3.6128124524214442
 30
0.0
 40
0.0234012225717067
 50
296.4607048357422059
 51
352.3097971876277938
  0
ARC
  5
3B51
  8
0
 10
-0.6311029971487652
 20
3.6130553849684151
 30
0.0
 40
0.0236725827674818
 50
217.8602238666755966
 51
296.4607048357424901
  0
ARC
  5
3B52
  8
0
 10
-0.631076328974705
 20
3.6287092460448491
 30
0.0
 40
0.0951293626435644
 50
50.8599309833852615
 51
110.5397474864755054
  0
ARC
  5
3B53
  8
0
 10
-0.6305575648902529
 20
3.6288144378891398
 30
0.0
 40
0.0947209176757482
 50
0.1026218484183482
 51
51.0631486408825666
  0
ARC
  5
3B54
  8
0
 10
-0.6288461248783733
 20
3.6289108730077682
 30
0.0
 40
0.0930093545508699
 50
291.240707227552889
 51
0.0451041254709193
  0
ARC
  5
3B55
  8
0
 10
-0.6296079658139476
 20
3.630870884747373
 30
0.0
 40
0.0951122210778945
 50
214.7032766636561973
 51
291.2407072275527753
  0
ARC
  5
3B56
  8
0
 10
-0.629877976104035
 20
3.6306838979125571
 30
0.0
 40
0.0947837859501335
 50
155.966420389111704
 51
214.7032766636581016
  0
ARC
  5
3B57
  8
0
 10
-0.633185614661318
 20
3.6321588768797031
 30
0.0
 40
0.0911621791549156
 50
110.0590188159440999
 51
155.9664203891124998
  0
ARC
  5
3B58
  8
0
 10
-0.6300371807006804
 20
3.6261680564883711
 30
0.0
 40
0.0683612722615737
 50
142.7403140952438889
 51
182.2697788567309942
  0
ARC
  5
3B59
  8
0
 10
-0.6326788587777297
 20
3.628177540072353
 30
0.0
 40
0.0650421628423086
 50
114.8912197500962975
 51
142.7403140952438889
  0
ARC
  5
3B5A
  8
0
 10
-0.6318696868160028
 20
3.6264336285749752
 30
0.0
 40
0.0669646577250933
 50
73.3396503210197324
 51
114.8912197500965959
  0
ARC
  5
3B5B
  8
0
 10
-0.6320389698875492
 20
3.6258679567553029
 30
0.0
 40
0.0675551163315021
 50
40.5069955350157898
 51
73.3396503210201587
  0
ARC
  5
3B5C
  8
0
 10
-0.6338247974685074
 20
3.62434233877996
 30
0.0
 40
0.0699038799116861
 50
15.0665672411678404
 51
40.506995535017623
  0
ARC
  5
3B5D
  8
0
 10
-0.6407909267929665
 20
3.6224670928988401
 30
0.0
 40
0.0771179983526137
 50
342.0891145704512724
 51
15.0665672411665792
  0
ARC
  5
3B5E
  8
0
 10
-0.6294290840560115
 20
3.6187949337503542
 30
0.0
 40
0.0651774697549724
 50
297.6787828538548979
 51
342.0891145704512724
  0
ARC
  5
3B5F
  8
0
 10
-0.6308811259400957
 20
3.6215631562100858
 30
0.0
 40
0.0683034066096931
 50
243.1925646978021121
 51
297.6787828538559211
  0
ARC
  5
3B60
  8
0
 10
-0.6320755363244391
 20
3.619199387802428
 30
0.0
 40
0.065655007611945
 50
208.3494222455435931
 51
243.1925646978017994
  0
ARC
  5
3B61
  8
0
 10
-0.6274106099016606
 20
3.6217163847891771
 30
0.0
 40
0.0709556502485733
 50
178.5914063378093886
 51
208.3494222455418026
  0
ARC
  5
3B62
  8
0
 10
0.2074819841383513
 20
5.9911321440109262
 30
0.0
 40
0.0234812541910901
 50
157.8786780817135025
 51
218.3078935176922073
  0
ARC
  5
3B63
  8
0
 10
0.2072365998485464
 20
5.9912318906278861
 30
0.0
 40
0.0232163715052031
 50
93.4847910568193754
 51
157.8786780817121098
  0
ARC
  5
3B64
  8
0
 10
0.207296934119324
 20
5.9902411180458861
 30
0.0
 40
0.0242089794507037
 50
42.7460331603323525
 51
93.4847910568136342
  0
ARC
  5
3B65
  8
0
 10
0.2079559625505394
 20
5.9908502330508488
 30
0.0
 40
0.0233115723176723
 50
352.309797187623019
 51
42.7460331603314216
  0
ARC
  5
3B66
  8
0
 10
0.2078671186022842
 20
5.9908622297548737
 30
0.0
 40
0.0234012225717067
 50
296.4607048357422059
 51
352.3097971876277938
  0
ARC
  5
3B67
  8
0
 10
0.2077462048583425
 20
5.991105162301845
 30
0.0
 40
0.0236725827674818
 50
217.8602238666755966
 51
296.4607048357424901
  0
ARC
  5
3B68
  8
0
 10
0.2077728730324044
 20
6.0067590233782786
 30
0.0
 40
0.0951293626435644
 50
50.8599309833852615
 51
110.5397474864755054
  0
ARC
  5
3B69
  8
0
 10
0.2082916371168548
 20
6.0068642152225697
 30
0.0
 40
0.0947209176757482
 50
0.1026218484183482
 51
51.0631486408825666
  0
ARC
  5
3B6A
  8
0
 10
0.2100030771287362
 20
6.0069606503411981
 30
0.0
 40
0.0930093545508699
 50
291.240707227552889
 51
0.0451041254708175
  0
ARC
  5
3B6B
  8
0
 10
0.2092412361931619
 20
6.0089206620808042
 30
0.0
 40
0.0951122210778945
 50
214.7032766636561973
 51
291.2407072275527753
  0
ARC
  5
3B6C
  8
0
 10
0.2089712259030745
 20
6.0087336752459883
 30
0.0
 40
0.0947837859501335
 50
155.966420389111704
 51
214.7032766636581016
  0
ARC
  5
3B6D
  8
0
 10
0.2056635873457933
 20
6.010208654213133
 30
0.0
 40
0.0911621791549156
 50
110.0590188159440999
 51
155.9664203891124998
  0
ARC
  5
3B6E
  8
0
 10
0.2088120213064291
 20
6.0042178338218006
 30
0.0
 40
0.0683612722615737
 50
142.7403140952438889
 51
182.2697788567309942
  0
ARC
  5
3B6F
  8
0
 10
0.206170343229378
 20
6.0062273174057843
 30
0.0
 40
0.0650421628423086
 50
114.8912197500962975
 51
142.7403140952438889
  0
ARC
  5
3B70
  8
0
 10
0.2069795151911049
 20
6.004483405908406
 30
0.0
 40
0.0669646577250933
 50
73.3396503210197324
 51
114.8912197500965959
  0
ARC
  5
3B71
  8
0
 10
0.2068102321195622
 20
6.0039177340887342
 30
0.0
 40
0.0675551163315021
 50
40.5069955350157898
 51
73.3396503210201587
  0
ARC
  5
3B72
  8
0
 10
0.205024404538602
 20
6.0023921161133913
 30
0.0
 40
0.0699038799116861
 50
15.0665672411678404
 51
40.506995535017623
  0
ARC
  5
3B73
  8
0
 10
0.1980582752141413
 20
6.0005168702322713
 30
0.0
 40
0.0771179983526137
 50
342.0891145704512724
 51
15.0665672411665792
  0
ARC
  5
3B74
  8
0
 10
0.2094201179510979
 20
5.996844711083785
 30
0.0
 40
0.0651774697549724
 50
297.6787828538548979
 51
342.0891145704512724
  0
ARC
  5
3B75
  8
0
 10
0.2079680760670155
 20
5.9996129335435171
 30
0.0
 40
0.0683034066096931
 50
243.1925646978021121
 51
297.6787828538559211
  0
ARC
  5
3B76
  8
0
 10
0.2067736656826722
 20
5.9972491651358579
 30
0.0
 40
0.065655007611945
 50
208.3494222455435931
 51
243.1925646978017994
  0
ARC
  5
3B77
  8
0
 10
0.2114385921054489
 20
5.999766162122607
 30
0.0
 40
0.0709556502485733
 50
178.5914063378093886
 51
208.3494222455418026
  0
ARC
  5
3B78
  8
0
 10
0.0437097533367319
 20
5.128359333325796
 30
0.0
 40
0.0413665750975364
 50
123.9839154526150935
 51
209.3947756728408081
  0
ARC
  5
3B79
  8
0
 10
0.0456386513394915
 20
5.1254978920155159
 30
0.0
 40
0.0448174436660661
 50
54.8182965234811377
 51
123.9839154526166993
  0
ARC
  5
3B7A
  8
0
 10
0.0475943272664421
 20
5.1282721197375407
 30
0.0
 40
0.0414231826588794
 50
322.5801151221435816
 51
54.8182965234777697
  0
ARC
  5
3B7B
  8
0
 10
0.0458139955445067
 20
5.1296342654334062
 30
0.0
 40
0.043664838729047
 50
245.2186252778660958
 51
322.5801151221454006
  0
ARC
  5
3B7C
  8
0
 10
0.0461789574441061
 20
5.1304247901414861
 30
0.0
 40
0.0445355433300704
 50
210.1507575842234985
 51
245.2186252778685116
  0
ARC
  5
3B7D
  8
0
 10
0.0426515945862538
 20
5.14645700169019
 30
0.0
 40
0.1143460635685627
 50
108.8434375770395945
 51
180.6282628232586944
  0
ARC
  5
3B7E
  8
0
 10
0.0448279567923078
 20
5.140079831563539
 30
0.0
 40
0.1210843757664524
 50
26.1309272876811995
 51
108.8434375770400067
  0
ARC
  5
3B7F
  8
0
 10
0.0500918944337028
 20
5.1465432894229721
 30
0.0
 40
0.1135652729469229
 50
288.5878906493300065
 51
24.3726748404751383
  0
ARC
  5
3B80
  8
0
 10
0.0460030376582634
 20
5.1495679890482959
 30
0.0
 40
0.1177715432520463
 50
182.1239568279112007
 51
290.0044362847090156
  0
ARC
  5
3B81
  8
0
 10
0.0439150411766716
 20
5.137533805325698
 30
0.0
 40
0.0771005943173196
 50
109.0729896480395951
 51
182.8715533310378873
  0
ARC
  5
3B82
  8
0
 10
0.0448805431535431
 20
5.1347413452218218
 30
0.0
 40
0.0800552563113654
 50
14.2782480357148707
 51
109.0729896480404051
  0
ARC
  5
3B83
  8
0
 10
0.0461817285805251
 20
5.1350724871971991
 30
0.0
 40
0.0787125953253899
 50
292.5053735071135179
 51
14.2782480357157695
  0
ARC
  5
3B84
  8
0
 10
0.046020101233172
 20
5.1354562274693647
 30
0.0
 40
0.0791289774842463
 50
181.2925483181057018
 51
292.5071359946038001
  0
ARC
  5
3B85
  8
0
 10
-0.2068862794450843
 20
4.9282511735249228
 30
0.0
 40
0.0413665750975364
 50
123.9839154526150935
 51
209.3947756728408081
  0
ARC
  5
3B86
  8
0
 10
-0.2049573814423229
 20
4.9253897322146427
 30
0.0
 40
0.0448174436660661
 50
54.8182965234811377
 51
123.9839154526166993
  0
ARC
  5
3B87
  8
0
 10
-0.2030017055153723
 20
4.9281639599366676
 30
0.0
 40
0.0414231826588794
 50
322.5801151221435816
 51
54.8182965234777697
  0
ARC
  5
3B88
  8
0
 10
-0.2047820372373095
 20
4.929526105632533
 30
0.0
 40
0.043664838729047
 50
245.2186252778660958
 51
322.5801151221454006
  0
ARC
  5
3B89
  8
0
 10
-0.2044170753377101
 20
4.9303166303406121
 30
0.0
 40
0.0445355433300704
 50
210.1507575842234985
 51
245.2186252778685116
  0
ARC
  5
3B8A
  8
0
 10
-0.2079444381955624
 20
4.9463488418893169
 30
0.0
 40
0.1143460635685627
 50
108.8434375770395945
 51
180.6282628232586944
  0
ARC
  5
3B8B
  8
0
 10
-0.2057680759895084
 20
4.9399716717626658
 30
0.0
 40
0.1210843757664524
 50
26.1309272876811995
 51
108.8434375770400067
  0
ARC
  5
3B8C
  8
0
 10
-0.2005041383481116
 20
4.9464351296220981
 30
0.0
 40
0.1135652729469229
 50
288.5878906493300065
 51
24.3726748404751383
  0
ARC
  5
3B8D
  8
0
 10
-0.2045929951235545
 20
4.9494598292474228
 30
0.0
 40
0.1177715432520463
 50
182.1239568279112007
 51
290.0044362847090156
  0
ARC
  5
3B8E
  8
0
 10
-0.2066809916051429
 20
4.9374256455248249
 30
0.0
 40
0.0771005943173196
 50
109.0729896480395951
 51
182.8715533310378873
  0
ARC
  5
3B8F
  8
0
 10
-0.2057154896282749
 20
4.9346331854209486
 30
0.0
 40
0.0800552563113654
 50
14.2782480357148707
 51
109.0729896480404051
  0
ARC
  5
3B90
  8
0
 10
-0.2044143042012894
 20
4.9349643273963251
 30
0.0
 40
0.0787125953253899
 50
292.5053735071135179
 51
14.2782480357157695
  0
ARC
  5
3B91
  8
0
 10
-0.2045759315486459
 20
4.9353480676684924
 30
0.0
 40
0.0791289774842463
 50
181.2925483181057018
 51
292.5071359946038001
  0
ARC
  5
3B92
  8
0
 10
-0.2634861494046823
 20
4.6209641965998527
 30
0.0
 40
0.0413665750975364
 50
123.9839154526150935
 51
209.3947756728408081
  0
ARC
  5
3B93
  8
0
 10
-0.2615572514019209
 20
4.6181027552895726
 30
0.0
 40
0.0448174436660661
 50
54.8182965234811377
 51
123.9839154526166993
  0
ARC
  5
3B94
  8
0
 10
-0.2596015754749703
 20
4.6208769830115983
 30
0.0
 40
0.0414231826588794
 50
322.5801151221435816
 51
54.8182965234777697
  0
ARC
  5
3B95
  8
0
 10
-0.2613819071969075
 20
4.622239128707462
 30
0.0
 40
0.043664838729047
 50
245.2186252778660958
 51
322.5801151221454006
  0
ARC
  5
3B96
  8
0
 10
-0.2610169452973081
 20
4.623029653415542
 30
0.0
 40
0.0445355433300704
 50
210.1507575842234985
 51
245.2186252778685116
  0
ARC
  5
3B97
  8
0
 10
-0.2645443081551604
 20
4.6390618649642468
 30
0.0
 40
0.1143460635685627
 50
108.8434375770395945
 51
180.6282628232586944
  0
ARC
  5
3B98
  8
0
 10
-0.2623679459491064
 20
4.6326846948375957
 30
0.0
 40
0.1210843757664524
 50
26.1309272876811995
 51
108.8434375770400067
  0
ARC
  5
3B99
  8
0
 10
-0.2571040083077096
 20
4.639148152697028
 30
0.0
 40
0.1135652729469229
 50
288.5878906493300065
 51
24.3726748404751383
  0
ARC
  5
3B9A
  8
0
 10
-0.2611928650831525
 20
4.6421728523223527
 30
0.0
 40
0.1177715432520463
 50
182.1239568279112007
 51
290.0044362847090156
  0
ARC
  5
3B9B
  8
0
 10
-0.2632808615647408
 20
4.6301386685997548
 30
0.0
 40
0.0771005943173196
 50
109.0729896480395951
 51
182.8715533310378873
  0
ARC
  5
3B9C
  8
0
 10
-0.2623153595878729
 20
4.6273462084958794
 30
0.0
 40
0.0800552563113654
 50
14.2782480357148707
 51
109.0729896480404051
  0
ARC
  5
3B9D
  8
0
 10
-0.2610141741608873
 20
4.6276773504712549
 30
0.0
 40
0.0787125953253899
 50
292.5053735071135179
 51
14.2782480357157695
  0
ARC
  5
3B9E
  8
0
 10
-0.2611758015082439
 20
4.6280610907434223
 30
0.0
 40
0.0791289774842463
 50
181.2925483181057018
 51
292.5071359946038001
  0
ARC
  5
3B9F
  8
0
 10
-0.1000557104311688
 20
4.3482051777451209
 30
0.0
 40
0.0413665750975364
 50
123.9839154526150935
 51
209.3947756728408081
  0
ARC
  5
3BA0
  8
0
 10
-0.0981268124284074
 20
4.3453437364348408
 30
0.0
 40
0.0448174436660661
 50
54.8182965234811377
 51
123.9839154526166993
  0
ARC
  5
3BA1
  8
0
 10
-0.0961711365014568
 20
4.3481179641568657
 30
0.0
 40
0.0414231826588794
 50
322.5801151221435816
 51
54.8182965234777697
  0
ARC
  5
3BA2
  8
0
 10
-0.097951468223394
 20
4.3494801098527311
 30
0.0
 40
0.043664838729047
 50
245.2186252778660958
 51
322.5801151221454006
  0
ARC
  5
3BA3
  8
0
 10
-0.0975865063237946
 20
4.3502706345608111
 30
0.0
 40
0.0445355433300704
 50
210.1507575842234985
 51
245.2186252778685116
  0
ARC
  5
3BA4
  8
0
 10
-0.1011138691816469
 20
4.366302846109515
 30
0.0
 40
0.1143460635685627
 50
108.8434375770395945
 51
180.6282628232586944
  0
ARC
  5
3BA5
  8
0
 10
-0.0989375069755929
 20
4.359925675982864
 30
0.0
 40
0.1210843757664524
 50
26.1309272876811995
 51
108.8434375770400067
  0
ARC
  5
3BA6
  8
0
 10
-0.0936735693341961
 20
4.3663891338422971
 30
0.0
 40
0.1135652729469229
 50
288.5878906493300065
 51
24.3726748404751383
  0
ARC
  5
3BA7
  8
0
 10
-0.0977624261096391
 20
4.3694138334676209
 30
0.0
 40
0.1177715432520463
 50
182.1239568279112007
 51
290.0044362847090156
  0
ARC
  5
3BA8
  8
0
 10
-0.0998504225912274
 20
4.357379649745023
 30
0.0
 40
0.0771005943173196
 50
109.0729896480395951
 51
182.8715533310378873
  0
ARC
  5
3BA9
  8
0
 10
-0.0988849206143594
 20
4.3545871896411468
 30
0.0
 40
0.0800552563113654
 50
14.2782480357148707
 51
109.0729896480404051
  0
ARC
  5
3BAA
  8
0
 10
-0.0975837351873739
 20
4.3549183316165241
 30
0.0
 40
0.0787125953253899
 50
292.5053735071135179
 51
14.2782480357157695
  0
ARC
  5
3BAB
  8
0
 10
-0.0977453625347304
 20
4.3553020718886897
 30
0.0
 40
0.0791289774842463
 50
181.2925483181057018
 51
292.5071359946038001
  0
ARC
  5
3BAC
  8
0
 10
0.2033520259188326
 20
4.24201193489787
 30
0.0
 40
0.0413665750975364
 50
123.9839154526150935
 51
209.3947756728408081
  0
ARC
  5
3BAD
  8
0
 10
0.2052809239215958
 20
4.2391504935875899
 30
0.0
 40
0.0448174436660661
 50
54.8182965234811377
 51
123.9839154526166993
  0
ARC
  5
3BAE
  8
0
 10
0.2072365998485464
 20
4.2419247213096147
 30
0.0
 40
0.0414231826588794
 50
322.5801151221435816
 51
54.8182965234777697
  0
ARC
  5
3BAF
  8
0
 10
0.2054562681266074
 20
4.2432868670054802
 30
0.0
 40
0.043664838729047
 50
245.2186252778660958
 51
322.5801151221454006
  0
ARC
  5
3BB0
  8
0
 10
0.2058212300262068
 20
4.2440773917135601
 30
0.0
 40
0.0445355433300704
 50
210.1507575842234985
 51
245.2186252778685116
  0
ARC
  5
3BB1
  8
0
 10
0.2022938671683545
 20
4.2601096032622641
 30
0.0
 40
0.1143460635685627
 50
108.8434375770395945
 51
180.6282628232586944
  0
ARC
  5
3BB2
  8
0
 10
0.2044702293744085
 20
4.253732433135613
 30
0.0
 40
0.1210843757664524
 50
26.1309272876811995
 51
108.8434375770400067
  0
ARC
  5
3BB3
  8
0
 10
0.209734167015807
 20
4.2601958909950461
 30
0.0
 40
0.1135652729469229
 50
288.5878906493300065
 51
24.3726748404751383
  0
ARC
  5
3BB4
  8
0
 10
0.2056453102403606
 20
4.26322059062037
 30
0.0
 40
0.1177715432520463
 50
182.1239568279112007
 51
290.0044362847090156
  0
ARC
  5
3BB5
  8
0
 10
0.2035573137587758
 20
4.2511864068977721
 30
0.0
 40
0.0771005943173196
 50
109.0729896480395951
 51
182.8715533310378873
  0
ARC
  5
3BB6
  8
0
 10
0.2045228157356402
 20
4.2483939467938958
 30
0.0
 40
0.0800552563113654
 50
14.2782480357148707
 51
109.0729896480404051
  0
ARC
  5
3BB7
  8
0
 10
0.2058240011626293
 20
4.2487250887692731
 30
0.0
 40
0.0787125953253899
 50
292.5053735071135179
 51
14.2782480357157695
  0
ARC
  5
3BB8
  8
0
 10
0.2056623738152692
 20
4.2491088290414387
 30
0.0
 40
0.0791289774842463
 50
181.2925483181057018
 51
292.5071359946038001
  0
ARC
  5
3BB9
  8
0
 10
-0.3244912546329259
 20
5.3267013558104992
 30
0.0
 40
0.1723695500671192
 50
34.3724723054967498
 51
108.8511302197984065
  0
ARC
  5
3BBA
  8
0
 10
-0.3164414610038242
 20
5.3322074856748642
 30
0.0
 40
0.1626167738698307
 50
330.158756209338776
 51
34.3724723054970909
  0
ARC
  5
3BBB
  8
0
 10
-0.3161052628838408
 20
5.3320146216778239
 30
0.0
 40
0.1622291842708529
 50
288.4966742192003153
 51
330.1587562093387191
  0
ARC
  5
3BBC
  8
0
 10
-0.319786814798467
 20
5.343019743399398
 30
0.0
 40
0.1738337751127028
 50
214.3740750350580129
 51
288.4966742192003153
  0
ARC
  5
3BBD
  8
0
 10
-0.3303894725623464
 20
5.3357669965841623
 30
0.0
 40
0.1609878151242905
 50
150.9118973522577107
 51
214.3740750350582971
  0
ARC
  5
3BBE
  8
0
 10
-0.3273464531105712
 20
5.3340741012189454
 30
0.0
 40
0.1644700359819391
 50
108.7397090953497951
 51
150.9118973522577107
  0
ARC
  5
3BBF
  8
0
 10
-0.3246962481618367
 20
5.3148064771465222
 30
0.0
 40
0.0742257057971497
 50
21.92867951571559
 51
157.2472588198749861
  0
ARC
  5
3BC0
  8
0
 10
-0.3246800573529547
 20
5.3170578824696051
 30
0.0
 40
0.0733994417597743
 50
158.8730567827867048
 51
20.3028815524532611
  0
ARC
  5
3BC1
  8
0
 10
-0.3241899303464257
 20
5.3916173384112831
 30
0.0
 40
0.0841581112445414
 50
214.9370323544968073
 51
324.3096948633394163
  0
ARC
  5
3BC2
  8
0
 10
-0.3229979959732439
 20
5.3201436574771641
 30
0.0
 40
0.1308906466980743
 50
47.7902987825429619
 51
180.6970847475814992
  0
ARC
  5
3BC3
  8
0
 10
-0.3198966507355005
 20
5.3235628011573404
 30
0.0
 40
0.1262744918274731
 50
325.3623368102489053
 51
47.7902987825433812
  0
ARC
  5
3BC4
  8
0
 10
-0.3230958834130795
 20
5.3257729091809232
 30
0.0
 40
0.1301628934529739
 50
245.1372343232073092
 51
325.3623368102489053
  0
ARC
  5
3BC5
  8
0
 10
-0.322440351220997
 20
5.3271875388951058
 30
0.0
 40
0.1317220277265718
 50
183.7592763668166924
 51
245.1372343232065987
  0
ARC
  5
3BC6
  8
0
 10
0.2049293786011188
 20
5.5061312396100242
 30
0.0
 40
0.1723695500671192
 50
34.3724723054967498
 51
108.8511302197984065
  0
ARC
  5
3BC7
  8
0
 10
0.2129791722302206
 20
5.5116373694743892
 30
0.0
 40
0.1626167738698307
 50
330.158756209338776
 51
34.3724723054970909
  0
ARC
  5
3BC8
  8
0
 10
0.2133153703502058
 20
5.5114445054773489
 30
0.0
 40
0.1622291842708529
 50
288.4966742192003153
 51
330.1587562093387191
  0
ARC
  5
3BC9
  8
0
 10
0.2096338184355777
 20
5.522449627198923
 30
0.0
 40
0.1738337751127028
 50
214.3740750350580129
 51
288.4966742192003153
  0
ARC
  5
3BCA
  8
0
 10
0.1990311606716984
 20
5.5151968803836873
 30
0.0
 40
0.1609878151242905
 50
150.9118973522577107
 51
214.3740750350582971
  0
ARC
  5
3BCB
  8
0
 10
0.2020741801234718
 20
5.5135039850184704
 30
0.0
 40
0.1644700359819391
 50
108.7397090953497951
 51
150.9118973522577107
  0
ARC
  5
3BCC
  8
0
 10
0.204724385072208
 20
5.4942363609460472
 30
0.0
 40
0.0742257057971497
 50
21.92867951571559
 51
157.2472588198749861
  0
ARC
  5
3BCD
  8
0
 10
0.2047405758810901
 20
5.49648776626913
 30
0.0
 40
0.0733994417597743
 50
158.8730567827867048
 51
20.3028815524532611
  0
ARC
  5
3BCE
  8
0
 10
0.205230702887619
 20
5.5710472222108081
 30
0.0
 40
0.0841581112445414
 50
214.9370323544968073
 51
324.3096948633394163
  0
ARC
  5
3BCF
  8
0
 10
0.2064226372608009
 20
5.4995735412766891
 30
0.0
 40
0.1308906466980743
 50
47.7902987825429619
 51
180.6970847475814992
  0
ARC
  5
3BD0
  8
0
 10
0.2095239824985424
 20
5.5029926849568653
 30
0.0
 40
0.1262744918274731
 50
325.3623368102489053
 51
47.7902987825433812
  0
ARC
  5
3BD1
  8
0
 10
0.2063247498209653
 20
5.5052027929804481
 30
0.0
 40
0.1301628934529739
 50
245.1372343232073092
 51
325.3623368102489053
  0
ARC
  5
3BD2
  8
0
 10
0.206980282013046
 20
5.5066174226946307
 30
0.0
 40
0.1317220277265718
 50
183.7592763668166924
 51
245.1372343232065987
  0
ARC
  5
3BD3
  8
0
 10
-0.6047436435376095
 20
4.8386711780555407
 30
0.0
 40
0.1723695500671192
 50
34.3724723054967498
 51
108.8511302197984065
  0
ARC
  5
3BD4
  8
0
 10
-0.5966938499085078
 20
4.8441773079199058
 30
0.0
 40
0.1626167738698307
 50
330.158756209338776
 51
34.3724723054970909
  0
ARC
  5
3BD5
  8
0
 10
-0.5963576517885243
 20
4.8439844439228672
 30
0.0
 40
0.1622291842708529
 50
288.4966742192003153
 51
330.1587562093387191
  0
ARC
  5
3BD6
  8
0
 10
-0.6000392037031506
 20
4.8549895656444413
 30
0.0
 40
0.1738337751127028
 50
214.3740750350580129
 51
288.4966742192003153
  0
ARC
  5
3BD7
  8
0
 10
-0.61064186146703
 20
4.8477368188292038
 30
0.0
 40
0.1609878151242905
 50
150.9118973522577107
 51
214.3740750350582971
  0
ARC
  5
3BD8
  8
0
 10
-0.6075988420152548
 20
4.8460439234639869
 30
0.0
 40
0.1644700359819391
 50
108.7397090953497951
 51
150.9118973522577107
  0
ARC
  5
3BD9
  8
0
 10
-0.6049486370665202
 20
4.8267762993915637
 30
0.0
 40
0.0742257057971497
 50
21.92867951571559
 51
157.2472588198749861
  0
ARC
  5
3BDA
  8
0
 10
-0.6049324462576382
 20
4.8290277047146466
 30
0.0
 40
0.0733994417597743
 50
158.8730567827867048
 51
20.3028815524532611
  0
ARC
  5
3BDB
  8
0
 10
-0.6044423192511093
 20
4.9035871606563246
 30
0.0
 40
0.0841581112445414
 50
214.9370323544968073
 51
324.3096948633394163
  0
ARC
  5
3BDC
  8
0
 10
-0.6032503848779274
 20
4.8321134797222056
 30
0.0
 40
0.1308906466980743
 50
47.7902987825429619
 51
180.6970847475814992
  0
ARC
  5
3BDD
  8
0
 10
-0.6001490396401841
 20
4.8355326234023819
 30
0.0
 40
0.1262744918274731
 50
325.3623368102489053
 51
47.7902987825433812
  0
ARC
  5
3BDE
  8
0
 10
-0.603348272317763
 20
4.8377427314259647
 30
0.0
 40
0.1301628934529739
 50
245.1372343232073092
 51
325.3623368102489053
  0
ARC
  5
3BDF
  8
0
 10
-0.6026927401256806
 20
4.839157361140149
 30
0.0
 40
0.1317220277265718
 50
183.7592763668166924
 51
245.1372343232065987
  0
ARC
  5
3BE0
  8
0
 10
-0.5080003643988813
 20
4.3081363146100244
 30
0.0
 40
0.1723695500671192
 50
34.3724723054967498
 51
108.8511302197984065
  0
ARC
  5
3BE1
  8
0
 10
-0.4999505707697796
 20
4.3136424444743886
 30
0.0
 40
0.1626167738698307
 50
330.158756209338776
 51
34.3724723054970909
  0
ARC
  5
3BE2
  8
0
 10
-0.4996143726497962
 20
4.3134495804773501
 30
0.0
 40
0.1622291842708529
 50
288.4966742192003153
 51
330.1587562093387191
  0
ARC
  5
3BE3
  8
0
 10
-0.5032959245644224
 20
4.3244547021989241
 30
0.0
 40
0.1738337751127028
 50
214.3740750350580129
 51
288.4966742192003153
  0
ARC
  5
3BE4
  8
0
 10
-0.5138985823283018
 20
4.3172019553836867
 30
0.0
 40
0.1609878151242905
 50
150.9118973522577107
 51
214.3740750350582971
  0
ARC
  5
3BE5
  8
0
 10
-0.5108555628765266
 20
4.3155090600184698
 30
0.0
 40
0.1644700359819391
 50
108.7397090953497951
 51
150.9118973522577107
  0
ARC
  5
3BE6
  8
0
 10
-0.5082053579277921
 20
4.2962414359460466
 30
0.0
 40
0.0742257057971497
 50
21.92867951571559
 51
157.2472588198749861
  0
ARC
  5
3BE7
  8
0
 10
-0.50818916711891
 20
4.2984928412691303
 30
0.0
 40
0.0733994417597743
 50
158.8730567827867048
 51
20.3028815524532611
  0
ARC
  5
3BE8
  8
0
 10
-0.5076990401123811
 20
4.3730522972108083
 30
0.0
 40
0.0841581112445414
 50
214.9370323544968073
 51
324.3096948633394163
  0
ARC
  5
3BE9
  8
0
 10
-0.5065071057391993
 20
4.3015786162766894
 30
0.0
 40
0.1308906466980743
 50
47.7902987825429619
 51
180.6970847475814992
  0
ARC
  5
3BEA
  8
0
 10
-0.503405760501456
 20
4.3049977599568647
 30
0.0
 40
0.1262744918274731
 50
325.3623368102489053
 51
47.7902987825433812
  0
ARC
  5
3BEB
  8
0
 10
-0.5066049931790348
 20
4.3072078679804484
 30
0.0
 40
0.1301628934529739
 50
245.1372343232073092
 51
325.3623368102489053
  0
ARC
  5
3BEC
  8
0
 10
-0.5059494609869524
 20
4.308622497694631
 30
0.0
 40
0.1317220277265718
 50
183.7592763668166924
 51
245.1372343232065987
  0
ARC
  5
3BED
  8
0
 10
-0.0788638490171123
 20
3.9558675237168148
 30
0.0
 40
0.1723695500671192
 50
34.3724723054967498
 51
108.8511302197984065
  0
ARC
  5
3BEE
  8
0
 10
-0.0708140553880106
 20
3.9613736535811799
 30
0.0
 40
0.1626167738698307
 50
330.158756209338776
 51
34.3724723054970909
  0
ARC
  5
3BEF
  8
0
 10
-0.0704778572680271
 20
3.96118078958414
 30
0.0
 40
0.1622291842708529
 50
288.4966742192003153
 51
330.1587562093387191
  0
ARC
  5
3BF0
  8
0
 10
-0.0741594091826534
 20
3.9721859113057141
 30
0.0
 40
0.1738337751127028
 50
214.3740750350580129
 51
288.4966742192003153
  0
ARC
  5
3BF1
  8
0
 10
-0.0847620669465328
 20
3.9649331644904779
 30
0.0
 40
0.1609878151242905
 50
150.9118973522577107
 51
214.3740750350582971
  0
ARC
  5
3BF2
  8
0
 10
-0.0817190474947576
 20
3.9632402691252611
 30
0.0
 40
0.1644700359819391
 50
108.7397090953497951
 51
150.9118973522577107
  0
ARC
  5
3BF3
  8
0
 10
-0.0790688425460231
 20
3.9439726450528378
 30
0.0
 40
0.0742257057971497
 50
21.92867951571559
 51
157.2472588198749861
  0
ARC
  5
3BF4
  8
0
 10
-0.0790526517371411
 20
3.9462240503759212
 30
0.0
 40
0.0733994417597743
 50
158.8730567827867048
 51
20.3028815524532611
  0
ARC
  5
3BF5
  8
0
 10
-0.0785625247306121
 20
4.0207835063175992
 30
0.0
 40
0.0841581112445414
 50
214.9370323544968073
 51
324.3096948633394163
  0
ARC
  5
3BF6
  8
0
 10
-0.0773705903574302
 20
3.9493098253834802
 30
0.0
 40
0.1308906466980743
 50
47.7902987825429619
 51
180.6970847475814992
  0
ARC
  5
3BF7
  8
0
 10
-0.0742692451196869
 20
3.952728969063656
 30
0.0
 40
0.1262744918274731
 50
325.3623368102489053
 51
47.7902987825433812
  0
ARC
  5
3BF8
  8
0
 10
-0.0774684777972659
 20
3.9549390770872388
 30
0.0
 40
0.1301628934529739
 50
245.1372343232073092
 51
325.3623368102489053
  0
ARC
  5
3BF9
  8
0
 10
-0.0768129456051834
 20
3.9563537068014218
 30
0.0
 40
0.1317220277265718
 50
183.7592763668166924
 51
245.1372343232065987
  0
ARC
  5
3BFA
  8
0
 10
-0.7236490784488132
 20
4.5703027312833981
 30
0.0
 40
0.0232797562782155
 50
48.7187424984742421
 51
177.8838819531420086
  0
ARC
  5
3BFB
  8
0
 10
-0.7236490784488132
 20
4.5703027312833981
 30
0.0
 40
0.0232797562782131
 50
177.8838819531418949
 51
48.7187424984750521
  0
ARC
  5
3BFC
  8
0
 10
-0.7239234380246251
 20
4.5672634697353578
 30
0.0
 40
0.0592630450443941
 50
47.4272398294775002
 51
163.3419864024594972
  0
ARC
  5
3BFD
  8
0
 10
-0.722866132065684
 20
4.5684143790409344
 30
0.0
 40
0.0577001988841876
 50
320.5139998275923858
 51
47.4272398294755604
  0
ARC
  5
3BFE
  8
0
 10
-0.7210082222932335
 20
4.5668835987125043
 30
0.0
 40
0.0552928939312437
 50
241.2453415498692948
 51
320.5139998275924995
  0
ARC
  5
3BFF
  8
0
 10
-0.7245904155291673
 20
4.5712143621724231
 30
0.0
 40
0.057603722115712
 50
166.9189868530897911
 51
246.4483856686811123
  0
ARC
  5
3C00
  8
0
 10
-0.6107031453669367
 20
5.1852213086986723
 30
0.0
 40
0.0232797562782155
 50
48.7187424984742421
 51
177.8838819531420086
  0
ARC
  5
3C01
  8
0
 10
-0.6107031453669367
 20
5.1852213086986723
 30
0.0
 40
0.0232797562782131
 50
177.8838819531418949
 51
48.7187424984750521
  0
ARC
  5
3C02
  8
0
 10
-0.6109775049427486
 20
5.1821820471506319
 30
0.0
 40
0.0592630450443941
 50
47.4272398294775002
 51
163.3419864024594972
  0
ARC
  5
3C03
  8
0
 10
-0.6099201989838074
 20
5.1833329564562076
 30
0.0
 40
0.0577001988841876
 50
320.5139998275923858
 51
47.4272398294755604
  0
ARC
  5
3C04
  8
0
 10
-0.608062289211357
 20
5.1818021761277784
 30
0.0
 40
0.0552928939312437
 50
241.2453415498692948
 51
320.5139998275924995
  0
ARC
  5
3C05
  8
0
 10
-0.6116444824472907
 20
5.1861329395876972
 30
0.0
 40
0.057603722115712
 50
166.9189868530897911
 51
246.4483856686811123
  0
ARC
  5
3C06
  8
0
 10
-0.1149057242014559
 20
5.5832464754568667
 30
0.0
 40
0.0232797562782155
 50
48.7187424984742421
 51
177.8838819531420086
  0
ARC
  5
3C07
  8
0
 10
-0.1149057242014559
 20
5.5832464754568667
 30
0.0
 40
0.0232797562782131
 50
177.8838819531418949
 51
48.7187424984750521
  0
ARC
  5
3C08
  8
0
 10
-0.1151800837772678
 20
5.5802072139088281
 30
0.0
 40
0.0592630450443941
 50
47.4272398294775002
 51
163.3419864024594972
  0
ARC
  5
3C09
  8
0
 10
-0.1141227778183267
 20
5.5813581232144029
 30
0.0
 40
0.0577001988841876
 50
320.5139998275923858
 51
47.4272398294755604
  0
ARC
  5
3C0A
  8
0
 10
-0.1122648680458762
 20
5.5798273428859728
 30
0.0
 40
0.0552928939312437
 50
241.2453415498692948
 51
320.5139998275924995
  0
ARC
  5
3C0B
  8
0
 10
-0.1158470612818099
 20
5.5841581063458916
 30
0.0
 40
0.057603722115712
 50
166.9189868530897911
 51
246.4483856686811123
  0
ARC
  5
3C0C
  8
0
 10
0.2072365998485464
 20
3.8132494847226459
 30
0.0
 40
0.0232797562782155
 50
48.7187424984742421
 51
177.8838819531420086
  0
ARC
  5
3C0D
  8
0
 10
0.2072365998485464
 20
3.8132494847226459
 30
0.0
 40
0.0232797562782131
 50
177.8838819531418949
 51
48.7187424984750521
  0
ARC
  5
3C0E
  8
0
 10
0.2069622402727345
 20
3.8102102231746069
 30
0.0
 40
0.0592630450443941
 50
47.4272398294775002
 51
163.3419864024594972
  0
ARC
  5
3C0F
  8
0
 10
0.2080195462316721
 20
3.811361132480183
 30
0.0
 40
0.0577001988841876
 50
320.5139998275923858
 51
47.4272398294755604
  0
ARC
  5
3C10
  8
0
 10
0.2098774560041261
 20
3.809830352151752
 30
0.0
 40
0.0552928939312437
 50
241.2453415498692948
 51
320.5139998275924995
  0
ARC
  5
3C11
  8
0
 10
0.2062952627681907
 20
3.8141611156116708
 30
0.0
 40
0.057603722115712
 50
166.9189868530897911
 51
246.4483856686811123
  0
ARC
  5
3C12
  8
0
 10
-0.3996705639911045
 20
4.0287637843413222
 30
0.0
 40
0.0232797562782155
 50
48.7187424984742421
 51
177.8838819531420086
  0
ARC
  5
3C13
  8
0
 10
-0.3996705639911045
 20
4.0287637843413222
 30
0.0
 40
0.0232797562782131
 50
177.8838819531418949
 51
48.7187424984750521
  0
ARC
  5
3C14
  8
0
 10
-0.3999449235669164
 20
4.0257245227932819
 30
0.0
 40
0.0592630450443941
 50
47.4272398294775002
 51
163.3419864024594972
  0
ARC
  5
3C15
  8
0
 10
-0.3988876176079752
 20
4.0268754320988576
 30
0.0
 40
0.0577001988841876
 50
320.5139998275923858
 51
47.4272398294755604
  0
ARC
  5
3C16
  8
0
 10
-0.3970297078355247
 20
4.0253446517704283
 30
0.0
 40
0.0552928939312437
 50
241.2453415498692948
 51
320.5139998275924995
  0
ARC
  5
3C17
  8
0
 10
-0.4006119010714584
 20
4.0296754152303471
 30
0.0
 40
0.057603722115712
 50
166.9189868530897911
 51
246.4483856686811123
  0
ARC
  5
3C18
  8
0
 10
0.1865790200897348
 20
-17.3787749071349715
 30
0.0
 40
24.7931357966542691
 50
87.7732371375596045
 51
89.9522612919242022
  0
ARC
  5
3C19
  8
0
 10
0.8393252018958072
 20
-0.5917297792305664
 30
0.0
 40
7.9934047957078107
 50
81.8391167867528537
 51
87.773237242251227
  0
ARC
  5
3C1A
  8
0
 10
1.7613789878269259
 20
5.8379718868534383
 30
0.0
 40
1.497925852704967
 50
69.3743090789059238
 51
81.8391167867530669
  0
ARC
  5
3C1B
  8
0
 10
2.0873750857013742
 20
6.704091060384445
 30
0.0
 40
0.5724876437534442
 50
50.4791716951427603
 51
69.3743090789057391
  0
ARC
  5
3C1C
  8
0
 10
2.18407347175481
 20
6.8213087391679919
 30
0.0
 40
0.4205318538514409
 50
21.5789662198570298
 51
50.4791716951427603
  0
ARC
  5
3C1D
  8
0
 10
1.4208694428492621
 20
6.4806172448718833
 30
0.0
 40
1.256064145079554
 50
8.9622738914113622
 51
23.2267890270666584
  0
ARC
  5
3C1E
  8
0
 10
-1.178214066867874
 20
5.9569902995919541
 30
0.0
 40
3.906604061376207
 50
4.3836585630941087
 51
10.6100966986211507
  0
ARC
  5
3C1F
  8
0
 10
73.8943817196529267
 20
8.7359769059746064
 30
0.0
 40
71.2206252064837884
 50
181.9958324194275008
 51
182.8941816438909029
  0
ARC
  5
3C20
  8
0
 10
-47.7109288165236833
 20
5.8130968747680782
 30
0.0
 40
50.4800164911996134
 50
357.6561937624427969
 51
359.2359306439423108
  0
ARC
  5
3C21
  8
0
 10
-3.1730986689033558
 20
4.1004177875277099
 30
0.0
 40
5.9104312490129622
 50
350.0561528929063115
 51
356.5882331158928764
  0
ARC
  5
3C22
  8
0
 10
1.8048143338262681
 20
3.1727938475389692
 30
0.0
 40
0.8488393004730145
 50
323.6571610119880802
 51
353.7095170767352101
  0
ARC
  5
3C23
  8
0
 10
1.956117259299951
 20
3.1295278982064358
 30
0.0
 40
0.7034657565107839
 50
288.8228826152598003
 51
319.1881168594014753
  0
ARC
  5
3C24
  8
0
 10
-10.7376764316256192
 20
38.6874879805055016
 30
0.0
 40
38.4592009807903494
 50
288.8487817388444228
 51
289.6309404093639728
  0
ARC
  5
3C25
  8
0
 10
2.7408439812200771
 20
-0.6959261716627206
 30
0.0
 40
3.1669483859596519
 50
109.4289521389962943
 51
118.9090196638776007
  0
ARC
  5
3C26
  8
0
 10
1.519298737655763
 20
1.459435087559114
 30
0.0
 40
0.6901937756785655
 50
116.6353804840618977
 51
152.8584306582482952
  0
ARC
  5
3C27
  8
0
 10
2.5990960394172009
 20
1.2836256839010529
 30
0.0
 40
1.763619286581074
 50
163.8461650135272123
 51
176.9059529225484937
  0
ARC
  5
3C28
  8
0
 10
0.1553605596358065
 20
2.4700538370239791
 30
0.0
 40
1.25545357657483
 50
272.3681677073209926
 51
275.4696737559228836
  0
ARC
  5
3C29
  8
0
 10
0.2039361366003303
 20
1.7012909849552069
 30
0.0
 40
0.4862001113991889
 50
278.4080135268084177
 51
294.9705326034837753
  0
ARC
  5
3C2A
  8
0
 10
0.1941453146462533
 20
1.7223156945558671
 30
0.0
 40
0.5093927526530098
 50
294.9705326034837753
 51
312.1455671659052769
  0
ARC
  5
3C2B
  8
0
 10
0.1484978423432079
 20
1.772754055369109
 30
0.0
 40
0.5774200998685521
 50
312.1455671659052769
 51
331.0025117802433101
  0
ARC
  5
3C2C
  8
0
 10
-0.4587464918162492
 20
2.1093202867046972
 30
0.0
 40
1.271698509041848
 50
331.0025117802433101
 51
338.2186201424036085
  0
ARC
  5
3C2D
  8
0
 10
9.6962965323821102
 20
-1.948579463650459
 30
0.0
 40
9.6640890349465671
 50
157.638688924659192
 51
158.2186201424038074
  0
ARC
  5
3C2E
  8
0
 10
1.580169922776967
 20
1.390236867793049
 30
0.0
 40
0.8880303729813592
 50
144.9624406871539009
 51
157.638688924659192
  0
ARC
  5
3C2F
  8
0
 10
1.481076003755045
 20
1.4226990590859641
 30
0.0
 40
0.7888402829884109
 50
129.8538701196297893
 51
142.7602581092747869
  0
ARC
  5
3C30
  8
0
 10
1.663978314247859
 20
1.192366215414743
 30
0.0
 40
1.0828960165081141
 50
119.9361602162943967
 51
129.4732391486367078
  0
ARC
  5
3C31
  8
0
 10
2.4235340850052038
 20
-0.1567248235145575
 30
0.0
 40
2.6310816233927938
 50
109.5543352423356964
 51
119.6089451586156969
  0
ARC
  5
3C32
  8
0
 10
14.0511507315902797
 20
-33.2904990634527422
 30
0.0
 40
37.7458539131371822
 50
108.5139408789090965
 51
109.3525899286694028
  0
ARC
  5
3C33
  8
0
 10
1.825796320240183
 20
3.2895895946534242
 30
0.0
 40
0.8233833402911779
 50
286.9255079145056015
 51
313.6967092044922083
  0
ARC
  5
3C34
  8
0
 10
2.1426727548280331
 20
2.9439933821531912
 30
0.0
 40
0.3547349537492633
 50
315.25524611234232
 51
328.0825942633197769
  0
ARC
  5
3C35
  8
0
 10
1.9278796888495611
 20
3.0777808401571418
 30
0.0
 40
0.6077866186550502
 50
328.0825942633200043
 51
345.7353705605991081
  0
ARC
  5
3C36
  8
0
 10
-0.220052212993028
 20
3.6238698972828969
 30
0.0
 40
2.8240503018086649
 50
345.7353705605992218
 51
352.5243952767490896
  0
ARC
  5
3C37
  8
0
 10
-6.3881533063036002
 20
4.353384924414307
 30
0.0
 40
9.0349844965166124
 50
353.0265285756156004
 51
358.961645007074992
  0
ARC
  5
3C38
  8
0
 10
-17.2145009271898992
 20
4.8017134463744986
 30
0.0
 40
19.869277693628689
 50
358.2347678231104737
 51
1.9184949763880299
  0
ARC
  5
3C39
  8
0
 10
-4.8356130014654068
 20
5.3468966793093493
 30
0.0
 40
7.4802148152723991
 50
0.9191692405388181
 51
8.9936475657056327
  0
ARC
  5
3C3A
  8
0
 10
1.569309837044045
 20
6.3827661872792483
 30
0.0
 40
0.9923452504937138
 50
7.7299602666153708
 51
25.9553820409710809
  0
ARC
  5
3C3B
  8
0
 10
2.1524453002992452
 20
6.6666184403631226
 30
0.0
 40
0.3437937335834174
 50
25.9553820409709886
 51
55.646452082608981
  0
ARC
  5
3C3C
  8
0
 10
2.078224683360371
 20
6.5580332181423451
 30
0.0
 40
0.4753211089222513
 50
55.6464520826087394
 51
74.8851042028542935
  0
ARC
  5
3C3D
  8
0
 10
1.5399441722524001
 20
4.5651371149728561
 30
0.0
 40
2.5396323225397111
 50
74.8851042028542935
 51
84.995964175203909
  0
ARC
  5
3C3E
  8
0
 10
0.1792120361304836
 20
-10.9754945282648002
 30
0.0
 40
18.1397228292346817
 50
84.995964175203909
 51
87.6541943685980556
  0
ARC
  5
3C3F
  8
0
 10
0.2123386196572494
 20
-15.3775919795831992
 30
0.0
 40
22.5377845708568003
 50
88.1964031872530683
 51
90.0129704054809991
  0
ARC
  5
3C40
  8
0
 10
0.6367158367204661
 20
5.9524990933290134
 30
0.0
 40
0.0234812541910901
 50
321.6921064823077927
 51
22.1213219182866396
  0
ARC
  5
3C41
  8
0
 10
0.636961221010278
 20
5.9525988399459742
 30
0.0
 40
0.0232163715052031
 50
22.1213219182878689
 51
86.5152089431805251
  0
ARC
  5
3C42
  8
0
 10
0.6369008867394969
 20
5.9516080673639742
 30
0.0
 40
0.0242089794507037
 50
86.5152089431862379
 51
137.253966839667612
  0
ARC
  5
3C43
  8
0
 10
0.6362418583082849
 20
5.952217182368936
 30
0.0
 40
0.0233115723176723
 50
137.2539668396686068
 51
187.6902028123768957
  0
ARC
  5
3C44
  8
0
 10
0.636330702256533
 20
5.9522291790729609
 30
0.0
 40
0.0234012225717067
 50
187.6902028123722062
 51
243.5392951642577088
  0
ARC
  5
3C45
  8
0
 10
0.6364516160004748
 20
5.9524721116199331
 30
0.0
 40
0.0236725827674818
 50
243.5392951642575099
 51
322.1397761333244034
  0
ARC
  5
3C46
  8
0
 10
0.6364249478264165
 20
5.9681259726963658
 30
0.0
 40
0.0951293626435644
 50
69.4602525135243383
 51
129.1400690166146887
  0
ARC
  5
3C47
  8
0
 10
0.6359061837419624
 20
5.9682311645406569
 30
0.0
 40
0.0947209176757482
 50
128.9368513591174121
 51
179.8973781515817052
  0
ARC
  5
3C48
  8
0
 10
0.6341947437300846
 20
5.9683275996592862
 30
0.0
 40
0.0930093545508699
 50
179.9548958745290861
 51
248.7592927724469973
  0
ARC
  5
3C49
  8
0
 10
0.6349565846656589
 20
5.9702876113988914
 30
0.0
 40
0.0951122210778945
 50
248.7592927724469973
 51
325.296723336343689
  0
ARC
  5
3C4A
  8
0
 10
0.6352265949557463
 20
5.9701006245640746
 30
0.0
 40
0.0947837859501335
 50
325.2967233363419268
 51
24.0335796108882711
  0
ARC
  5
3C4B
  8
0
 10
0.6385342335130311
 20
5.9715756035312211
 30
0.0
 40
0.0911621791549156
 50
24.0335796108874789
 51
69.9409811840559712
  0
ARC
  5
3C4C
  8
0
 10
0.6353857995523918
 20
5.9655847831398878
 30
0.0
 40
0.0683612722615737
 50
357.7302211432688068
 51
37.2596859047560613
  0
ARC
  5
3C4D
  8
0
 10
0.6380274776294393
 20
5.9675942667238706
 30
0.0
 40
0.0650421628423086
 50
37.2596859047560613
 51
65.1087802499036741
  0
ARC
  5
3C4E
  8
0
 10
0.6372183056677124
 20
5.9658503552264932
 30
0.0
 40
0.0669646577250933
 50
65.1087802499034609
 51
106.6603496789803955
  0
ARC
  5
3C4F
  8
0
 10
0.6373875887392622
 20
5.9652846834068214
 30
0.0
 40
0.0675551163315021
 50
106.6603496789796992
 51
139.4930044649842102
  0
ARC
  5
3C50
  8
0
 10
0.6391734163202188
 20
5.9637590654314776
 30
0.0
 40
0.0699038799116861
 50
139.4930044649823913
 51
164.9334327588321116
  0
ARC
  5
3C51
  8
0
 10
0.6461395456446759
 20
5.9618838195503576
 30
0.0
 40
0.0771179983526137
 50
164.9334327588333906
 51
197.910885429548614
  0
ARC
  5
3C52
  8
0
 10
0.634777702907723
 20
5.9582116604018722
 30
0.0
 40
0.0651774697549724
 50
197.910885429548614
 51
242.3212171461451021
  0
ARC
  5
3C53
  8
0
 10
0.6362297447918089
 20
5.9609798828616043
 30
0.0
 40
0.0683034066096931
 50
242.3212171461441926
 51
296.807435302197689
  0
ARC
  5
3C54
  8
0
 10
0.6374241551761523
 20
5.958616114453946
 30
0.0
 40
0.065655007611945
 50
296.8074353021982006
 51
331.6505777544560942
  0
ARC
  5
3C55
  8
0
 10
0.6327592287533719
 20
5.9611331114406951
 30
0.0
 40
0.0709556502485733
 50
331.6505777544580269
 51
1.4085936621905739
  0
ARC
  5
3C56
  8
0
 10
0.7247422858071709
 20
6.6978583367838018
 30
0.0
 40
0.0234812541910901
 50
321.6921064823077927
 51
22.1213219182866396
  0
ARC
  5
3C57
  8
0
 10
0.7249876700969793
 20
6.6979580834007626
 30
0.0
 40
0.0232163715052031
 50
22.1213219182878689
 51
86.5152089431805251
  0
ARC
  5
3C58
  8
0
 10
0.7249273358261981
 20
6.6969673108187626
 30
0.0
 40
0.0242089794507037
 50
86.5152089431862379
 51
137.253966839667612
  0
ARC
  5
3C59
  8
0
 10
0.7242683073949863
 20
6.6975764258237263
 30
0.0
 40
0.0233115723176723
 50
137.2539668396686068
 51
187.6902028123768957
  0
ARC
  5
3C5A
  8
0
 10
0.7243571513432379
 20
6.6975884225277511
 30
0.0
 40
0.0234012225717067
 50
187.6902028123722062
 51
243.5392951642577088
  0
ARC
  5
3C5B
  8
0
 10
0.7244780650871796
 20
6.6978313550747224
 30
0.0
 40
0.0236725827674818
 50
243.5392951642575099
 51
322.1397761333244034
  0
ARC
  5
3C5C
  8
0
 10
0.7244513969131213
 20
6.713485216151156
 30
0.0
 40
0.0951293626435644
 50
69.4602525135243383
 51
129.1400690166146887
  0
ARC
  5
3C5D
  8
0
 10
0.7239326328286673
 20
6.7135904079954472
 30
0.0
 40
0.0947209176757482
 50
128.9368513591174121
 51
179.8973781515817052
  0
ARC
  5
3C5E
  8
0
 10
0.7222211928167859
 20
6.7136868431140746
 30
0.0
 40
0.0930093545508699
 50
179.9548958745290861
 51
248.7592927724469973
  0
ARC
  5
3C5F
  8
0
 10
0.7229830337523602
 20
6.7156468548536798
 30
0.0
 40
0.0951122210778945
 50
248.7592927724469973
 51
325.296723336343689
  0
ARC
  5
3C60
  8
0
 10
0.7232530440424477
 20
6.715459868018864
 30
0.0
 40
0.0947837859501335
 50
325.2967233363419268
 51
24.0335796108882711
  0
ARC
  5
3C61
  8
0
 10
0.7265606825997324
 20
6.7169348469860104
 30
0.0
 40
0.0911621791549156
 50
24.0335796108874789
 51
69.9409811840559712
  0
ARC
  5
3C62
  8
0
 10
0.7234122486390966
 20
6.710944026594678
 30
0.0
 40
0.0683612722615737
 50
357.7302211432688068
 51
37.2596859047560613
  0
ARC
  5
3C63
  8
0
 10
0.7260539267161441
 20
6.7129535101786599
 30
0.0
 40
0.0650421628423086
 50
37.2596859047560613
 51
65.1087802499036741
  0
ARC
  5
3C64
  8
0
 10
0.7252447547544172
 20
6.7112095986812816
 30
0.0
 40
0.0669646577250933
 50
65.1087802499034609
 51
106.6603496789803955
  0
ARC
  5
3C65
  8
0
 10
0.7254140378259635
 20
6.7106439268616098
 30
0.0
 40
0.0675551163315021
 50
106.6603496789796992
 51
139.4930044649842102
  0
ARC
  5
3C66
  8
0
 10
0.7271998654069201
 20
6.7091183088862669
 30
0.0
 40
0.0699038799116861
 50
139.4930044649823913
 51
164.9334327588321116
  0
ARC
  5
3C67
  8
0
 10
0.7341659947313808
 20
6.7072430630051469
 30
0.0
 40
0.0771179983526137
 50
164.9334327588333906
 51
197.910885429548614
  0
ARC
  5
3C68
  8
0
 10
0.7228041519944278
 20
6.7035709038566607
 30
0.0
 40
0.0651774697549724
 50
197.910885429548614
 51
242.3212171461451021
  0
ARC
  5
3C69
  8
0
 10
0.7242561938785101
 20
6.7063391263163927
 30
0.0
 40
0.0683034066096931
 50
242.3212171461441926
 51
296.807435302197689
  0
ARC
  5
3C6A
  8
0
 10
0.7254506042628535
 20
6.7039753579087353
 30
0.0
 40
0.065655007611945
 50
296.8074353021982006
 51
331.6505777544560942
  0
ARC
  5
3C6B
  8
0
 10
0.7207856778400732
 20
6.7064923548954836
 30
0.0
 40
0.0709556502485733
 50
331.6505777544580837
 51
1.4085936621905739
  0
ARC
  5
3C6C
  8
0
 10
1.2409655388736409
 20
6.6762462031677989
 30
0.0
 40
0.0234812541910901
 50
321.6921064823077927
 51
22.1213219182866396
  0
ARC
  5
3C6D
  8
0
 10
1.2412109231634501
 20
6.6763459497847597
 30
0.0
 40
0.0232163715052031
 50
22.1213219182878689
 51
86.5152089431805251
  0
ARC
  5
3C6E
  8
0
 10
1.241150588892669
 20
6.6753551772027597
 30
0.0
 40
0.0242089794507037
 50
86.5152089431862379
 51
137.253966839667612
  0
ARC
  5
3C6F
  8
0
 10
1.240491560461457
 20
6.6759642922077234
 30
0.0
 40
0.0233115723176723
 50
137.2539668396686068
 51
187.6902028123768957
  0
ARC
  5
3C70
  8
0
 10
1.240580404409708
 20
6.6759762889117482
 30
0.0
 40
0.0234012225717067
 50
187.6902028123722062
 51
243.5392951642577088
  0
ARC
  5
3C71
  8
0
 10
1.2407013181536499
 20
6.6762192214587186
 30
0.0
 40
0.0236725827674818
 50
243.5392951642575099
 51
322.1397761333244034
  0
ARC
  5
3C72
  8
0
 10
1.240674649979592
 20
6.6918730825351531
 30
0.0
 40
0.0951293626435644
 50
69.4602525135243383
 51
129.1400690166146887
  0
ARC
  5
3C73
  8
0
 10
1.240155885895138
 20
6.6919782743794443
 30
0.0
 40
0.0947209176757482
 50
128.9368513591174121
 51
179.8973781515817052
  0
ARC
  5
3C74
  8
0
 10
1.238444445883256
 20
6.6920747094980717
 30
0.0
 40
0.0930093545508699
 50
179.9548958745290861
 51
248.7592927724469973
  0
ARC
  5
3C75
  8
0
 10
1.2392062868188309
 20
6.694034721237677
 30
0.0
 40
0.0951122210778945
 50
248.7592927724469973
 51
325.296723336343689
  0
ARC
  5
3C76
  8
0
 10
1.2394762971089179
 20
6.6938477344028611
 30
0.0
 40
0.0947837859501335
 50
325.2967233363419268
 51
24.0335796108882711
  0
ARC
  5
3C77
  8
0
 10
1.2427839356662029
 20
6.6953227133700066
 30
0.0
 40
0.0911621791549156
 50
24.0335796108874789
 51
69.9409811840559712
  0
ARC
  5
3C78
  8
0
 10
1.2396355017055669
 20
6.6893318929786751
 30
0.0
 40
0.0683612722615737
 50
357.7302211432688068
 51
37.2596859047560613
  0
ARC
  5
3C79
  8
0
 10
1.2422771797826151
 20
6.691341376562657
 30
0.0
 40
0.0650421628423086
 50
37.2596859047560613
 51
65.1087802499036741
  0
ARC
  5
3C7A
  8
0
 10
1.241468007820888
 20
6.6895974650652787
 30
0.0
 40
0.0669646577250933
 50
65.1087802499034609
 51
106.6603496789803955
  0
ARC
  5
3C7B
  8
0
 10
1.241637290892434
 20
6.6890317932456069
 30
0.0
 40
0.0675551163315021
 50
106.6603496789796992
 51
139.4930044649842102
  0
ARC
  5
3C7C
  8
0
 10
1.243423118473391
 20
6.687506175270264
 30
0.0
 40
0.0699038799116861
 50
139.4930044649823913
 51
164.9334327588321116
  0
ARC
  5
3C7D
  8
0
 10
1.2503892477978511
 20
6.6856309293891441
 30
0.0
 40
0.0771179983526137
 50
164.9334327588333906
 51
197.910885429548614
  0
ARC
  5
3C7E
  8
0
 10
1.239027405060898
 20
6.6819587702406578
 30
0.0
 40
0.0651774697549724
 50
197.910885429548614
 51
242.3212171461451021
  0
ARC
  5
3C7F
  8
0
 10
1.2404794469449809
 20
6.6847269927003898
 30
0.0
 40
0.0683034066096931
 50
242.3212171461441926
 51
296.807435302197689
  0
ARC
  5
3C80
  8
0
 10
1.241673857329324
 20
6.6823632242927324
 30
0.0
 40
0.065655007611945
 50
296.8074353021982006
 51
331.6505777544560942
  0
ARC
  5
3C81
  8
0
 10
1.237008930906544
 20
6.6848802212794807
 30
0.0
 40
0.0709556502485733
 50
331.6505777544580837
 51
1.4085936621905739
  0
ARC
  5
3C82
  8
0
 10
1.7513197610956039
 20
6.6019596654653654
 30
0.0
 40
0.0234812541910901
 50
321.6921064823077927
 51
22.1213219182866396
  0
ARC
  5
3C83
  8
0
 10
1.7515651453854131
 20
6.6020594120823262
 30
0.0
 40
0.0232163715052031
 50
22.1213219182878689
 51
86.5152089431805251
  0
ARC
  5
3C84
  8
0
 10
1.7515048111146321
 20
6.6010686395003262
 30
0.0
 40
0.0242089794507037
 50
86.5152089431862379
 51
137.253966839667612
  0
ARC
  5
3C85
  8
0
 10
1.7508457826834201
 20
6.601677754505288
 30
0.0
 40
0.0233115723176723
 50
137.2539668396686068
 51
187.6902028123768957
  0
ARC
  5
3C86
  8
0
 10
1.750934626631671
 20
6.6016897512093129
 30
0.0
 40
0.0234012225717067
 50
187.6902028123722062
 51
243.5392951642577088
  0
ARC
  5
3C87
  8
0
 10
1.751055540375613
 20
6.6019326837562851
 30
0.0
 40
0.0236725827674818
 50
243.5392951642575099
 51
322.1397761333244034
  0
ARC
  5
3C88
  8
0
 10
1.751028872201555
 20
6.6175865448327178
 30
0.0
 40
0.0951293626435644
 50
69.4602525135243383
 51
129.1400690166146887
  0
ARC
  5
3C89
  8
0
 10
1.7505101081171011
 20
6.6176917366770089
 30
0.0
 40
0.0947209176757482
 50
128.9368513591174121
 51
179.8973781515817052
  0
ARC
  5
3C8A
  8
0
 10
1.748798668105219
 20
6.6177881717956382
 30
0.0
 40
0.0930093545508699
 50
179.9548958745290861
 51
248.7592927724469973
  0
ARC
  5
3C8B
  8
0
 10
1.749560509040794
 20
6.6197481835352434
 30
0.0
 40
0.0951122210778945
 50
248.7592927724469973
 51
325.296723336343689
  0
ARC
  5
3C8C
  8
0
 10
1.749830519330881
 20
6.6195611967004266
 30
0.0
 40
0.0947837859501335
 50
325.2967233363419268
 51
24.0335796108882711
  0
ARC
  5
3C8D
  8
0
 10
1.753138157888166
 20
6.6210361756675731
 30
0.0
 40
0.0911621791549156
 50
24.0335796108874789
 51
69.9409811840559712
  0
ARC
  5
3C8E
  8
0
 10
1.7499897239275299
 20
6.6150453552762398
 30
0.0
 40
0.0683612722615737
 50
357.7302211432688068
 51
37.2596859047560613
  0
ARC
  5
3C8F
  8
0
 10
1.7526314020045779
 20
6.6170548388602226
 30
0.0
 40
0.0650421628423086
 50
37.2596859047560613
 51
65.1087802499036741
  0
ARC
  5
3C90
  8
0
 10
1.751822230042851
 20
6.6153109273628452
 30
0.0
 40
0.0669646577250933
 50
65.1087802499034609
 51
106.6603496789803955
  0
ARC
  5
3C91
  8
0
 10
1.751991513114397
 20
6.6147452555431734
 30
0.0
 40
0.0675551163315021
 50
106.6603496789796992
 51
139.4930044649842102
  0
ARC
  5
3C92
  8
0
 10
1.7537773406953541
 20
6.6132196375678296
 30
0.0
 40
0.0699038799116861
 50
139.4930044649823913
 51
164.9334327588321116
  0
ARC
  5
3C93
  8
0
 10
1.7607434700198139
 20
6.6113443916867096
 30
0.0
 40
0.0771179983526137
 50
164.9334327588333906
 51
197.910885429548614
  0
ARC
  5
3C94
  8
0
 10
1.7493816272828611
 20
6.6076722325382242
 30
0.0
 40
0.0651774697549724
 50
197.910885429548614
 51
242.3212171461451021
  0
ARC
  5
3C95
  8
0
 10
1.7508336691669439
 20
6.6104404549979563
 30
0.0
 40
0.0683034066096931
 50
242.3212171461441926
 51
296.807435302197689
  0
ARC
  5
3C96
  8
0
 10
1.752028079551287
 20
6.608076686590298
 30
0.0
 40
0.065655007611945
 50
296.8074353021982006
 51
331.6505777544560942
  0
ARC
  5
3C97
  8
0
 10
1.747363153128507
 20
6.6105936835770471
 30
0.0
 40
0.0709556502485733
 50
331.6505777544580837
 51
1.4085936621905739
  0
ARC
  5
3C98
  8
0
 10
2.1181846412941949
 20
6.2495125159639917
 30
0.0
 40
0.0234812541910901
 50
321.6921064823077927
 51
22.1213219182866396
  0
ARC
  5
3C99
  8
0
 10
2.1184300255840038
 20
6.2496122625809534
 30
0.0
 40
0.0232163715052031
 50
22.1213219182878689
 51
86.5152089431805251
  0
ARC
  5
3C9A
  8
0
 10
2.1183696913132231
 20
6.2486214899989534
 30
0.0
 40
0.0242089794507037
 50
86.5152089431862379
 51
137.253966839667612
  0
ARC
  5
3C9B
  8
0
 10
2.1177106628820108
 20
6.2492306050039161
 30
0.0
 40
0.0233115723176723
 50
137.2539668396686068
 51
187.6902028123768957
  0
ARC
  5
3C9C
  8
0
 10
2.117799506830262
 20
6.2492426017079401
 30
0.0
 40
0.0234012225717067
 50
187.6902028123722062
 51
243.5392951642577088
  0
ARC
  5
3C9D
  8
0
 10
2.1179204205742042
 20
6.2494855342549123
 30
0.0
 40
0.0236725827674818
 50
243.5392951642575099
 51
322.1397761333244034
  0
ARC
  5
3C9E
  8
0
 10
2.1178937524001462
 20
6.265139395331345
 30
0.0
 40
0.0951293626435644
 50
69.4602525135243383
 51
129.1400690166146887
  0
ARC
  5
3C9F
  8
0
 10
2.1173749883156918
 20
6.265244587175637
 30
0.0
 40
0.0947209176757482
 50
128.9368513591174121
 51
179.8973781515817052
  0
ARC
  5
3CA0
  8
0
 10
2.11566354830381
 20
6.2653410222942654
 30
0.0
 40
0.0930093545508699
 50
179.9548958745290861
 51
248.7592927724469973
  0
ARC
  5
3CA1
  8
0
 10
2.1164253892393852
 20
6.2673010340338697
 30
0.0
 40
0.0951122210778945
 50
248.7592927724469973
 51
325.296723336343689
  0
ARC
  5
3CA2
  8
0
 10
2.1166953995294722
 20
6.2671140471990539
 30
0.0
 40
0.0947837859501335
 50
325.2967233363419268
 51
24.0335796108882711
  0
ARC
  5
3CA3
  8
0
 10
2.1200030380867569
 20
6.2685890261662003
 30
0.0
 40
0.0911621791549156
 50
24.0335796108874789
 51
69.9409811840559712
  0
ARC
  5
3CA4
  8
0
 10
2.1168546041261211
 20
6.262598205774867
 30
0.0
 40
0.0683612722615737
 50
357.7302211432688068
 51
37.2596859047560613
  0
ARC
  5
3CA5
  8
0
 10
2.1194962822031691
 20
6.2646076893588498
 30
0.0
 40
0.0650421628423086
 50
37.2596859047560613
 51
65.1087802499036741
  0
ARC
  5
3CA6
  8
0
 10
2.1186871102414422
 20
6.2628637778614724
 30
0.0
 40
0.0669646577250933
 50
65.1087802499034609
 51
106.6603496789803955
  0
ARC
  5
3CA7
  8
0
 10
2.118856393312988
 20
6.2622981060417997
 30
0.0
 40
0.0675551163315021
 50
106.6603496789796992
 51
139.4930044649842102
  0
ARC
  5
3CA8
  8
0
 10
2.1206422208939451
 20
6.2607724880664568
 30
0.0
 40
0.0699038799116861
 50
139.4930044649823913
 51
164.9334327588321116
  0
ARC
  5
3CA9
  8
0
 10
2.1276083502184049
 20
6.2588972421853368
 30
0.0
 40
0.0771179983526137
 50
164.9334327588333906
 51
197.910885429548614
  0
ARC
  5
3CAA
  8
0
 10
2.1162465074814518
 20
6.2552250830368514
 30
0.0
 40
0.0651774697549724
 50
197.910885429548614
 51
242.3212171461451021
  0
ARC
  5
3CAB
  8
0
 10
2.1176985493655351
 20
6.2579933054965826
 30
0.0
 40
0.0683034066096931
 50
242.3212171461441926
 51
296.807435302197689
  0
ARC
  5
3CAC
  8
0
 10
2.118892959749878
 20
6.2556295370889252
 30
0.0
 40
0.065655007611945
 50
296.8074353021982006
 51
331.6505777544560942
  0
ARC
  5
3CAD
  8
0
 10
2.1142280333270982
 20
6.2581465340756743
 30
0.0
 40
0.0709556502485733
 50
331.6505777544580837
 51
1.4085936621905739
  0
ARC
  5
3CAE
  8
0
 10
2.2008256995542328
 20
5.753640863975626
 30
0.0
 40
0.0234812541910901
 50
321.6921064823077927
 51
22.1213219182866396
  0
ARC
  5
3CAF
  8
0
 10
2.2010710838440408
 20
5.7537406105925859
 30
0.0
 40
0.0232163715052031
 50
22.1213219182878689
 51
86.5152089431805251
  0
ARC
  5
3CB0
  8
0
 10
2.20101074957326
 20
5.7527498380105859
 30
0.0
 40
0.0242089794507037
 50
86.5152089431862379
 51
137.253966839667612
  0
ARC
  5
3CB1
  8
0
 10
2.2003517211420478
 20
5.7533589530155487
 30
0.0
 40
0.0233115723176723
 50
137.2539668396686068
 51
187.6902028123768957
  0
ARC
  5
3CB2
  8
0
 10
2.2004405650902998
 20
5.7533709497195744
 30
0.0
 40
0.0234012225717067
 50
187.6902028123722062
 51
243.5392951642577088
  0
ARC
  5
3CB3
  8
0
 10
2.200561478834242
 20
5.7536138822665448
 30
0.0
 40
0.0236725827674818
 50
243.5392951642575099
 51
322.1397761333244034
  0
ARC
  5
3CB4
  8
0
 10
2.2005348106601832
 20
5.7692677433429793
 30
0.0
 40
0.0951293626435644
 50
69.4602525135243383
 51
129.1400690166146887
  0
ARC
  5
3CB5
  8
0
 10
2.2000160465757288
 20
5.7693729351872696
 30
0.0
 40
0.0947209176757482
 50
128.9368513591174121
 51
179.8973781515817052
  0
ARC
  5
3CB6
  8
0
 10
2.1983046065638479
 20
5.7694693703058979
 30
0.0
 40
0.0930093545508699
 50
179.9548958745290861
 51
248.7592927724469973
  0
ARC
  5
3CB7
  8
0
 10
2.1990664474994222
 20
5.771429382045504
 30
0.0
 40
0.0951122210778945
 50
248.7592927724469973
 51
325.296723336343689
  0
ARC
  5
3CB8
  8
0
 10
2.19933645778951
 20
5.7712423952106882
 30
0.0
 40
0.0947837859501335
 50
325.2967233363419268
 51
24.0335796108882711
  0
ARC
  5
3CB9
  8
0
 10
2.2026440963467939
 20
5.7727173741778328
 30
0.0
 40
0.0911621791549156
 50
24.0335796108874789
 51
69.9409811840559712
  0
ARC
  5
3CBA
  8
0
 10
2.199495662386159
 20
5.7667265537865013
 30
0.0
 40
0.0683612722615737
 50
357.7302211432688068
 51
37.2596859047560613
  0
ARC
  5
3CBB
  8
0
 10
2.2021373404632061
 20
5.7687360373704841
 30
0.0
 40
0.0650421628423086
 50
37.2596859047560613
 51
65.1087802499036741
  0
ARC
  5
3CBC
  8
0
 10
2.2013281685014792
 20
5.7669921258731049
 30
0.0
 40
0.0669646577250933
 50
65.1087802499034609
 51
106.6603496789803955
  0
ARC
  5
3CBD
  8
0
 10
2.201497451573025
 20
5.766426454053434
 30
0.0
 40
0.0675551163315021
 50
106.6603496789796992
 51
139.4930044649842102
  0
ARC
  5
3CBE
  8
0
 10
2.203283279153982
 20
5.7649008360780911
 30
0.0
 40
0.0699038799116861
 50
139.4930044649823913
 51
164.9334327588321116
  0
ARC
  5
3CBF
  8
0
 10
2.2102494084784432
 20
5.7630255901969711
 30
0.0
 40
0.0771179983526137
 50
164.9334327588333906
 51
197.910885429548614
  0
ARC
  5
3CC0
  8
0
 10
2.1988875657414901
 20
5.759353431048484
 30
0.0
 40
0.0651774697549724
 50
197.910885429548614
 51
242.3212171461451021
  0
ARC
  5
3CC1
  8
0
 10
2.2003396076255721
 20
5.762121653508216
 30
0.0
 40
0.0683034066096931
 50
242.3212171461441926
 51
296.807435302197689
  0
ARC
  5
3CC2
  8
0
 10
2.201534018009915
 20
5.7597578851005578
 30
0.0
 40
0.065655007611945
 50
296.8074353021982006
 51
331.6505777544560942
  0
ARC
  5
3CC3
  8
0
 10
2.1968690915871352
 20
5.7622748820873069
 30
0.0
 40
0.0709556502485733
 50
331.6505777544580837
 51
1.4085936621905739
  0
ARC
  5
3CC4
  8
0
 10
1.7289186212166809
 20
5.8831303351937194
 30
0.0
 40
0.0234812541910901
 50
321.6921064823077927
 51
22.1213219182866396
  0
ARC
  5
3CC5
  8
0
 10
1.7291640055064901
 20
5.8832300818106802
 30
0.0
 40
0.0232163715052031
 50
22.1213219182878689
 51
86.5152089431805251
  0
ARC
  5
3CC6
  8
0
 10
1.7291036712357091
 20
5.8822393092286802
 30
0.0
 40
0.0242089794507037
 50
86.5152089431862379
 51
137.253966839667612
  0
ARC
  5
3CC7
  8
0
 10
1.7284446428044971
 20
5.8828484242336421
 30
0.0
 40
0.0233115723176723
 50
137.2539668396686068
 51
187.6902028123768957
  0
ARC
  5
3CC8
  8
0
 10
1.728533486752748
 20
5.8828604209376669
 30
0.0
 40
0.0234012225717067
 50
187.6902028123722062
 51
243.5392951642577088
  0
ARC
  5
3CC9
  8
0
 10
1.7286544004966899
 20
5.8831033534846391
 30
0.0
 40
0.0236725827674818
 50
243.5392951642575099
 51
322.1397761333244034
  0
ARC
  5
3CCA
  8
0
 10
1.728627732322632
 20
5.8987572145610718
 30
0.0
 40
0.0951293626435644
 50
69.4602525135243383
 51
129.1400690166146887
  0
ARC
  5
3CCB
  8
0
 10
1.7281089682381781
 20
5.898862406405363
 30
0.0
 40
0.0947209176757482
 50
128.9368513591174121
 51
179.8973781515817052
  0
ARC
  5
3CCC
  8
0
 10
1.726397528226296
 20
5.8989588415239922
 30
0.0
 40
0.0930093545508699
 50
179.9548958745290861
 51
248.7592927724469973
  0
ARC
  5
3CCD
  8
0
 10
1.727159369161871
 20
5.9009188532635974
 30
0.0
 40
0.0951122210778945
 50
248.7592927724469973
 51
325.296723336343689
  0
ARC
  5
3CCE
  8
0
 10
1.727429379451958
 20
5.9007318664287807
 30
0.0
 40
0.0947837859501335
 50
325.2967233363419268
 51
24.0335796108882711
  0
ARC
  5
3CCF
  8
0
 10
1.730737018009243
 20
5.9022068453959271
 30
0.0
 40
0.0911621791549156
 50
24.0335796108874789
 51
69.9409811840559712
  0
ARC
  5
3CD0
  8
0
 10
1.7275885840486069
 20
5.8962160250045939
 30
0.0
 40
0.0683612722615737
 50
357.7302211432688068
 51
37.2596859047560613
  0
ARC
  5
3CD1
  8
0
 10
1.7302302621256549
 20
5.8982255085885766
 30
0.0
 40
0.0650421628423086
 50
37.2596859047560613
 51
65.1087802499036741
  0
ARC
  5
3CD2
  8
0
 10
1.729421090163928
 20
5.8964815970911992
 30
0.0
 40
0.0669646577250933
 50
65.1087802499034609
 51
106.6603496789803955
  0
ARC
  5
3CD3
  8
0
 10
1.729590373235474
 20
5.8959159252715274
 30
0.0
 40
0.0675551163315021
 50
106.6603496789796992
 51
139.4930044649842102
  0
ARC
  5
3CD4
  8
0
 10
1.7313762008164311
 20
5.8943903072961836
 30
0.0
 40
0.0699038799116861
 50
139.4930044649823913
 51
164.9334327588321116
  0
ARC
  5
3CD5
  8
0
 10
1.7383423301408909
 20
5.8925150614150636
 30
0.0
 40
0.0771179983526137
 50
164.9334327588333906
 51
197.910885429548614
  0
ARC
  5
3CD6
  8
0
 10
1.7269804874039381
 20
5.8888429022665782
 30
0.0
 40
0.0651774697549724
 50
197.910885429548614
 51
242.3212171461451021
  0
ARC
  5
3CD7
  8
0
 10
1.7284325292880209
 20
5.8916111247263103
 30
0.0
 40
0.0683034066096931
 50
242.3212171461441926
 51
296.807435302197689
  0
ARC
  5
3CD8
  8
0
 10
1.729626939672364
 20
5.889247356318652
 30
0.0
 40
0.065655007611945
 50
296.8074353021982006
 51
331.6505777544560942
  0
ARC
  5
3CD9
  8
0
 10
1.724962013249584
 20
5.8917643533054012
 30
0.0
 40
0.0709556502485733
 50
331.6505777544580837
 51
1.4085936621905739
  0
ARC
  5
3CDA
  8
0
 10
1.045490720922206
 20
5.8205005519845301
 30
0.0
 40
0.0234812541910901
 50
321.6921064823077927
 51
22.1213219182866396
  0
ARC
  5
3CDB
  8
0
 10
1.045736105212014
 20
5.82060029860149
 30
0.0
 40
0.0232163715052031
 50
22.1213219182878689
 51
86.5152089431805251
  0
ARC
  5
3CDC
  8
0
 10
1.045675770941233
 20
5.81960952601949
 30
0.0
 40
0.0242089794507037
 50
86.5152089431862379
 51
137.253966839667612
  0
ARC
  5
3CDD
  8
0
 10
1.045016742510021
 20
5.8202186410244527
 30
0.0
 40
0.0233115723176723
 50
137.2539668396686068
 51
187.6902028123768957
  0
ARC
  5
3CDE
  8
0
 10
1.045105586458273
 20
5.8202306377284776
 30
0.0
 40
0.0234012225717067
 50
187.6902028123722062
 51
243.5392951642577088
  0
ARC
  5
3CDF
  8
0
 10
1.045226500202215
 20
5.8204735702754489
 30
0.0
 40
0.0236725827674818
 50
243.5392951642575099
 51
322.1397761333244034
  0
ARC
  5
3CE0
  8
0
 10
1.0451998320281559
 20
5.8361274313518834
 30
0.0
 40
0.0951293626435644
 50
69.4602525135243383
 51
129.1400690166146887
  0
ARC
  5
3CE1
  8
0
 10
1.044681067943702
 20
5.8362326231961736
 30
0.0
 40
0.0947209176757482
 50
128.9368513591174121
 51
179.8973781515817052
  0
ARC
  5
3CE2
  8
0
 10
1.042969627931821
 20
5.836329058314802
 30
0.0
 40
0.0930093545508699
 50
179.9548958745290861
 51
248.7592927724469973
  0
ARC
  5
3CE3
  8
0
 10
1.0437314688673951
 20
5.8382890700544081
 30
0.0
 40
0.0951122210778945
 50
248.7592927724469973
 51
325.296723336343689
  0
ARC
  5
3CE4
  8
0
 10
1.044001479157483
 20
5.8381020832195922
 30
0.0
 40
0.0947837859501335
 50
325.2967233363419268
 51
24.0335796108882711
  0
ARC
  5
3CE5
  8
0
 10
1.0473091177147671
 20
5.8395770621867369
 30
0.0
 40
0.0911621791549156
 50
24.0335796108874789
 51
69.9409811840559712
  0
ARC
  5
3CE6
  8
0
 10
1.044160683754132
 20
5.8335862417954054
 30
0.0
 40
0.0683612722615737
 50
357.7302211432688068
 51
37.2596859047560613
  0
ARC
  5
3CE7
  8
0
 10
1.046802361831179
 20
5.8355957253793882
 30
0.0
 40
0.0650421628423086
 50
37.2596859047560613
 51
65.1087802499036741
  0
ARC
  5
3CE8
  8
0
 10
1.0459931898694519
 20
5.833851813882009
 30
0.0
 40
0.0669646577250933
 50
65.1087802499034609
 51
106.6603496789803955
  0
ARC
  5
3CE9
  8
0
 10
1.0461624729409991
 20
5.8332861420623381
 30
0.0
 40
0.0675551163315021
 50
106.6603496789796992
 51
139.4930044649842102
  0
ARC
  5
3CEA
  8
0
 10
1.047948300521955
 20
5.8317605240869952
 30
0.0
 40
0.0699038799116861
 50
139.4930044649823913
 51
164.9334327588321116
  0
ARC
  5
3CEB
  8
0
 10
1.0549144298464159
 20
5.8298852782058752
 30
0.0
 40
0.0771179983526137
 50
164.9334327588333906
 51
197.910885429548614
  0
ARC
  5
3CEC
  8
0
 10
1.0435525871094631
 20
5.826213119057388
 30
0.0
 40
0.0651774697549724
 50
197.910885429548614
 51
242.3212171461451021
  0
ARC
  5
3CED
  8
0
 10
1.0450046289935451
 20
5.8289813415171201
 30
0.0
 40
0.0683034066096931
 50
242.3212171461441926
 51
296.807435302197689
  0
ARC
  5
3CEE
  8
0
 10
1.0461990393778891
 20
5.8266175731094618
 30
0.0
 40
0.065655007611945
 50
296.8074353021982006
 51
331.6505777544560942
  0
ARC
  5
3CEF
  8
0
 10
1.0415341129551079
 20
5.8291345700962109
 30
0.0
 40
0.0709556502485733
 50
331.6505777544580837
 51
1.4085936621905739
  0
ARC
  5
3CF0
  8
0
 10
1.394343554535058
 20
6.2060664178457401
 30
0.0
 40
0.0234812541910901
 50
321.6921064823077927
 51
22.1213219182866396
  0
ARC
  5
3CF1
  8
0
 10
1.3945889388248669
 20
6.2061661644627
 30
0.0
 40
0.0232163715052031
 50
22.1213219182878689
 51
86.5152089431805251
  0
ARC
  5
3CF2
  8
0
 10
1.3945286045540859
 20
6.2051753918807
 30
0.0
 40
0.0242089794507037
 50
86.5152089431862379
 51
137.253966839667612
  0
ARC
  5
3CF3
  8
0
 10
1.3938695761228741
 20
6.2057845068856627
 30
0.0
 40
0.0233115723176723
 50
137.2539668396686068
 51
187.6902028123768957
  0
ARC
  5
3CF4
  8
0
 10
1.393958420071125
 20
6.2057965035896876
 30
0.0
 40
0.0234012225717067
 50
187.6902028123722062
 51
243.5392951642577088
  0
ARC
  5
3CF5
  8
0
 10
1.394079333815067
 20
6.2060394361366589
 30
0.0
 40
0.0236725827674818
 50
243.5392951642575099
 51
322.1397761333244034
  0
ARC
  5
3CF6
  8
0
 10
1.394052665641009
 20
6.2216932972130934
 30
0.0
 40
0.0951293626435644
 50
69.4602525135243383
 51
129.1400690166146887
  0
ARC
  5
3CF7
  8
0
 10
1.3935339015565551
 20
6.2217984890573836
 30
0.0
 40
0.0947209176757482
 50
128.9368513591174121
 51
179.8973781515817052
  0
ARC
  5
3CF8
  8
0
 10
1.391822461544673
 20
6.221894924176012
 30
0.0
 40
0.0930093545508699
 50
179.9548958745290861
 51
248.7592927724469973
  0
ARC
  5
3CF9
  8
0
 10
1.392584302480248
 20
6.2238549359156181
 30
0.0
 40
0.0951122210778945
 50
248.7592927724469973
 51
325.296723336343689
  0
ARC
  5
3CFA
  8
0
 10
1.392854312770335
 20
6.2236679490808022
 30
0.0
 40
0.0947837859501335
 50
325.2967233363419268
 51
24.0335796108882711
  0
ARC
  5
3CFB
  8
0
 10
1.39616195132762
 20
6.2251429280479469
 30
0.0
 40
0.0911621791549156
 50
24.0335796108874789
 51
69.9409811840559712
  0
ARC
  5
3CFC
  8
0
 10
1.393013517366984
 20
6.2191521076566154
 30
0.0
 40
0.0683612722615737
 50
357.7302211432688068
 51
37.2596859047560613
  0
ARC
  5
3CFD
  8
0
 10
1.3956551954440319
 20
6.2211615912405982
 30
0.0
 40
0.0650421628423086
 50
37.2596859047560613
 51
65.1087802499036741
  0
ARC
  5
3CFE
  8
0
 10
1.394846023482305
 20
6.219417679743219
 30
0.0
 40
0.0669646577250933
 50
65.1087802499034609
 51
106.6603496789803955
  0
ARC
  5
3CFF
  8
0
 10
1.3950153065538511
 20
6.2188520079235481
 30
0.0
 40
0.0675551163315021
 50
106.6603496789796992
 51
139.4930044649842102
  0
ARC
  5
3D00
  8
0
 10
1.3968011341348081
 20
6.2173263899482052
 30
0.0
 40
0.0699038799116861
 50
139.4930044649823913
 51
164.9334327588321116
  0
ARC
  5
3D01
  8
0
 10
1.4037672634592679
 20
6.2154511440670852
 30
0.0
 40
0.0771179983526137
 50
164.9334327588333906
 51
197.910885429548614
  0
ARC
  5
3D02
  8
0
 10
1.3924054207223151
 20
6.211778984918598
 30
0.0
 40
0.0651774697549724
 50
197.910885429548614
 51
242.3212171461451021
  0
ARC
  5
3D03
  8
0
 10
1.393857462606398
 20
6.2145472073783301
 30
0.0
 40
0.0683034066096931
 50
242.3212171461441926
 51
296.807435302197689
  0
ARC
  5
3D04
  8
0
 10
1.3950518729907411
 20
6.2121834389706718
 30
0.0
 40
0.065655007611945
 50
296.8074353021982006
 51
331.6505777544560942
  0
ARC
  5
3D05
  8
0
 10
1.390386946567961
 20
6.2147004359574209
 30
0.0
 40
0.0709556502485733
 50
331.6505777544580837
 51
1.4085936621905739
  0
ARC
  5
3D06
  8
0
 10
0.9329834337462479
 20
6.2951391280411784
 30
0.0
 40
0.0234812541910901
 50
321.6921064823077927
 51
22.1213219182866396
  0
ARC
  5
3D07
  8
0
 10
0.9332288180360563
 20
6.2952388746581391
 30
0.0
 40
0.0232163715052031
 50
22.1213219182878689
 51
86.5152089431805251
  0
ARC
  5
3D08
  8
0
 10
0.9331684837652751
 20
6.2942481020761392
 30
0.0
 40
0.0242089794507037
 50
86.5152089431862379
 51
137.253966839667612
  0
ARC
  5
3D09
  8
0
 10
0.9325094553340633
 20
6.294857217081101
 30
0.0
 40
0.0233115723176723
 50
137.2539668396686068
 51
187.6902028123768957
  0
ARC
  5
3D0A
  8
0
 10
0.9325982992823149
 20
6.2948692137851259
 30
0.0
 40
0.0234012225717067
 50
187.6902028123722062
 51
243.5392951642577088
  0
ARC
  5
3D0B
  8
0
 10
0.9327192130262567
 20
6.295112146332098
 30
0.0
 40
0.0236725827674818
 50
243.5392951642575099
 51
322.1397761333244034
  0
ARC
  5
3D0C
  8
0
 10
0.9326925448521983
 20
6.3107660074085308
 30
0.0
 40
0.0951293626435644
 50
69.4602525135243383
 51
129.1400690166146887
  0
ARC
  5
3D0D
  8
0
 10
0.9321737807677443
 20
6.3108711992528219
 30
0.0
 40
0.0947209176757482
 50
128.9368513591174121
 51
179.8973781515817052
  0
ARC
  5
3D0E
  8
0
 10
0.9304623407558629
 20
6.3109676343714511
 30
0.0
 40
0.0930093545508699
 50
179.9548958745290861
 51
248.7592927724469973
  0
ARC
  5
3D0F
  8
0
 10
0.9312241816914372
 20
6.3129276461110564
 30
0.0
 40
0.0951122210778945
 50
248.7592927724469973
 51
325.296723336343689
  0
ARC
  5
3D10
  8
0
 10
0.9314941919815247
 20
6.3127406592762396
 30
0.0
 40
0.0947837859501335
 50
325.2967233363419268
 51
24.0335796108882711
  0
ARC
  5
3D11
  8
0
 10
0.9348018305388094
 20
6.3142156382433861
 30
0.0
 40
0.0911621791549156
 50
24.0335796108874789
 51
69.9409811840559712
  0
ARC
  5
3D12
  8
0
 10
0.9316533965781736
 20
6.3082248178520528
 30
0.0
 40
0.0683612722615737
 50
357.7302211432688068
 51
37.2596859047560613
  0
ARC
  5
3D13
  8
0
 10
0.9342950746552212
 20
6.3102343014360356
 30
0.0
 40
0.0650421628423086
 50
37.2596859047560613
 51
65.1087802499036741
  0
ARC
  5
3D14
  8
0
 10
0.9334859026934942
 20
6.3084903899386582
 30
0.0
 40
0.0669646577250933
 50
65.1087802499034609
 51
106.6603496789803955
  0
ARC
  5
3D15
  8
0
 10
0.9336551857650405
 20
6.3079247181189864
 30
0.0
 40
0.0675551163315021
 50
106.6603496789796992
 51
139.4930044649842102
  0
ARC
  5
3D16
  8
0
 10
0.9354410133459971
 20
6.3063991001436426
 30
0.0
 40
0.0699038799116861
 50
139.4930044649823913
 51
164.9334327588321116
  0
ARC
  5
3D17
  8
0
 10
0.9424071426704578
 20
6.3045238542625226
 30
0.0
 40
0.0771179983526137
 50
164.9334327588333906
 51
197.910885429548614
  0
ARC
  5
3D18
  8
0
 10
0.9310452999335048
 20
6.3008516951140372
 30
0.0
 40
0.0651774697549724
 50
197.910885429548614
 51
242.3212171461451021
  0
ARC
  5
3D19
  8
0
 10
0.9324973418175873
 20
6.3036199175737693
 30
0.0
 40
0.0683034066096931
 50
242.3212171461441926
 51
296.807435302197689
  0
ARC
  5
3D1A
  8
0
 10
0.9336917522019305
 20
6.3012561491661101
 30
0.0
 40
0.065655007611945
 50
296.8074353021982006
 51
331.6505777544560942
  0
ARC
  5
3D1B
  8
0
 10
0.9290268257791503
 20
6.3037731461528601
 30
0.0
 40
0.0709556502485733
 50
331.6505777544580837
 51
1.4085936621905739
  0
ARC
  5
3D1C
  8
0
 10
0.4611829194087389
 20
6.3311369034399041
 30
0.0
 40
0.0234812541910901
 50
321.6921064823077927
 51
22.1213219182866396
  0
ARC
  5
3D1D
  8
0
 10
0.4614283036985439
 20
6.3312366500568649
 30
0.0
 40
0.0232163715052031
 50
22.1213219182878689
 51
86.5152089431805251
  0
ARC
  5
3D1E
  8
0
 10
0.4613679694277662
 20
6.3302458774748649
 30
0.0
 40
0.0242089794507037
 50
86.5152089431862379
 51
137.253966839667612
  0
ARC
  5
3D1F
  8
0
 10
0.4607089409965508
 20
6.3308549924798276
 30
0.0
 40
0.0233115723176723
 50
137.2539668396686068
 51
187.6902028123768957
  0
ARC
  5
3D20
  8
0
 10
0.460797784944806
 20
6.3308669891838534
 30
0.0
 40
0.0234012225717067
 50
187.6902028123722062
 51
243.5392951642577088
  0
ARC
  5
3D21
  8
0
 10
0.4609186986887477
 20
6.3311099217308238
 30
0.0
 40
0.0236725827674818
 50
243.5392951642575099
 51
322.1397761333244034
  0
ARC
  5
3D22
  8
0
 10
0.4608920305146858
 20
6.3467637828072583
 30
0.0
 40
0.0951293626435644
 50
69.4602525135243383
 51
129.1400690166146887
  0
ARC
  5
3D23
  8
0
 10
0.4603732664302354
 20
6.3468689746515494
 30
0.0
 40
0.0947209176757482
 50
128.9368513591174121
 51
179.8973781515817052
  0
ARC
  5
3D24
  8
0
 10
0.458661826418354
 20
6.3469654097701769
 30
0.0
 40
0.0930093545508699
 50
179.9548958745290861
 51
248.7592927724469973
  0
ARC
  5
3D25
  8
0
 10
0.4594236673539283
 20
6.348925421509783
 30
0.0
 40
0.0951122210778945
 50
248.7592927724469973
 51
325.296723336343689
  0
ARC
  5
3D26
  8
0
 10
0.4596936776440157
 20
6.3487384346749671
 30
0.0
 40
0.0947837859501335
 50
325.2967233363419268
 51
24.0335796108882711
  0
ARC
  5
3D27
  8
0
 10
0.463001316201297
 20
6.3502134136421118
 30
0.0
 40
0.0911621791549156
 50
24.0335796108874789
 51
69.9409811840559712
  0
ARC
  5
3D28
  8
0
 10
0.4598528822406612
 20
6.3442225932507803
 30
0.0
 40
0.0683612722615737
 50
357.7302211432688068
 51
37.2596859047560613
  0
ARC
  5
3D29
  8
0
 10
0.4624945603177122
 20
6.3462320768347631
 30
0.0
 40
0.0650421628423086
 50
37.2596859047560613
 51
65.1087802499036741
  0
ARC
  5
3D2A
  8
0
 10
0.4616853883559853
 20
6.3444881653373839
 30
0.0
 40
0.0669646577250933
 50
65.1087802499034609
 51
106.6603496789803955
  0
ARC
  5
3D2B
  8
0
 10
0.461854671427528
 20
6.3439224935177121
 30
0.0
 40
0.0675551163315021
 50
106.6603496789796992
 51
139.4930044649842102
  0
ARC
  5
3D2C
  8
0
 10
0.4636404990084882
 20
6.3423968755423701
 30
0.0
 40
0.0699038799116861
 50
139.4930044649823913
 51
164.9334327588321116
  0
ARC
  5
3D2D
  8
0
 10
0.4706066283329489
 20
6.3405216296612501
 30
0.0
 40
0.0771179983526137
 50
164.9334327588333906
 51
197.910885429548614
  0
ARC
  5
3D2E
  8
0
 10
0.4592447855959923
 20
6.3368494705127629
 30
0.0
 40
0.0651774697549724
 50
197.910885429548614
 51
242.3212171461451021
  0
ARC
  5
3D2F
  8
0
 10
0.4606968274800747
 20
6.339617692972495
 30
0.0
 40
0.0683034066096931
 50
242.3212171461441926
 51
296.807435302197689
  0
ARC
  5
3D30
  8
0
 10
0.461891237864418
 20
6.3372539245648367
 30
0.0
 40
0.065655007611945
 50
296.8074353021982006
 51
331.6505777544560942
  0
ARC
  5
3D31
  8
0
 10
0.4572263114416413
 20
6.3397709215515858
 30
0.0
 40
0.0709556502485733
 50
331.6505777544580837
 51
1.4085936621905739
  0
ARC
  5
3D32
  8
0
 10
1.3510999608091681
 20
5.5274368554581406
 30
0.0
 40
0.0234812541910901
 50
321.6921064823077927
 51
22.1213219182866396
  0
ARC
  5
3D33
  8
0
 10
1.351345345098977
 20
5.5275366020751022
 30
0.0
 40
0.0232163715052031
 50
22.1213219182878689
 51
86.5152089431805251
  0
ARC
  5
3D34
  8
0
 10
1.3512850108281951
 20
5.5265458294931022
 30
0.0
 40
0.0242089794507037
 50
86.5152089431862379
 51
137.253966839667612
  0
ARC
  5
3D35
  8
0
 10
1.3506259823969839
 20
5.5271549444980641
 30
0.0
 40
0.0233115723176723
 50
137.2539668396686068
 51
187.6902028123768957
  0
ARC
  5
3D36
  8
0
 10
1.3507148263452351
 20
5.527166941202089
 30
0.0
 40
0.0234012225717067
 50
187.6902028123722062
 51
243.5392951642577088
  0
ARC
  5
3D37
  8
0
 10
1.3508357400891771
 20
5.5274098737490611
 30
0.0
 40
0.0236725827674818
 50
243.5392951642575099
 51
322.1397761333244034
  0
ARC
  5
3D38
  8
0
 10
1.3508090719151189
 20
5.5430637348254939
 30
0.0
 40
0.0951293626435644
 50
69.4602525135243383
 51
129.1400690166146887
  0
ARC
  5
3D39
  8
0
 10
1.3502903078306649
 20
5.543168926669785
 30
0.0
 40
0.0947209176757482
 50
128.9368513591174121
 51
179.8973781515817052
  0
ARC
  5
3D3A
  8
0
 10
1.3485788678187829
 20
5.5432653617884142
 30
0.0
 40
0.0930093545508699
 50
179.9548958745290861
 51
248.7592927724469973
  0
ARC
  5
3D3B
  8
0
 10
1.3493407087543581
 20
5.5452253735280186
 30
0.0
 40
0.0951122210778945
 50
248.7592927724469973
 51
325.296723336343689
  0
ARC
  5
3D3C
  8
0
 10
1.3496107190444451
 20
5.5450383866932027
 30
0.0
 40
0.0947837859501335
 50
325.2967233363419268
 51
24.0335796108882711
  0
ARC
  5
3D3D
  8
0
 10
1.3529183576017301
 20
5.5465133656603491
 30
0.0
 40
0.0911621791549156
 50
24.0335796108874789
 51
69.9409811840559712
  0
ARC
  5
3D3E
  8
0
 10
1.349769923641094
 20
5.5405225452690159
 30
0.0
 40
0.0683612722615737
 50
357.7302211432688068
 51
37.2596859047560613
  0
ARC
  5
3D3F
  8
0
 10
1.352411601718142
 20
5.5425320288529987
 30
0.0
 40
0.0650421628423086
 50
37.2596859047560613
 51
65.1087802499036741
  0
ARC
  5
3D40
  8
0
 10
1.3516024297564151
 20
5.5407881173556213
 30
0.0
 40
0.0669646577250933
 50
65.1087802499034609
 51
106.6603496789803955
  0
ARC
  5
3D41
  8
0
 10
1.3517717128279609
 20
5.5402224455359486
 30
0.0
 40
0.0675551163315021
 50
106.6603496789796992
 51
139.4930044649842102
  0
ARC
  5
3D42
  8
0
 10
1.3535575404089171
 20
5.5386968275606057
 30
0.0
 40
0.0699038799116861
 50
139.4930044649823913
 51
164.9334327588321116
  0
ARC
  5
3D43
  8
0
 10
1.360523669733378
 20
5.5368215816794857
 30
0.0
 40
0.0771179983526137
 50
164.9334327588333906
 51
197.910885429548614
  0
ARC
  5
3D44
  8
0
 10
1.349161826996425
 20
5.5331494225310003
 30
0.0
 40
0.0651774697549724
 50
197.910885429548614
 51
242.3212171461451021
  0
ARC
  5
3D45
  8
0
 10
1.3506138688805081
 20
5.5359176449907324
 30
0.0
 40
0.0683034066096931
 50
242.3212171461441926
 51
296.807435302197689
  0
ARC
  5
3D46
  8
0
 10
1.3518082792648509
 20
5.5335538765830741
 30
0.0
 40
0.065655007611945
 50
296.8074353021982006
 51
331.6505777544560942
  0
ARC
  5
3D47
  8
0
 10
1.3471433528420711
 20
5.5360708735698232
 30
0.0
 40
0.0709556502485733
 50
331.6505777544580837
 51
1.4085936621905739
  0
ARC
  5
3D48
  8
0
 10
1.8270434994123581
 20
5.4341458309000004
 30
0.0
 40
0.0234812541910901
 50
321.6921064823077927
 51
22.1213219182866396
  0
ARC
  5
3D49
  8
0
 10
1.8272888837021659
 20
5.4342455775169611
 30
0.0
 40
0.0232163715052031
 50
22.1213219182878689
 51
86.5152089431805251
  0
ARC
  5
3D4A
  8
0
 10
1.8272285494313849
 20
5.4332548049349612
 30
0.0
 40
0.0242089794507037
 50
86.5152089431862379
 51
137.253966839667612
  0
ARC
  5
3D4B
  8
0
 10
1.8265695210001729
 20
5.433863919939923
 30
0.0
 40
0.0233115723176723
 50
137.2539668396686068
 51
187.6902028123768957
  0
ARC
  5
3D4C
  8
0
 10
1.8266583649484249
 20
5.4338759166439479
 30
0.0
 40
0.0234012225717067
 50
187.6902028123722062
 51
243.5392951642577088
  0
ARC
  5
3D4D
  8
0
 10
1.8267792786923669
 20
5.43411884919092
 30
0.0
 40
0.0236725827674818
 50
243.5392951642575099
 51
322.1397761333244034
  0
ARC
  5
3D4E
  8
0
 10
1.8267526105183081
 20
5.4497727102673528
 30
0.0
 40
0.0951293626435644
 50
69.4602525135243383
 51
129.1400690166146887
  0
ARC
  5
3D4F
  8
0
 10
1.8262338464338539
 20
5.4498779021116439
 30
0.0
 40
0.0947209176757482
 50
128.9368513591174121
 51
179.8973781515817052
  0
ARC
  5
3D50
  8
0
 10
1.8245224064219729
 20
5.4499743372302731
 30
0.0
 40
0.0930093545508699
 50
179.9548958745290861
 51
248.7592927724469973
  0
ARC
  5
3D51
  8
0
 10
1.825284247357547
 20
5.4519343489698784
 30
0.0
 40
0.0951122210778945
 50
248.7592927724469973
 51
325.296723336343689
  0
ARC
  5
3D52
  8
0
 10
1.8255542576476349
 20
5.4517473621350616
 30
0.0
 40
0.0947837859501335
 50
325.2967233363419268
 51
24.0335796108882711
  0
ARC
  5
3D53
  8
0
 10
1.828861896204919
 20
5.453222341102208
 30
0.0
 40
0.0911621791549156
 50
24.0335796108874789
 51
69.9409811840559712
  0
ARC
  5
3D54
  8
0
 10
1.8257134622442841
 20
5.4472315207108748
 30
0.0
 40
0.0683612722615737
 50
357.7302211432688068
 51
37.2596859047560613
  0
ARC
  5
3D55
  8
0
 10
1.828355140321331
 20
5.4492410042948576
 30
0.0
 40
0.0650421628423086
 50
37.2596859047560613
 51
65.1087802499036741
  0
ARC
  5
3D56
  8
0
 10
1.827545968359604
 20
5.4474970927974802
 30
0.0
 40
0.0669646577250933
 50
65.1087802499034609
 51
106.6603496789803955
  0
ARC
  5
3D57
  8
0
 10
1.8277152514311501
 20
5.4469314209778084
 30
0.0
 40
0.0675551163315021
 50
106.6603496789796992
 51
139.4930044649842102
  0
ARC
  5
3D58
  8
0
 10
1.8295010790121069
 20
5.4454058030024646
 30
0.0
 40
0.0699038799116861
 50
139.4930044649823913
 51
164.9334327588321116
  0
ARC
  5
3D59
  8
0
 10
1.8364672083365681
 20
5.4435305571213446
 30
0.0
 40
0.0771179983526137
 50
164.9334327588333906
 51
197.910885429548614
  0
ARC
  5
3D5A
  8
0
 10
1.825105365599615
 20
5.4398583979728592
 30
0.0
 40
0.0651774697549724
 50
197.910885429548614
 51
242.3212171461451021
  0
ARC
  5
3D5B
  8
0
 10
1.826557407483697
 20
5.4426266204325913
 30
0.0
 40
0.0683034066096931
 50
242.3212171461441926
 51
296.807435302197689
  0
ARC
  5
3D5C
  8
0
 10
1.8277518178680401
 20
5.4402628520249321
 30
0.0
 40
0.065655007611945
 50
296.8074353021982006
 51
331.6505777544560942
  0
ARC
  5
3D5D
  8
0
 10
1.82308689144526
 20
5.4427798490116821
 30
0.0
 40
0.0709556502485733
 50
331.6505777544580837
 51
1.4085936621905739
  0
ARC
  5
3D5E
  8
0
 10
2.2269896820960211
 20
5.2521995534525479
 30
0.0
 40
0.0234812541910901
 50
321.6921064823077927
 51
22.1213219182866396
  0
ARC
  5
3D5F
  8
0
 10
2.22723506638583
 20
5.2522993000695086
 30
0.0
 40
0.0232163715052031
 50
22.1213219182878689
 51
86.5152089431805251
  0
ARC
  5
3D60
  8
0
 10
2.2271747321150488
 20
5.2513085274875086
 30
0.0
 40
0.0242089794507037
 50
86.5152089431862379
 51
137.253966839667612
  0
ARC
  5
3D61
  8
0
 10
2.226515703683837
 20
5.2519176424924723
 30
0.0
 40
0.0233115723176723
 50
137.2539668396686068
 51
187.6902028123768957
  0
ARC
  5
3D62
  8
0
 10
2.226604547632089
 20
5.2519296391964971
 30
0.0
 40
0.0234012225717067
 50
187.6902028123722062
 51
243.5392951642577088
  0
ARC
  5
3D63
  8
0
 10
2.2267254613760299
 20
5.2521725717434684
 30
0.0
 40
0.0236725827674818
 50
243.5392951642575099
 51
322.1397761333244034
  0
ARC
  5
3D64
  8
0
 10
2.2266987932019719
 20
5.267826432819902
 30
0.0
 40
0.0951293626435644
 50
69.4602525135243383
 51
129.1400690166146887
  0
ARC
  5
3D65
  8
0
 10
2.226180029117518
 20
5.2679316246641932
 30
0.0
 40
0.0947209176757482
 50
128.9368513591174121
 51
179.8973781515817052
  0
ARC
  5
3D66
  8
0
 10
2.2244685891056371
 20
5.2680280597828206
 30
0.0
 40
0.0930093545508699
 50
179.9548958745290861
 51
248.7592927724469973
  0
ARC
  5
3D67
  8
0
 10
2.2252304300412109
 20
5.2699880715224259
 30
0.0
 40
0.0951122210778945
 50
248.7592927724469973
 51
325.296723336343689
  0
ARC
  5
3D68
  8
0
 10
2.2255004403312979
 20
5.26980108468761
 30
0.0
 40
0.0947837859501335
 50
325.2967233363419268
 51
24.0335796108882711
  0
ARC
  5
3D69
  8
0
 10
2.2288080788885831
 20
5.2712760636547564
 30
0.0
 40
0.0911621791549156
 50
24.0335796108874789
 51
69.9409811840559712
  0
ARC
  5
3D6A
  8
0
 10
2.2256596449279469
 20
5.2652852432634241
 30
0.0
 40
0.0683612722615737
 50
357.7302211432688068
 51
37.2596859047560613
  0
ARC
  5
3D6B
  8
0
 10
2.2283013230049948
 20
5.267294726847406
 30
0.0
 40
0.0650421628423086
 50
37.2596859047560613
 51
65.1087802499036741
  0
ARC
  5
3D6C
  8
0
 10
2.2274921510432679
 20
5.2655508153500277
 30
0.0
 40
0.0669646577250933
 50
65.1087802499034609
 51
106.6603496789803955
  0
ARC
  5
3D6D
  8
0
 10
2.2276614341148142
 20
5.2649851435303558
 30
0.0
 40
0.0675551163315021
 50
106.6603496789796992
 51
139.4930044649842102
  0
ARC
  5
3D6E
  8
0
 10
2.2294472616957708
 20
5.263459525555013
 30
0.0
 40
0.0699038799116861
 50
139.4930044649823913
 51
164.9334327588321116
  0
ARC
  5
3D6F
  8
0
 10
2.2364133910202311
 20
5.261584279673893
 30
0.0
 40
0.0771179983526137
 50
164.9334327588333906
 51
197.910885429548614
  0
ARC
  5
3D70
  8
0
 10
2.225051548283278
 20
5.2579121205254067
 30
0.0
 40
0.0651774697549724
 50
197.910885429548614
 51
242.3212171461451021
  0
ARC
  5
3D71
  8
0
 10
2.2265035901673609
 20
5.2606803429851388
 30
0.0
 40
0.0683034066096931
 50
242.3212171461441926
 51
296.807435302197689
  0
ARC
  5
3D72
  8
0
 10
2.2276980005517042
 20
5.2583165745774814
 30
0.0
 40
0.065655007611945
 50
296.8074353021982006
 51
331.6505777544560942
  0
ARC
  5
3D73
  8
0
 10
2.2230330741289239
 20
5.2608335715642296
 30
0.0
 40
0.0709556502485733
 50
331.6505777544580269
 51
1.4085936621905739
  0
ARC
  5
3D74
  8
0
 10
2.23743920508372
 20
4.7508658828142876
 30
0.0
 40
0.0234812541910901
 50
321.6921064823077927
 51
22.1213219182866396
  0
ARC
  5
3D75
  8
0
 10
2.2376845893735289
 20
4.7509656294312492
 30
0.0
 40
0.0232163715052031
 50
22.1213219182878689
 51
86.5152089431805251
  0
ARC
  5
3D76
  8
0
 10
2.2376242551027481
 20
4.7499748568492492
 30
0.0
 40
0.0242089794507037
 50
86.5152089431862379
 51
137.253966839667612
  0
ARC
  5
3D77
  8
0
 10
2.2369652266715359
 20
4.7505839718542111
 30
0.0
 40
0.0233115723176723
 50
137.2539668396686068
 51
187.6902028123768957
  0
ARC
  5
3D78
  8
0
 10
2.237054070619787
 20
4.750595968558236
 30
0.0
 40
0.0234012225717067
 50
187.6902028123722062
 51
243.5392951642577088
  0
ARC
  5
3D79
  8
0
 10
2.2371749843637292
 20
4.7508389011052081
 30
0.0
 40
0.0236725827674818
 50
243.5392951642575099
 51
322.1397761333244034
  0
ARC
  5
3D7A
  8
0
 10
2.2371483161896708
 20
4.7664927621816409
 30
0.0
 40
0.0951293626435644
 50
69.4602525135243383
 51
129.1400690166146887
  0
ARC
  5
3D7B
  8
0
 10
2.2366295521052169
 20
4.766597954025932
 30
0.0
 40
0.0947209176757482
 50
128.9368513591174121
 51
179.8973781515817052
  0
ARC
  5
3D7C
  8
0
 10
2.234918112093335
 20
4.7666943891445612
 30
0.0
 40
0.0930093545508699
 50
179.9548958745290861
 51
248.7592927724469973
  0
ARC
  5
3D7D
  8
0
 10
2.2356799530289102
 20
4.7686544008841656
 30
0.0
 40
0.0951122210778945
 50
248.7592927724469973
 51
325.296723336343689
  0
ARC
  5
3D7E
  8
0
 10
2.2359499633189972
 20
4.7684674140493497
 30
0.0
 40
0.0947837859501335
 50
325.2967233363419268
 51
24.0335796108882711
  0
ARC
  5
3D7F
  8
0
 10
2.239257601876282
 20
4.7699423930164961
 30
0.0
 40
0.0911621791549156
 50
24.0335796108874789
 51
69.9409811840559712
  0
ARC
  5
3D80
  8
0
 10
2.2361091679156462
 20
4.7639515726251629
 30
0.0
 40
0.0683612722615737
 50
357.7302211432688068
 51
37.2596859047560613
  0
ARC
  5
3D81
  8
0
 10
2.2387508459926941
 20
4.7659610562091457
 30
0.0
 40
0.0650421628423086
 50
37.2596859047560613
 51
65.1087802499036741
  0
ARC
  5
3D82
  8
0
 10
2.2379416740309672
 20
4.7642171447117683
 30
0.0
 40
0.0669646577250933
 50
65.1087802499034609
 51
106.6603496789803955
  0
ARC
  5
3D83
  8
0
 10
2.2381109571025131
 20
4.7636514728920956
 30
0.0
 40
0.0675551163315021
 50
106.6603496789796992
 51
139.4930044649842102
  0
ARC
  5
3D84
  8
0
 10
2.2398967846834701
 20
4.7621258549167527
 30
0.0
 40
0.0699038799116861
 50
139.4930044649823913
 51
164.9334327588321116
  0
ARC
  5
3D85
  8
0
 10
2.2468629140079299
 20
4.7602506090356327
 30
0.0
 40
0.0771179983526137
 50
164.9334327588333906
 51
197.910885429548614
  0
ARC
  5
3D86
  8
0
 10
2.2355010712709769
 20
4.7565784498871473
 30
0.0
 40
0.0651774697549724
 50
197.910885429548614
 51
242.3212171461451021
  0
ARC
  5
3D87
  8
0
 10
2.2369531131550602
 20
4.7593466723468794
 30
0.0
 40
0.0683034066096931
 50
242.3212171461441926
 51
296.807435302197689
  0
ARC
  5
3D88
  8
0
 10
2.238147523539403
 20
4.7569829039392211
 30
0.0
 40
0.065655007611945
 50
296.8074353021982006
 51
331.6505777544560942
  0
ARC
  5
3D89
  8
0
 10
2.2334825971166228
 20
4.7594999009259702
 30
0.0
 40
0.0709556502485733
 50
331.6505777544580269
 51
1.4085936621905739
  0
ARC
  5
3D8A
  8
0
 10
1.86653652989958
 20
4.9789439138208911
 30
0.0
 40
0.0234812541910901
 50
321.6921064823077927
 51
22.1213219182866396
  0
ARC
  5
3D8B
  8
0
 10
1.866781914189388
 20
4.9790436604378518
 30
0.0
 40
0.0232163715052031
 50
22.1213219182878689
 51
86.5152089431805251
  0
ARC
  5
3D8C
  8
0
 10
1.866721579918607
 20
4.9780528878558519
 30
0.0
 40
0.0242089794507037
 50
86.5152089431862379
 51
137.253966839667612
  0
ARC
  5
3D8D
  8
0
 10
1.866062551487395
 20
4.9786620028608146
 30
0.0
 40
0.0233115723176723
 50
137.2539668396686068
 51
187.6902028123768957
  0
ARC
  5
3D8E
  8
0
 10
1.866151395435647
 20
4.9786739995648404
 30
0.0
 40
0.0234012225717067
 50
187.6902028123722062
 51
243.5392951642577088
  0
ARC
  5
3D8F
  8
0
 10
1.8662723091795881
 20
4.9789169321118107
 30
0.0
 40
0.0236725827674818
 50
243.5392951642575099
 51
322.1397761333244034
  0
ARC
  5
3D90
  8
0
 10
1.8662456410055299
 20
4.9945707931882453
 30
0.0
 40
0.0951293626435644
 50
69.4602525135243383
 51
129.1400690166146887
  0
ARC
  5
3D91
  8
0
 10
1.865726876921076
 20
4.9946759850325364
 30
0.0
 40
0.0947209176757482
 50
128.9368513591174121
 51
179.8973781515817052
  0
ARC
  5
3D92
  8
0
 10
1.864015436909195
 20
4.9947724201511638
 30
0.0
 40
0.0930093545508699
 50
179.9548958745290861
 51
248.7592927724469973
  0
ARC
  5
3D93
  8
0
 10
1.8647772778447691
 20
4.9967324318907691
 30
0.0
 40
0.0951122210778945
 50
248.7592927724469973
 51
325.296723336343689
  0
ARC
  5
3D94
  8
0
 10
1.8650472881348561
 20
4.9965454450559541
 30
0.0
 40
0.0947837859501335
 50
325.2967233363419268
 51
24.0335796108882711
  0
ARC
  5
3D95
  8
0
 10
1.8683549266921411
 20
4.9980204240230988
 30
0.0
 40
0.0911621791549156
 50
24.0335796108874789
 51
69.9409811840559712
  0
ARC
  5
3D96
  8
0
 10
1.8652064927315051
 20
4.9920296036317673
 30
0.0
 40
0.0683612722615737
 50
357.7302211432688068
 51
37.2596859047560613
  0
ARC
  5
3D97
  8
0
 10
1.867848170808553
 20
4.9940390872157501
 30
0.0
 40
0.0650421628423086
 50
37.2596859047560613
 51
65.1087802499036741
  0
ARC
  5
3D98
  8
0
 10
1.8670389988468259
 20
4.9922951757183709
 30
0.0
 40
0.0669646577250933
 50
65.1087802499034609
 51
106.6603496789803955
  0
ARC
  5
3D99
  8
0
 10
1.867208281918372
 20
4.9917295038986991
 30
0.0
 40
0.0675551163315021
 50
106.6603496789796992
 51
139.4930044649842102
  0
ARC
  5
3D9A
  8
0
 10
1.868994109499329
 20
4.9902038859233571
 30
0.0
 40
0.0699038799116861
 50
139.4930044649823913
 51
164.9334327588321116
  0
ARC
  5
3D9B
  8
0
 10
1.8759602388237899
 20
4.9883286400422371
 30
0.0
 40
0.0771179983526137
 50
164.9334327588333906
 51
197.910885429548614
  0
ARC
  5
3D9C
  8
0
 10
1.8645983960868371
 20
4.9846564808937499
 30
0.0
 40
0.0651774697549724
 50
197.910885429548614
 51
242.3212171461451021
  0
ARC
  5
3D9D
  8
0
 10
1.8660504379709191
 20
4.987424703353482
 30
0.0
 40
0.0683034066096931
 50
242.3212171461441926
 51
296.807435302197689
  0
ARC
  5
3D9E
  8
0
 10
1.8672448483552619
 20
4.9850609349458237
 30
0.0
 40
0.065655007611945
 50
296.8074353021982006
 51
331.6505777544560942
  0
ARC
  5
3D9F
  8
0
 10
1.8625799219324819
 20
4.9875779319325728
 30
0.0
 40
0.0709556502485733
 50
331.6505777544580269
 51
1.4085936621905739
  0
ARC
  5
3DA0
  8
0
 10
1.4874589615751039
 20
5.1334030162983382
 30
0.0
 40
0.0234812541910901
 50
321.6921064823077927
 51
22.1213219182866396
  0
ARC
  5
3DA1
  8
0
 10
1.487704345864912
 20
5.1335027629152981
 30
0.0
 40
0.0232163715052031
 50
22.1213219182878689
 51
86.5152089431805251
  0
ARC
  5
3DA2
  8
0
 10
1.487644011594131
 20
5.1325119903332981
 30
0.0
 40
0.0242089794507037
 50
86.5152089431862379
 51
137.253966839667612
  0
ARC
  5
3DA3
  8
0
 10
1.4869849831629189
 20
5.1331211053382608
 30
0.0
 40
0.0233115723176723
 50
137.2539668396686068
 51
187.6902028123768957
  0
ARC
  5
3DA4
  8
0
 10
1.487073827111171
 20
5.1331331020422857
 30
0.0
 40
0.0234012225717067
 50
187.6902028123722062
 51
243.5392951642577088
  0
ARC
  5
3DA5
  8
0
 10
1.4871947408551121
 20
5.133376034589257
 30
0.0
 40
0.0236725827674818
 50
243.5392951642575099
 51
322.1397761333244034
  0
ARC
  5
3DA6
  8
0
 10
1.4871680726810541
 20
5.1490298956656906
 30
0.0
 40
0.0951293626435644
 50
69.4602525135243383
 51
129.1400690166146887
  0
ARC
  5
3DA7
  8
0
 10
1.4866493085965999
 20
5.1491350875099817
 30
0.0
 40
0.0947209176757482
 50
128.9368513591174121
 51
179.8973781515817052
  0
ARC
  5
3DA8
  8
0
 10
1.484937868584719
 20
5.1492315226286101
 30
0.0
 40
0.0930093545508699
 50
179.9548958745290861
 51
248.7592927724469973
  0
ARC
  5
3DA9
  8
0
 10
1.4856997095202931
 20
5.1511915343682162
 30
0.0
 40
0.0951122210778945
 50
248.7592927724469973
 51
325.296723336343689
  0
ARC
  5
3DAA
  8
0
 10
1.4859697198103801
 20
5.1510045475334003
 30
0.0
 40
0.0947837859501335
 50
325.2967233363419268
 51
24.0335796108882711
  0
ARC
  5
3DAB
  8
0
 10
1.4892773583676651
 20
5.152479526500545
 30
0.0
 40
0.0911621791549156
 50
24.0335796108874789
 51
69.9409811840559712
  0
ARC
  5
3DAC
  8
0
 10
1.486128924407029
 20
5.1464887061092126
 30
0.0
 40
0.0683612722615737
 50
357.7302211432688068
 51
37.2596859047560613
  0
ARC
  5
3DAD
  8
0
 10
1.488770602484077
 20
5.1484981896931963
 30
0.0
 40
0.0650421628423086
 50
37.2596859047560613
 51
65.1087802499036741
  0
ARC
  5
3DAE
  8
0
 10
1.4879614305223501
 20
5.1467542781958171
 30
0.0
 40
0.0669646577250933
 50
65.1087802499034609
 51
106.6603496789803955
  0
ARC
  5
3DAF
  8
0
 10
1.4881307135938959
 20
5.1461886063761462
 30
0.0
 40
0.0675551163315021
 50
106.6603496789796992
 51
139.4930044649842102
  0
ARC
  5
3DB0
  8
0
 10
1.4899165411748529
 20
5.1446629884008033
 30
0.0
 40
0.0699038799116861
 50
139.4930044649823913
 51
164.9334327588321116
  0
ARC
  5
3DB1
  8
0
 10
1.4968826704993139
 20
5.1427877425196833
 30
0.0
 40
0.0771179983526137
 50
164.9334327588333906
 51
197.910885429548614
  0
ARC
  5
3DB2
  8
0
 10
1.4855208277623611
 20
5.139115583371197
 30
0.0
 40
0.0651774697549724
 50
197.910885429548614
 51
242.3212171461451021
  0
ARC
  5
3DB3
  8
0
 10
1.486972869646443
 20
5.1418838058309291
 30
0.0
 40
0.0683034066096931
 50
242.3212171461441926
 51
296.807435302197689
  0
ARC
  5
3DB4
  8
0
 10
1.4881672800307859
 20
5.1395200374232699
 30
0.0
 40
0.065655007611945
 50
296.8074353021982006
 51
331.6505777544560942
  0
ARC
  5
3DB5
  8
0
 10
1.4835023536080061
 20
5.142037034410019
 30
0.0
 40
0.0709556502485733
 50
331.6505777544580269
 51
1.4085936621905739
  0
ARC
  5
3DB6
  8
0
 10
1.527462401508735
 20
4.7198213572399039
 30
0.0
 40
0.0234812541910901
 50
321.6921064823077927
 51
22.1213219182866396
  0
ARC
  5
3DB7
  8
0
 10
1.527707785798543
 20
4.7199211038568647
 30
0.0
 40
0.0232163715052031
 50
22.1213219182878689
 51
86.5152089431805251
  0
ARC
  5
3DB8
  8
0
 10
1.527647451527766
 20
4.7189303312748647
 30
0.0
 40
0.0242089794507037
 50
86.5152089431862379
 51
137.253966839667612
  0
ARC
  5
3DB9
  8
0
 10
1.52698842309655
 20
4.7195394462798284
 30
0.0
 40
0.0233115723176723
 50
137.2539668396686068
 51
187.6902028123768957
  0
ARC
  5
3DBA
  8
0
 10
1.5270772670448021
 20
4.7195514429838532
 30
0.0
 40
0.0234012225717067
 50
187.6902028123722062
 51
243.5392951642577088
  0
ARC
  5
3DBB
  8
0
 10
1.527198180788744
 20
4.7197943755308236
 30
0.0
 40
0.0236725827674818
 50
243.5392951642575099
 51
322.1397761333244034
  0
ARC
  5
3DBC
  8
0
 10
1.5271715126146821
 20
4.7354482366072581
 30
0.0
 40
0.0951293626435644
 50
69.4602525135243383
 51
129.1400690166146887
  0
ARC
  5
3DBD
  8
0
 10
1.526652748530231
 20
4.7355534284515493
 30
0.0
 40
0.0947209176757482
 50
128.9368513591174121
 51
179.8973781515817052
  0
ARC
  5
3DBE
  8
0
 10
1.5249413085183541
 20
4.7356498635701767
 30
0.0
 40
0.0930093545508699
 50
179.9548958745290861
 51
248.7592927724469973
  0
ARC
  5
3DBF
  8
0
 10
1.5257031494539279
 20
4.7376098753097819
 30
0.0
 40
0.0951122210778945
 50
248.7592927724469973
 51
325.296723336343689
  0
ARC
  5
3DC0
  8
0
 10
1.5259731597440149
 20
4.7374228884749661
 30
0.0
 40
0.0947837859501335
 50
325.2967233363419268
 51
24.0335796108882711
  0
ARC
  5
3DC1
  8
0
 10
1.529280798301297
 20
4.7388978674421116
 30
0.0
 40
0.0911621791549156
 50
24.0335796108874789
 51
69.9409811840559712
  0
ARC
  5
3DC2
  8
0
 10
1.526132364340657
 20
4.7329070470507801
 30
0.0
 40
0.0683612722615737
 50
357.7302211432688068
 51
37.2596859047560613
  0
ARC
  5
3DC3
  8
0
 10
1.5287740424177081
 20
4.734916530634762
 30
0.0
 40
0.0650421628423086
 50
37.2596859047560613
 51
65.1087802499036741
  0
ARC
  5
3DC4
  8
0
 10
1.527964870455981
 20
4.7331726191373837
 30
0.0
 40
0.0669646577250933
 50
65.1087802499034609
 51
106.6603496789803955
  0
ARC
  5
3DC5
  8
0
 10
1.5281341535275279
 20
4.7326069473177119
 30
0.0
 40
0.0675551163315021
 50
106.6603496789796992
 51
139.4930044649842102
  0
ARC
  5
3DC6
  8
0
 10
1.529919981108488
 20
4.731081329342369
 30
0.0
 40
0.0699038799116861
 50
139.4930044649823913
 51
164.9334327588321116
  0
ARC
  5
3DC7
  8
0
 10
1.536886110432945
 20
4.729206083461249
 30
0.0
 40
0.0771179983526137
 50
164.9334327588333906
 51
197.910885429548614
  0
ARC
  5
3DC8
  8
0
 10
1.5255242676959879
 20
4.7255339243127628
 30
0.0
 40
0.0651774697549724
 50
197.910885429548614
 51
242.3212171461451021
  0
ARC
  5
3DC9
  8
0
 10
1.5269763095800739
 20
4.7283021467724948
 30
0.0
 40
0.0683034066096931
 50
242.3212171461441926
 51
296.807435302197689
  0
ARC
  5
3DCA
  8
0
 10
1.5281707199644179
 20
4.7259383783648374
 30
0.0
 40
0.065655007611945
 50
296.8074353021982006
 51
331.6505777544560942
  0
ARC
  5
3DCB
  8
0
 10
1.523505793541641
 20
4.7284553753515857
 30
0.0
 40
0.0709556502485733
 50
331.6505777544580269
 51
1.4085936621905739
  0
ARC
  5
3DCC
  8
0
 10
1.8658171158121519
 20
4.4904122336414707
 30
0.0
 40
0.0234812541910901
 50
321.6921064823077927
 51
22.1213219182866396
  0
ARC
  5
3DCD
  8
0
 10
1.8660625001019611
 20
4.4905119802584323
 30
0.0
 40
0.0232163715052031
 50
22.1213219182878689
 51
86.5152089431805251
  0
ARC
  5
3DCE
  8
0
 10
1.8660021658311789
 20
4.4895212076764324
 30
0.0
 40
0.0242089794507037
 50
86.5152089431862379
 51
137.253966839667612
  0
ARC
  5
3DCF
  8
0
 10
1.865343137399968
 20
4.4901303226813951
 30
0.0
 40
0.0233115723176723
 50
137.2539668396686068
 51
187.6902028123768957
  0
ARC
  5
3DD0
  8
0
 10
1.865431981348219
 20
4.4901423193854191
 30
0.0
 40
0.0234012225717067
 50
187.6902028123722062
 51
243.5392951642577088
  0
ARC
  5
3DD1
  8
0
 10
1.8655528950921609
 20
4.4903852519323912
 30
0.0
 40
0.0236725827674818
 50
243.5392951642575099
 51
322.1397761333244034
  0
ARC
  5
3DD2
  8
0
 10
1.8655262269181021
 20
4.506039113008824
 30
0.0
 40
0.0951293626435644
 50
69.4602525135243383
 51
129.1400690166146887
  0
ARC
  5
3DD3
  8
0
 10
1.865007462833649
 20
4.506144304853116
 30
0.0
 40
0.0947209176757482
 50
128.9368513591174121
 51
179.8973781515817052
  0
ARC
  5
3DD4
  8
0
 10
1.863296022821767
 20
4.5062407399717443
 30
0.0
 40
0.0930093545508699
 50
179.9548958745290861
 51
248.7592927724469973
  0
ARC
  5
3DD5
  8
0
 10
1.8640578637573411
 20
4.5082007517113487
 30
0.0
 40
0.0951122210778945
 50
248.7592927724469973
 51
325.296723336343689
  0
ARC
  5
3DD6
  8
0
 10
1.8643278740474289
 20
4.5080137648765328
 30
0.0
 40
0.0947837859501335
 50
325.2967233363419268
 51
24.0335796108882711
  0
ARC
  5
3DD7
  8
0
 10
1.8676355126047139
 20
4.5094887438436793
 30
0.0
 40
0.0911621791549156
 50
24.0335796108874789
 51
69.9409811840559712
  0
ARC
  5
3DD8
  8
0
 10
1.8644870786440779
 20
4.503497923452346
 30
0.0
 40
0.0683612722615737
 50
357.7302211432688068
 51
37.2596859047560613
  0
ARC
  5
3DD9
  8
0
 10
1.867128756721125
 20
4.5055074070363288
 30
0.0
 40
0.0650421628423086
 50
37.2596859047560613
 51
65.1087802499036741
  0
ARC
  5
3DDA
  8
0
 10
1.8663195847593981
 20
4.5037634955389514
 30
0.0
 40
0.0669646577250933
 50
65.1087802499034609
 51
106.6603496789803955
  0
ARC
  5
3DDB
  8
0
 10
1.866488867830945
 20
4.5031978237192787
 30
0.0
 40
0.0675551163315021
 50
106.6603496789796992
 51
139.4930044649842102
  0
ARC
  5
3DDC
  8
0
 10
1.8682746954119009
 20
4.5016722057439358
 30
0.0
 40
0.0699038799116861
 50
139.4930044649823913
 51
164.9334327588321116
  0
ARC
  5
3DDD
  8
0
 10
1.8752408247363621
 20
4.4997969598628158
 30
0.0
 40
0.0771179983526137
 50
164.9334327588333906
 51
197.910885429548614
  0
ARC
  5
3DDE
  8
0
 10
1.863878981999409
 20
4.4961248007143304
 30
0.0
 40
0.0651774697549724
 50
197.910885429548614
 51
242.3212171461451021
  0
ARC
  5
3DDF
  8
0
 10
1.865331023883491
 20
4.4988930231740616
 30
0.0
 40
0.0683034066096931
 50
242.3212171461441926
 51
296.807435302197689
  0
ARC
  5
3DE0
  8
0
 10
1.866525434267835
 20
4.4965292547664042
 30
0.0
 40
0.065655007611945
 50
296.8074353021982006
 51
331.6505777544560942
  0
ARC
  5
3DE1
  8
0
 10
1.8618605078450541
 20
4.4990462517531533
 30
0.0
 40
0.0709556502485733
 50
331.6505777544580269
 51
1.4085936621905739
  0
ARC
  5
3DE2
  8
0
 10
2.2282058789725201
 20
4.2543044486426487
 30
0.0
 40
0.0234812541910901
 50
321.6921064823077927
 51
22.1213219182866396
  0
ARC
  5
3DE3
  8
0
 10
2.228451263262329
 20
4.2544041952596103
 30
0.0
 40
0.0232163715052031
 50
22.1213219182878689
 51
86.5152089431805251
  0
ARC
  5
3DE4
  8
0
 10
2.2283909289915469
 20
4.2534134226776104
 30
0.0
 40
0.0242089794507037
 50
86.5152089431862379
 51
137.253966839667612
  0
ARC
  5
3DE5
  8
0
 10
2.2277319005603351
 20
4.2540225376825731
 30
0.0
 40
0.0233115723176723
 50
137.2539668396686068
 51
187.6902028123768957
  0
ARC
  5
3DE6
  8
0
 10
2.2278207445085871
 20
4.2540345343865971
 30
0.0
 40
0.0234012225717067
 50
187.6902028123722062
 51
243.5392951642577088
  0
ARC
  5
3DE7
  8
0
 10
2.2279416582525289
 20
4.2542774669335692
 30
0.0
 40
0.0236725827674818
 50
243.5392951642575099
 51
322.1397761333244034
  0
ARC
  5
3DE8
  8
0
 10
2.22791499007847
 20
4.269931328010002
 30
0.0
 40
0.0951293626435644
 50
69.4602525135243383
 51
129.1400690166146887
  0
ARC
  5
3DE9
  8
0
 10
2.2273962259940161
 20
4.2700365198542931
 30
0.0
 40
0.0947209176757482
 50
128.9368513591174121
 51
179.8973781515817052
  0
ARC
  5
3DEA
  8
0
 10
2.2256847859821351
 20
4.2701329549729223
 30
0.0
 40
0.0930093545508699
 50
179.9548958745290861
 51
248.7592927724469973
  0
ARC
  5
3DEB
  8
0
 10
2.226446626917709
 20
4.2720929667125267
 30
0.0
 40
0.0951122210778945
 50
248.7592927724469973
 51
325.296723336343689
  0
ARC
  5
3DEC
  8
0
 10
2.2267166372077969
 20
4.2719059798777108
 30
0.0
 40
0.0947837859501335
 50
325.2967233363419268
 51
24.0335796108882711
  0
ARC
  5
3DED
  8
0
 10
2.2300242757650821
 20
4.2733809588448572
 30
0.0
 40
0.0911621791549156
 50
24.0335796108874789
 51
69.9409811840559712
  0
ARC
  5
3DEE
  8
0
 10
2.2268758418044459
 20
4.267390138453524
 30
0.0
 40
0.0683612722615737
 50
357.7302211432688068
 51
37.2596859047560613
  0
ARC
  5
3DEF
  8
0
 10
2.2295175198814929
 20
4.2693996220375068
 30
0.0
 40
0.0650421628423086
 50
37.2596859047560613
 51
65.1087802499036741
  0
ARC
  5
3DF0
  8
0
 10
2.228708347919766
 20
4.2676557105401294
 30
0.0
 40
0.0669646577250933
 50
65.1087802499034609
 51
106.6603496789803955
  0
ARC
  5
3DF1
  8
0
 10
2.2288776309913132
 20
4.2670900387204567
 30
0.0
 40
0.0675551163315021
 50
106.6603496789796992
 51
139.4930044649842102
  0
ARC
  5
3DF2
  8
0
 10
2.2306634585722689
 20
4.2655644207451138
 30
0.0
 40
0.0699038799116861
 50
139.4930044649823913
 51
164.9334327588321116
  0
ARC
  5
3DF3
  8
0
 10
2.2376295878967301
 20
4.2636891748639938
 30
0.0
 40
0.0771179983526137
 50
164.9334327588333906
 51
197.910885429548614
  0
ARC
  5
3DF4
  8
0
 10
2.226267745159777
 20
4.2600170157155084
 30
0.0
 40
0.0651774697549724
 50
197.910885429548614
 51
242.3212171461451021
  0
ARC
  5
3DF5
  8
0
 10
2.227719787043859
 20
4.2627852381752396
 30
0.0
 40
0.0683034066096931
 50
242.3212171461441926
 51
296.807435302197689
  0
ARC
  5
3DF6
  8
0
 10
2.2289141974282032
 20
4.2604214697675822
 30
0.0
 40
0.065655007611945
 50
296.8074353021982006
 51
331.6505777544560942
  0
ARC
  5
3DF7
  8
0
 10
2.224249271005422
 20
4.2629384667543313
 30
0.0
 40
0.0709556502485733
 50
331.6505777544580269
 51
1.4085936621905739
  0
ARC
  5
3DF8
  8
0
 10
1.825752483508736
 20
4.0363307862399038
 30
0.0
 40
0.0234812541910901
 50
321.6921064823077927
 51
22.1213219182866396
  0
ARC
  5
3DF9
  8
0
 10
1.8259978677985449
 20
4.0364305328568646
 30
0.0
 40
0.0232163715052031
 50
22.1213219182878689
 51
86.5152089431805251
  0
ARC
  5
3DFA
  8
0
 10
1.825937533527763
 20
4.0354397602748646
 30
0.0
 40
0.0242089794507037
 50
86.5152089431862379
 51
137.253966839667612
  0
ARC
  5
3DFB
  8
0
 10
1.8252785050965521
 20
4.0360488752798283
 30
0.0
 40
0.0233115723176723
 50
137.2539668396686068
 51
187.6902028123768957
  0
ARC
  5
3DFC
  8
0
 10
1.825367349044803
 20
4.0360608719838531
 30
0.0
 40
0.0234012225717067
 50
187.6902028123722062
 51
243.5392951642577088
  0
ARC
  5
3DFD
  8
0
 10
1.825488262788745
 20
4.0363038045308244
 30
0.0
 40
0.0236725827674818
 50
243.5392951642575099
 51
322.1397761333244034
  0
ARC
  5
3DFE
  8
0
 10
1.825461594614683
 20
4.051957665607258
 30
0.0
 40
0.0951293626435644
 50
69.4602525135243383
 51
129.1400690166146887
  0
ARC
  5
3DFF
  8
0
 10
1.8249428305302331
 20
4.0520628574515491
 30
0.0
 40
0.0947209176757482
 50
128.9368513591174121
 51
179.8973781515817052
  0
ARC
  5
3E00
  8
0
 10
1.823231390518351
 20
4.0521592925701766
 30
0.0
 40
0.0930093545508699
 50
179.9548958745290861
 51
248.7592927724469973
  0
ARC
  5
3E01
  8
0
 10
1.823993231453926
 20
4.0541193043097818
 30
0.0
 40
0.0951122210778945
 50
248.7592927724469973
 51
325.296723336343689
  0
ARC
  5
3E02
  8
0
 10
1.824263241744013
 20
4.053932317474966
 30
0.0
 40
0.0947837859501335
 50
325.2967233363419268
 51
24.0335796108882711
  0
ARC
  5
3E03
  8
0
 10
1.827570880301298
 20
4.0554072964421124
 30
0.0
 40
0.0911621791549156
 50
24.0335796108874789
 51
69.9409811840559712
  0
ARC
  5
3E04
  8
0
 10
1.824422446340658
 20
4.04941647605078
 30
0.0
 40
0.0683612722615737
 50
357.7302211432688068
 51
37.2596859047560613
  0
ARC
  5
3E05
  8
0
 10
1.827064124417709
 20
4.0514259596347619
 30
0.0
 40
0.0650421628423086
 50
37.2596859047560613
 51
65.1087802499036741
  0
ARC
  5
3E06
  8
0
 10
1.826254952455983
 20
4.0496820481373836
 30
0.0
 40
0.0669646577250933
 50
65.1087802499034609
 51
106.6603496789803955
  0
ARC
  5
3E07
  8
0
 10
1.8264242355275291
 20
4.0491163763177118
 30
0.0
 40
0.0675551163315021
 50
106.6603496789796992
 51
139.4930044649842102
  0
ARC
  5
3E08
  8
0
 10
1.828210063108485
 20
4.0475907583423689
 30
0.0
 40
0.0699038799116861
 50
139.4930044649823913
 51
164.9334327588321116
  0
ARC
  5
3E09
  8
0
 10
1.8351761924329459
 20
4.0457155124612489
 30
0.0
 40
0.0771179983526137
 50
164.9334327588333906
 51
197.910885429548614
  0
ARC
  5
3E0A
  8
0
 10
1.8238143496959891
 20
4.0420433533127627
 30
0.0
 40
0.0651774697549724
 50
197.910885429548614
 51
242.3212171461451021
  0
ARC
  5
3E0B
  8
0
 10
1.8252663915800751
 20
4.0448115757724947
 30
0.0
 40
0.0683034066096931
 50
242.3212171461441926
 51
296.807435302197689
  0
ARC
  5
3E0C
  8
0
 10
1.8264608019644191
 20
4.0424478073648373
 30
0.0
 40
0.065655007611945
 50
296.8074353021982006
 51
331.6505777544560942
  0
ARC
  5
3E0D
  8
0
 10
1.821795875541639
 20
4.0449648043515856
 30
0.0
 40
0.0709556502485733
 50
331.6505777544580269
 51
1.4085936621905739
  0
ARC
  5
3E0E
  8
0
 10
1.4874333349508251
 20
4.3083358409399821
 30
0.0
 40
0.0234812541910901
 50
321.6921064823077927
 51
22.1213219182866396
  0
ARC
  5
3E0F
  8
0
 10
1.4876787192406331
 20
4.308435587556942
 30
0.0
 40
0.0232163715052031
 50
22.1213219182878689
 51
86.5152089431805251
  0
ARC
  5
3E10
  8
0
 10
1.4876183849698521
 20
4.307444814974942
 30
0.0
 40
0.0242089794507037
 50
86.5152089431862379
 51
137.253966839667612
  0
ARC
  5
3E11
  8
0
 10
1.4869593565386401
 20
4.3080539299799048
 30
0.0
 40
0.0233115723176723
 50
137.2539668396686068
 51
187.6902028123768957
  0
ARC
  5
3E12
  8
0
 10
1.4870482004868919
 20
4.3080659266839296
 30
0.0
 40
0.0234012225717067
 50
187.6902028123722062
 51
243.5392951642577088
  0
ARC
  5
3E13
  8
0
 10
1.4871691142308341
 20
4.3083088592309009
 30
0.0
 40
0.0236725827674818
 50
243.5392951642575099
 51
322.1397761333244034
  0
ARC
  5
3E14
  8
0
 10
1.487142446056775
 20
4.3239627203073354
 30
0.0
 40
0.0951293626435644
 50
69.4602525135243383
 51
129.1400690166146887
  0
ARC
  5
3E15
  8
0
 10
1.4866236819723211
 20
4.3240679121516257
 30
0.0
 40
0.0947209176757482
 50
128.9368513591174121
 51
179.8973781515817052
  0
ARC
  5
3E16
  8
0
 10
1.4849122419604399
 20
4.324164347270254
 30
0.0
 40
0.0930093545508699
 50
179.9548958745290861
 51
248.7592927724469973
  0
ARC
  5
3E17
  8
0
 10
1.485674082896014
 20
4.3261243590098601
 30
0.0
 40
0.0951122210778945
 50
248.7592927724469973
 51
325.296723336343689
  0
ARC
  5
3E18
  8
0
 10
1.4859440931861021
 20
4.3259373721750443
 30
0.0
 40
0.0947837859501335
 50
325.2967233363419268
 51
24.0335796108882711
  0
ARC
  5
3E19
  8
0
 10
1.4892517317433871
 20
4.3274123511421889
 30
0.0
 40
0.0911621791549156
 50
24.0335796108874789
 51
69.9409811840559712
  0
ARC
  5
3E1A
  8
0
 10
1.4861032977827511
 20
4.3214215307508574
 30
0.0
 40
0.0683612722615737
 50
357.7302211432688068
 51
37.2596859047560613
  0
ARC
  5
3E1B
  8
0
 10
1.4887449758597979
 20
4.3234310143348402
 30
0.0
 40
0.0650421628423086
 50
37.2596859047560613
 51
65.1087802499036741
  0
ARC
  5
3E1C
  8
0
 10
1.487935803898071
 20
4.321687102837461
 30
0.0
 40
0.0669646577250933
 50
65.1087802499034609
 51
106.6603496789803955
  0
ARC
  5
3E1D
  8
0
 10
1.488105086969618
 20
4.3211214310177901
 30
0.0
 40
0.0675551163315021
 50
106.6603496789796992
 51
139.4930044649842102
  0
ARC
  5
3E1E
  8
0
 10
1.4898909145505741
 20
4.3195958130424472
 30
0.0
 40
0.0699038799116861
 50
139.4930044649823913
 51
164.9334327588321116
  0
ARC
  5
3E1F
  8
0
 10
1.496857043875035
 20
4.3177205671613272
 30
0.0
 40
0.0771179983526137
 50
164.9334327588333906
 51
197.910885429548614
  0
ARC
  5
3E20
  8
0
 10
1.485495201138082
 20
4.3140484080128401
 30
0.0
 40
0.0651774697549724
 50
197.910885429548614
 51
242.3212171461451021
  0
ARC
  5
3E21
  8
0
 10
1.486947243022164
 20
4.316816630472573
 30
0.0
 40
0.0683034066096931
 50
242.3212171461441926
 51
296.807435302197689
  0
ARC
  5
3E22
  8
0
 10
1.4881416534065079
 20
4.3144528620649139
 30
0.0
 40
0.065655007611945
 50
296.8074353021982006
 51
331.6505777544560942
  0
ARC
  5
3E23
  8
0
 10
1.483476726983727
 20
4.316969859051663
 30
0.0
 40
0.0709556502485733
 50
331.6505777544580269
 51
1.4085936621905739
  0
ARC
  5
3E24
  8
0
 10
1.350687799268943
 20
3.9092206533971341
 30
0.0
 40
0.0234812541910901
 50
321.6921064823077927
 51
22.1213219182866396
  0
ARC
  5
3E25
  8
0
 10
1.350933183558751
 20
3.9093204000140949
 30
0.0
 40
0.0232163715052031
 50
22.1213219182878689
 51
86.5152089431805251
  0
ARC
  5
3E26
  8
0
 10
1.35087284928797
 20
3.9083296274320949
 30
0.0
 40
0.0242089794507037
 50
86.5152089431862379
 51
137.253966839667612
  0
ARC
  5
3E27
  8
0
 10
1.350213820856758
 20
3.9089387424370581
 30
0.0
 40
0.0233115723176723
 50
137.2539668396686068
 51
187.6902028123768957
  0
ARC
  5
3E28
  8
0
 10
1.35030266480501
 20
3.9089507391410829
 30
0.0
 40
0.0234012225717067
 50
187.6902028123722062
 51
243.5392951642577088
  0
ARC
  5
3E29
  8
0
 10
1.350423578548952
 20
3.9091936716880542
 30
0.0
 40
0.0236725827674818
 50
243.5392951642575099
 51
322.1397761333244034
  0
ARC
  5
3E2A
  8
0
 10
1.350396910374893
 20
3.9248475327644878
 30
0.0
 40
0.0951293626435644
 50
69.4602525135243383
 51
129.1400690166146887
  0
ARC
  5
3E2B
  8
0
 10
1.349878146290439
 20
3.924952724608779
 30
0.0
 40
0.0947209176757482
 50
128.9368513591174121
 51
179.8973781515817052
  0
ARC
  5
3E2C
  8
0
 10
1.3481667062785581
 20
3.9250491597274069
 30
0.0
 40
0.0930093545508699
 50
179.9548958745290861
 51
248.7592927724469973
  0
ARC
  5
3E2D
  8
0
 10
1.3489285472141319
 20
3.927009171467013
 30
0.0
 40
0.0951122210778945
 50
248.7592927724469973
 51
325.296723336343689
  0
ARC
  5
3E2E
  8
0
 10
1.34919855750422
 20
3.9268221846321971
 30
0.0
 40
0.0947837859501335
 50
325.2967233363419268
 51
24.0335796108882711
  0
ARC
  5
3E2F
  8
0
 10
1.3525061960615039
 20
3.9282971635993418
 30
0.0
 40
0.0911621791549156
 50
24.0335796108874789
 51
69.9409811840559712
  0
ARC
  5
3E30
  8
0
 10
1.3493577621008681
 20
3.9223063432080099
 30
0.0
 40
0.0683612722615737
 50
357.7302211432688068
 51
37.2596859047560613
  0
ARC
  5
3E31
  8
0
 10
1.3519994401779161
 20
3.9243158267919931
 30
0.0
 40
0.0650421628423086
 50
37.2596859047560613
 51
65.1087802499036741
  0
ARC
  5
3E32
  8
0
 10
1.3511902682161889
 20
3.9225719152946139
 30
0.0
 40
0.0669646577250933
 50
65.1087802499034609
 51
106.6603496789803955
  0
ARC
  5
3E33
  8
0
 10
1.351359551287735
 20
3.9220062434749421
 30
0.0
 40
0.0675551163315021
 50
106.6603496789796992
 51
139.4930044649842102
  0
ARC
  5
3E34
  8
0
 10
1.353145378868692
 20
3.9204806254996001
 30
0.0
 40
0.0699038799116861
 50
139.4930044649823913
 51
164.9334327588321116
  0
ARC
  5
3E35
  8
0
 10
1.360111508193153
 20
3.9186053796184801
 30
0.0
 40
0.0771179983526137
 50
164.9334327588333906
 51
197.910885429548614
  0
ARC
  5
3E36
  8
0
 10
1.3487496654561999
 20
3.9149332204699929
 30
0.0
 40
0.0651774697549724
 50
197.910885429548614
 51
242.3212171461451021
  0
ARC
  5
3E37
  8
0
 10
1.3502017073402821
 20
3.917701442929725
 30
0.0
 40
0.0683034066096931
 50
242.3212171461441926
 51
296.807435302197689
  0
ARC
  5
3E38
  8
0
 10
1.351396117724625
 20
3.9153376745220672
 30
0.0
 40
0.065655007611945
 50
296.8074353021982006
 51
331.6505777544560942
  0
ARC
  5
3E39
  8
0
 10
1.3467311913018449
 20
3.9178546715088158
 30
0.0
 40
0.0709556502485733
 50
331.6505777544580269
 51
1.4085936621905739
  0
ARC
  5
3E3A
  8
0
 10
1.728683710494241
 20
3.58944845769674
 30
0.0
 40
0.0234812541910901
 50
321.6921064823077927
 51
22.1213219182866396
  0
ARC
  5
3E3B
  8
0
 10
1.728929094784049
 20
3.5895482043136999
 30
0.0
 40
0.0232163715052031
 50
22.1213219182878689
 51
86.5152089431805251
  0
ARC
  5
3E3C
  8
0
 10
1.728868760513268
 20
3.5885574317316999
 30
0.0
 40
0.0242089794507037
 50
86.5152089431862379
 51
137.253966839667612
  0
ARC
  5
3E3D
  8
0
 10
1.728209732082056
 20
3.5891665467366631
 30
0.0
 40
0.0233115723176723
 50
137.2539668396686068
 51
187.6902028123768957
  0
ARC
  5
3E3E
  8
0
 10
1.728298576030308
 20
3.589178543440688
 30
0.0
 40
0.0234012225717067
 50
187.6902028123722062
 51
243.5392951642577088
  0
ARC
  5
3E3F
  8
0
 10
1.72841948977425
 20
3.5894214759876588
 30
0.0
 40
0.0236725827674818
 50
243.5392951642575099
 51
322.1397761333244034
  0
ARC
  5
3E40
  8
0
 10
1.7283928216001909
 20
3.6050753370640929
 30
0.0
 40
0.0951293626435644
 50
69.4602525135243383
 51
129.1400690166146887
  0
ARC
  5
3E41
  8
0
 10
1.727874057515737
 20
3.605180528908384
 30
0.0
 40
0.0947209176757482
 50
128.9368513591174121
 51
179.8973781515817052
  0
ARC
  5
3E42
  8
0
 10
1.726162617503856
 20
3.6052769640270119
 30
0.0
 40
0.0930093545508699
 50
179.9548958745290861
 51
248.7592927724469973
  0
ARC
  5
3E43
  8
0
 10
1.7269244584394301
 20
3.6072369757666181
 30
0.0
 40
0.0951122210778945
 50
248.7592927724469973
 51
325.296723336343689
  0
ARC
  5
3E44
  8
0
 10
1.727194468729518
 20
3.6070499889318022
 30
0.0
 40
0.0947837859501335
 50
325.2967233363419268
 51
24.0335796108882711
  0
ARC
  5
3E45
  8
0
 10
1.7305021072868021
 20
3.6085249678989468
 30
0.0
 40
0.0911621791549156
 50
24.0335796108874789
 51
69.9409811840559712
  0
ARC
  5
3E46
  8
0
 10
1.727353673326167
 20
3.6025341475076149
 30
0.0
 40
0.0683612722615737
 50
357.7302211432688068
 51
37.2596859047560613
  0
ARC
  5
3E47
  8
0
 10
1.729995351403214
 20
3.6045436310915981
 30
0.0
 40
0.0650421628423086
 50
37.2596859047560613
 51
65.1087802499036741
  0
ARC
  5
3E48
  8
0
 10
1.7291861794414869
 20
3.602799719594219
 30
0.0
 40
0.0669646577250933
 50
65.1087802499034609
 51
106.6603496789803955
  0
ARC
  5
3E49
  8
0
 10
1.7293554625130341
 20
3.602234047774548
 30
0.0
 40
0.0675551163315021
 50
106.6603496789796992
 51
139.4930044649842102
  0
ARC
  5
3E4A
  8
0
 10
1.73114129009399
 20
3.6007084297992051
 30
0.0
 40
0.0699038799116861
 50
139.4930044649823913
 51
164.9334327588321116
  0
ARC
  5
3E4B
  8
0
 10
1.7381074194184509
 20
3.5988331839180852
 30
0.0
 40
0.0771179983526137
 50
164.9334327588333906
 51
197.910885429548614
  0
ARC
  5
3E4C
  8
0
 10
1.7267455766814981
 20
3.595161024769598
 30
0.0
 40
0.0651774697549724
 50
197.910885429548614
 51
242.3212171461451021
  0
ARC
  5
3E4D
  8
0
 10
1.7281976185655801
 20
3.5979292472293301
 30
0.0
 40
0.0683034066096931
 50
242.3212171461441926
 51
296.807435302197689
  0
ARC
  5
3E4E
  8
0
 10
1.7293920289499241
 20
3.5955654788216722
 30
0.0
 40
0.065655007611945
 50
296.8074353021982006
 51
331.6505777544560942
  0
ARC
  5
3E4F
  8
0
 10
1.7247271025271429
 20
3.5980824758084209
 30
0.0
 40
0.0709556502485733
 50
331.6505777544580269
 51
1.4085936621905739
  0
ARC
  5
3E50
  8
0
 10
2.1991917353133799
 20
3.7569784487722648
 30
0.0
 40
0.0234812541910901
 50
321.6921064823077927
 51
22.1213219182866396
  0
ARC
  5
3E51
  8
0
 10
2.1994371196031892
 20
3.757078195389226
 30
0.0
 40
0.0232163715052031
 50
22.1213219182878689
 51
86.5152089431805251
  0
ARC
  5
3E52
  8
0
 10
2.1993767853324071
 20
3.7560874228072261
 30
0.0
 40
0.0242089794507037
 50
86.5152089431862379
 51
137.253966839667612
  0
ARC
  5
3E53
  8
0
 10
2.1987177569011962
 20
3.7566965378121888
 30
0.0
 40
0.0233115723176723
 50
137.2539668396686068
 51
187.6902028123768957
  0
ARC
  5
3E54
  8
0
 10
2.1988066008494469
 20
3.7567085345162141
 30
0.0
 40
0.0234012225717067
 50
187.6902028123722062
 51
243.5392951642577088
  0
ARC
  5
3E55
  8
0
 10
2.1989275145933891
 20
3.7569514670631849
 30
0.0
 40
0.0236725827674818
 50
243.5392951642575099
 51
322.1397761333244034
  0
ARC
  5
3E56
  8
0
 10
2.1989008464193311
 20
3.772605328139619
 30
0.0
 40
0.0951293626435644
 50
69.4602525135243383
 51
129.1400690166146887
  0
ARC
  5
3E57
  8
0
 10
2.1983820823348772
 20
3.7727105199839102
 30
0.0
 40
0.0947209176757482
 50
128.9368513591174121
 51
179.8973781515817052
  0
ARC
  5
3E58
  8
0
 10
2.1966706423229949
 20
3.7728069551025381
 30
0.0
 40
0.0930093545508699
 50
179.9548958745290861
 51
248.7592927724469973
  0
ARC
  5
3E59
  8
0
 10
2.1974324832585701
 20
3.7747669668421429
 30
0.0
 40
0.0951122210778945
 50
248.7592927724469973
 51
325.296723336343689
  0
ARC
  5
3E5A
  8
0
 10
2.1977024935486571
 20
3.774579980007327
 30
0.0
 40
0.0947837859501335
 50
325.2967233363419268
 51
24.0335796108882711
  0
ARC
  5
3E5B
  8
0
 10
2.2010101321059419
 20
3.776054958974473
 30
0.0
 40
0.0911621791549156
 50
24.0335796108874789
 51
69.9409811840559712
  0
ARC
  5
3E5C
  8
0
 10
2.1978616981453061
 20
3.770064138583141
 30
0.0
 40
0.0683612722615737
 50
357.7302211432688068
 51
37.2596859047560613
  0
ARC
  5
3E5D
  8
0
 10
2.200503376222354
 20
3.7720736221671229
 30
0.0
 40
0.0650421628423086
 50
37.2596859047560613
 51
65.1087802499036741
  0
ARC
  5
3E5E
  8
0
 10
2.1996942042606271
 20
3.7703297106697451
 30
0.0
 40
0.0669646577250933
 50
65.1087802499034609
 51
106.6603496789803955
  0
ARC
  5
3E5F
  8
0
 10
2.199863487332173
 20
3.7697640388500728
 30
0.0
 40
0.0675551163315021
 50
106.6603496789796992
 51
139.4930044649842102
  0
ARC
  5
3E60
  8
0
 10
2.2016493149131291
 20
3.7682384208747299
 30
0.0
 40
0.0699038799116861
 50
139.4930044649823913
 51
164.9334327588321116
  0
ARC
  5
3E61
  8
0
 10
2.2086154442375898
 20
3.76636317499361
 30
0.0
 40
0.0771179983526137
 50
164.9334327588333906
 51
197.910885429548614
  0
ARC
  5
3E62
  8
0
 10
2.1972536015006372
 20
3.7626910158451241
 30
0.0
 40
0.0651774697549724
 50
197.910885429548614
 51
242.3212171461451021
  0
ARC
  5
3E63
  8
0
 10
2.1987056433847201
 20
3.7654592383048562
 30
0.0
 40
0.0683034066096931
 50
242.3212171461441926
 51
296.807435302197689
  0
ARC
  5
3E64
  8
0
 10
2.1999000537690629
 20
3.7630954698971979
 30
0.0
 40
0.065655007611945
 50
296.8074353021982006
 51
331.6505777544560942
  0
ARC
  5
3E65
  8
0
 10
2.1952351273462831
 20
3.765612466883947
 30
0.0
 40
0.0709556502485733
 50
331.6505777544580269
 51
1.4085936621905739
  0
ARC
  5
3E66
  8
0
 10
2.1170714848026959
 20
3.2655589356154802
 30
0.0
 40
0.0234812541910901
 50
321.6921064823077927
 51
22.1213219182866396
  0
ARC
  5
3E67
  8
0
 10
2.1173168690925048
 20
3.2656586822324409
 30
0.0
 40
0.0232163715052031
 50
22.1213219182878689
 51
86.5152089431805251
  0
ARC
  5
3E68
  8
0
 10
2.117256534821724
 20
3.264667909650441
 30
0.0
 40
0.0242089794507037
 50
86.5152089431862379
 51
137.253966839667612
  0
ARC
  5
3E69
  8
0
 10
2.1165975063905118
 20
3.2652770246554041
 30
0.0
 40
0.0233115723176723
 50
137.2539668396686068
 51
187.6902028123768957
  0
ARC
  5
3E6A
  8
0
 10
2.116686350338763
 20
3.265289021359429
 30
0.0
 40
0.0234012225717067
 50
187.6902028123722062
 51
243.5392951642577088
  0
ARC
  5
3E6B
  8
0
 10
2.1168072640827051
 20
3.2655319539063998
 30
0.0
 40
0.0236725827674818
 50
243.5392951642575099
 51
322.1397761333244034
  0
ARC
  5
3E6C
  8
0
 10
2.1167805959086472
 20
3.281185814982833
 30
0.0
 40
0.0951293626435644
 50
69.4602525135243383
 51
129.1400690166146887
  0
ARC
  5
3E6D
  8
0
 10
2.1162618318241928
 20
3.281291006827125
 30
0.0
 40
0.0947209176757482
 50
128.9368513591174121
 51
179.8973781515817052
  0
ARC
  5
3E6E
  8
0
 10
2.114550391812311
 20
3.2813874419457529
 30
0.0
 40
0.0930093545508699
 50
179.9548958745290861
 51
248.7592927724469973
  0
ARC
  5
3E6F
  8
0
 10
2.1153122327478862
 20
3.2833474536853582
 30
0.0
 40
0.0951122210778945
 50
248.7592927724469973
 51
325.296723336343689
  0
ARC
  5
3E70
  8
0
 10
2.1155822430379732
 20
3.2831604668505419
 30
0.0
 40
0.0947837859501335
 50
325.2967233363419268
 51
24.0335796108882711
  0
ARC
  5
3E71
  8
0
 10
2.1188898815952579
 20
3.2846354458176878
 30
0.0
 40
0.0911621791549156
 50
24.0335796108874789
 51
69.9409811840559712
  0
ARC
  5
3E72
  8
0
 10
2.1157414476346221
 20
3.278644625426355
 30
0.0
 40
0.0683612722615737
 50
357.7302211432688068
 51
37.2596859047560613
  0
ARC
  5
3E73
  8
0
 10
2.1183831257116701
 20
3.2806541090103378
 30
0.0
 40
0.0650421628423086
 50
37.2596859047560613
 51
65.1087802499036741
  0
ARC
  5
3E74
  8
0
 10
2.1175739537499432
 20
3.27891019751296
 30
0.0
 40
0.0669646577250933
 50
65.1087802499034609
 51
106.6603496789803955
  0
ARC
  5
3E75
  8
0
 10
2.117743236821489
 20
3.2783445256932882
 30
0.0
 40
0.0675551163315021
 50
106.6603496789796992
 51
139.4930044649842102
  0
ARC
  5
3E76
  8
0
 10
2.119529064402446
 20
3.2768189077179448
 30
0.0
 40
0.0699038799116861
 50
139.4930044649823913
 51
164.9334327588321116
  0
ARC
  5
3E77
  8
0
 10
2.1264951937269059
 20
3.2749436618368248
 30
0.0
 40
0.0771179983526137
 50
164.9334327588333906
 51
197.910885429548614
  0
ARC
  5
3E78
  8
0
 10
2.1151333509899528
 20
3.271271502688339
 30
0.0
 40
0.0651774697549724
 50
197.910885429548614
 51
242.3212171461451021
  0
ARC
  5
3E79
  8
0
 10
2.1165853928740361
 20
3.2740397251480711
 30
0.0
 40
0.0683034066096931
 50
242.3212171461441926
 51
296.807435302197689
  0
ARC
  5
3E7A
  8
0
 10
2.117779803258379
 20
3.2716759567404128
 30
0.0
 40
0.065655007611945
 50
296.8074353021982006
 51
331.6505777544560942
  0
ARC
  5
3E7B
  8
0
 10
2.1131148768355992
 20
3.2741929537271619
 30
0.0
 40
0.0709556502485733
 50
331.6505777544580269
 51
1.4085936621905739
  0
ARC
  5
3E7C
  8
0
 10
1.8029550064920301
 20
2.9437645614047261
 30
0.0
 40
0.0234812541910901
 50
321.6921064823077927
 51
22.1213219182866396
  0
ARC
  5
3E7D
  8
0
 10
1.803200390781839
 20
2.9438643080216869
 30
0.0
 40
0.0232163715052031
 50
22.1213219182878689
 51
86.5152089431805251
  0
ARC
  5
3E7E
  8
0
 10
1.803140056511058
 20
2.9428735354396869
 30
0.0
 40
0.0242089794507037
 50
86.5152089431862379
 51
137.253966839667612
  0
ARC
  5
3E7F
  8
0
 10
1.802481028079846
 20
2.9434826504446501
 30
0.0
 40
0.0233115723176723
 50
137.2539668396686068
 51
187.6902028123768957
  0
ARC
  5
3E80
  8
0
 10
1.8025698720280969
 20
2.9434946471486749
 30
0.0
 40
0.0234012225717067
 50
187.6902028123722062
 51
243.5392951642577088
  0
ARC
  5
3E81
  8
0
 10
1.8026907857720389
 20
2.9437375796956462
 30
0.0
 40
0.0236725827674818
 50
243.5392951642575099
 51
322.1397761333244034
  0
ARC
  5
3E82
  8
0
 10
1.802664117597981
 20
2.9593914407720798
 30
0.0
 40
0.0951293626435644
 50
69.4602525135243383
 51
129.1400690166146887
  0
ARC
  5
3E83
  8
0
 10
1.802145353513527
 20
2.959496632616371
 30
0.0
 40
0.0947209176757482
 50
128.9368513591174121
 51
179.8973781515817052
  0
ARC
  5
3E84
  8
0
 10
1.8004339135016449
 20
2.9595930677349989
 30
0.0
 40
0.0930093545508699
 50
179.9548958745290861
 51
248.7592927724469973
  0
ARC
  5
3E85
  8
0
 10
1.8011957544372199
 20
2.9615530794746041
 30
0.0
 40
0.0951122210778945
 50
248.7592927724469973
 51
325.296723336343689
  0
ARC
  5
3E86
  8
0
 10
1.8014657647273069
 20
2.9613660926397891
 30
0.0
 40
0.0947837859501335
 50
325.2967233363419268
 51
24.0335796108882711
  0
ARC
  5
3E87
  8
0
 10
1.8047734032845919
 20
2.9628410716069342
 30
0.0
 40
0.0911621791549156
 50
24.0335796108874789
 51
69.940981184055758
  0
ARC
  5
3E88
  8
0
 10
1.8016249693239561
 20
2.9568502512156019
 30
0.0
 40
0.0683612722615737
 50
357.7302211432688068
 51
37.2596859047560613
  0
ARC
  5
3E89
  8
0
 10
1.8042666474010041
 20
2.9588597347995851
 30
0.0
 40
0.0650421628423086
 50
37.2596859047560613
 51
65.1087802499036741
  0
ARC
  5
3E8A
  8
0
 10
1.8034574754392769
 20
2.9571158233022059
 30
0.0
 40
0.0669646577250933
 50
65.1087802499034609
 51
106.6603496789803955
  0
ARC
  5
3E8B
  8
0
 10
1.803626758510823
 20
2.9565501514825341
 30
0.0
 40
0.0675551163315021
 50
106.6603496789796992
 51
139.4930044649842102
  0
ARC
  5
3E8C
  8
0
 10
1.80541258609178
 20
2.9550245335071921
 30
0.0
 40
0.0699038799116861
 50
139.4930044649823913
 51
164.9334327588321116
  0
ARC
  5
3E8D
  8
0
 10
1.8123787154162401
 20
2.9531492876260721
 30
0.0
 40
0.0771179983526137
 50
164.9334327588333906
 51
197.910885429548614
  0
ARC
  5
3E8E
  8
0
 10
1.801016872679287
 20
2.9494771284775849
 30
0.0
 40
0.0651774697549724
 50
197.910885429548614
 51
242.3212171461451021
  0
ARC
  5
3E8F
  8
0
 10
1.8024689145633701
 20
2.952245350937317
 30
0.0
 40
0.0683034066096931
 50
242.3212171461441926
 51
296.807435302197689
  0
ARC
  5
3E90
  8
0
 10
1.803663324947713
 20
2.9498815825296592
 30
0.0
 40
0.065655007611945
 50
296.8074353021982006
 51
331.6505777544560942
  0
ARC
  5
3E91
  8
0
 10
1.7989983985249329
 20
2.9523985795164078
 30
0.0
 40
0.0709556502485733
 50
331.6505777544580269
 51
1.4085936621905739
  0
ARC
  5
3E92
  8
0
 10
1.4368308959010989
 20
3.2710088598962761
 30
0.0
 40
0.0234812541910901
 50
321.6921064823077927
 51
22.1213219182866396
  0
ARC
  5
3E93
  8
0
 10
1.4370762801909081
 20
3.2711086065132369
 30
0.0
 40
0.0232163715052031
 50
22.1213219182878689
 51
86.5152089431805251
  0
ARC
  5
3E94
  8
0
 10
1.4370159459201259
 20
3.2701178339312369
 30
0.0
 40
0.0242089794507037
 50
86.5152089431862379
 51
137.253966839667612
  0
ARC
  5
3E95
  8
0
 10
1.436356917488915
 20
3.2707269489362001
 30
0.0
 40
0.0233115723176723
 50
137.2539668396686068
 51
187.6902028123768957
  0
ARC
  5
3E96
  8
0
 10
1.436445761437166
 20
3.2707389456402249
 30
0.0
 40
0.0234012225717067
 50
187.6902028123722062
 51
243.5392951642577088
  0
ARC
  5
3E97
  8
0
 10
1.4365666751811079
 20
3.2709818781871962
 30
0.0
 40
0.0236725827674818
 50
243.5392951642575099
 51
322.1397761333244034
  0
ARC
  5
3E98
  8
0
 10
1.4365400070070491
 20
3.2866357392636298
 30
0.0
 40
0.0951293626435644
 50
69.4602525135243383
 51
129.1400690166146887
  0
ARC
  5
3E99
  8
0
 10
1.436021242922596
 20
3.286740931107921
 30
0.0
 40
0.0947209176757482
 50
128.9368513591174121
 51
179.8973781515817052
  0
ARC
  5
3E9A
  8
0
 10
1.434309802910714
 20
3.2868373662265489
 30
0.0
 40
0.0930093545508699
 50
179.9548958745290861
 51
248.7592927724469973
  0
ARC
  5
3E9B
  8
0
 10
1.435071643846288
 20
3.288797377966155
 30
0.0
 40
0.0951122210778945
 50
248.7592927724469973
 51
325.296723336343689
  0
ARC
  5
3E9C
  8
0
 10
1.4353416541363759
 20
3.2886103911313391
 30
0.0
 40
0.0947837859501335
 50
325.2967233363419268
 51
24.0335796108882711
  0
ARC
  5
3E9D
  8
0
 10
1.4386492926936609
 20
3.2900853700984838
 30
0.0
 40
0.0911621791549156
 50
24.0335796108874789
 51
69.9409811840559712
  0
ARC
  5
3E9E
  8
0
 10
1.4355008587330249
 20
3.2840945497071519
 30
0.0
 40
0.0683612722615737
 50
357.7302211432688068
 51
37.2596859047560613
  0
ARC
  5
3E9F
  8
0
 10
1.438142536810072
 20
3.2861040332911351
 30
0.0
 40
0.0650421628423086
 50
37.2596859047560613
 51
65.1087802499036741
  0
ARC
  5
3EA0
  8
0
 10
1.4373333648483451
 20
3.2843601217937559
 30
0.0
 40
0.0669646577250933
 50
65.1087802499034609
 51
106.6603496789803955
  0
ARC
  5
3EA1
  8
0
 10
1.437502647919892
 20
3.2837944499740841
 30
0.0
 40
0.0675551163315021
 50
106.6603496789796992
 51
139.4930044649842102
  0
ARC
  5
3EA2
  8
0
 10
1.4392884755008479
 20
3.2822688319987421
 30
0.0
 40
0.0699038799116861
 50
139.4930044649823913
 51
164.9334327588321116
  0
ARC
  5
3EA3
  8
0
 10
1.4462546048253091
 20
3.2803935861176221
 30
0.0
 40
0.0771179983526137
 50
164.9334327588333906
 51
197.910885429548614
  0
ARC
  5
3EA4
  8
0
 10
1.434892762088356
 20
3.2767214269691349
 30
0.0
 40
0.0651774697549724
 50
197.910885429548614
 51
242.3212171461451021
  0
ARC
  5
3EA5
  8
0
 10
1.436344803972438
 20
3.279489649428867
 30
0.0
 40
0.0683034066096931
 50
242.3212171461441926
 51
296.807435302197689
  0
ARC
  5
3EA6
  8
0
 10
1.437539214356782
 20
3.2771258810212092
 30
0.0
 40
0.065655007611945
 50
296.8074353021982006
 51
331.6505777544560942
  0
ARC
  5
3EA7
  8
0
 10
1.4328742879340011
 20
3.2796428780079578
 30
0.0
 40
0.0709556502485733
 50
331.6505777544580269
 51
1.4085936621905739
  0
ARC
  5
3EA8
  8
0
 10
1.331222242588243
 20
2.838526920641022
 30
0.0
 40
0.0234812541910901
 50
321.6921064823077927
 51
22.1213219182866396
  0
ARC
  5
3EA9
  8
0
 10
1.331467626878051
 20
2.8386266672579832
 30
0.0
 40
0.0232163715052031
 50
22.1213219182878689
 51
86.5152089431805251
  0
ARC
  5
3EAA
  8
0
 10
1.33140729260727
 20
2.8376358946759832
 30
0.0
 40
0.0242089794507037
 50
86.5152089431862379
 51
137.253966839667612
  0
ARC
  5
3EAB
  8
0
 10
1.330748264176058
 20
2.838245009680946
 30
0.0
 40
0.0233115723176723
 50
137.2539668396686068
 51
187.6902028123768957
  0
ARC
  5
3EAC
  8
0
 10
1.33083710812431
 20
2.8382570063849708
 30
0.0
 40
0.0234012225717067
 50
187.6902028123722062
 51
243.5392951642577088
  0
ARC
  5
3EAD
  8
0
 10
1.3309580218682511
 20
2.8384999389319421
 30
0.0
 40
0.0236725827674818
 50
243.5392951642575099
 51
322.1397761333244034
  0
ARC
  5
3EAE
  8
0
 10
1.3309313536941929
 20
2.8541538000083762
 30
0.0
 40
0.0951293626435644
 50
69.4602525135243383
 51
129.1400690166146887
  0
ARC
  5
3EAF
  8
0
 10
1.330412589609739
 20
2.8542589918526668
 30
0.0
 40
0.0947209176757482
 50
128.9368513591174121
 51
179.8973781515817052
  0
ARC
  5
3EB0
  8
0
 10
1.328701149597858
 20
2.8543554269712952
 30
0.0
 40
0.0930093545508699
 50
179.9548958745290861
 51
248.7592927724469973
  0
ARC
  5
3EB1
  8
0
 10
1.3294629905334321
 20
2.8563154387109
 30
0.0
 40
0.0951122210778945
 50
248.7592927724469973
 51
325.296723336343689
  0
ARC
  5
3EB2
  8
0
 10
1.3297330008235191
 20
2.8561284518760841
 30
0.0
 40
0.0947837859501335
 50
325.2967233363419268
 51
24.0335796108882711
  0
ARC
  5
3EB3
  8
0
 10
1.3330406393808041
 20
2.8576034308432301
 30
0.0
 40
0.0911621791549156
 50
24.0335796108874789
 51
69.940981184055758
  0
ARC
  5
3EB4
  8
0
 10
1.3298922054201681
 20
2.8516126104518982
 30
0.0
 40
0.0683612722615737
 50
357.7302211432688068
 51
37.2596859047560613
  0
ARC
  5
3EB5
  8
0
 10
1.332533883497216
 20
2.8536220940358801
 30
0.0
 40
0.0650421628423086
 50
37.2596859047560613
 51
65.1087802499036741
  0
ARC
  5
3EB6
  8
0
 10
1.3317247115354891
 20
2.8518781825385018
 30
0.0
 40
0.0669646577250933
 50
65.1087802499034609
 51
106.6603496789803955
  0
ARC
  5
3EB7
  8
0
 10
1.3318939946070349
 20
2.85131251071883
 30
0.0
 40
0.0675551163315021
 50
106.6603496789796992
 51
139.4930044649842102
  0
ARC
  5
3EB8
  8
0
 10
1.333679822187992
 20
2.8497868927434871
 30
0.0
 40
0.0699038799116861
 50
139.4930044649823913
 51
164.9334327588321116
  0
ARC
  5
3EB9
  8
0
 10
1.3406459515124529
 20
2.8479116468623671
 30
0.0
 40
0.0771179983526137
 50
164.9334327588333906
 51
197.910885429548614
  0
ARC
  5
3EBA
  8
0
 10
1.3292841087755001
 20
2.8442394877138808
 30
0.0
 40
0.0651774697549724
 50
197.910885429548614
 51
242.3212171461451021
  0
ARC
  5
3EBB
  8
0
 10
1.3307361506595821
 20
2.8470077101736129
 30
0.0
 40
0.0683034066096931
 50
242.3212171461441926
 51
296.807435302197689
  0
ARC
  5
3EBC
  8
0
 10
1.3319305610439249
 20
2.844643941765955
 30
0.0
 40
0.065655007611945
 50
296.8074353021982006
 51
331.6505777544560942
  0
ARC
  5
3EBD
  8
0
 10
1.3272656346211451
 20
2.8471609387527042
 30
0.0
 40
0.0709556502485733
 50
331.6505777544580269
 51
1.4085936621905739
  0
ARC
  5
3EBE
  8
0
 10
0.9681303489246069
 20
3.1708224323793308
 30
0.0
 40
0.0234812541910901
 50
321.6921064823077927
 51
22.1213219182866396
  0
ARC
  5
3EBF
  8
0
 10
0.9683757332144153
 20
3.170922178996292
 30
0.0
 40
0.0232163715052031
 50
22.1213219182878689
 51
86.5152089431805251
  0
ARC
  5
3EC0
  8
0
 10
0.9683153989436341
 20
3.1699314064142921
 30
0.0
 40
0.0242089794507037
 50
86.5152089431862379
 51
137.253966839667612
  0
ARC
  5
3EC1
  8
0
 10
0.9676563705124223
 20
3.1705405214192548
 30
0.0
 40
0.0233115723176723
 50
137.2539668396686068
 51
187.6902028123768957
  0
ARC
  5
3EC2
  8
0
 10
0.9677452144606739
 20
3.1705525181232801
 30
0.0
 40
0.0234012225717067
 50
187.6902028123722062
 51
243.5392951642577088
  0
ARC
  5
3EC3
  8
0
 10
0.9678661282046157
 20
3.1707954506702509
 30
0.0
 40
0.0236725827674818
 50
243.5392951642575099
 51
322.1397761333244034
  0
ARC
  5
3EC4
  8
0
 10
0.9678394600305573
 20
3.1864493117466841
 30
0.0
 40
0.0951293626435644
 50
69.4602525135243383
 51
129.1400690166146887
  0
ARC
  5
3EC5
  8
0
 10
0.9673206959461033
 20
3.1865545035909761
 30
0.0
 40
0.0947209176757482
 50
128.9368513591174121
 51
179.8973781515817052
  0
ARC
  5
3EC6
  8
0
 10
0.9656092559342219
 20
3.186650938709604
 30
0.0
 40
0.0930093545508699
 50
179.9548958745290861
 51
248.7592927724469973
  0
ARC
  5
3EC7
  8
0
 10
0.9663710968697962
 20
3.1886109504492088
 30
0.0
 40
0.0951122210778945
 50
248.7592927724469973
 51
325.296723336343689
  0
ARC
  5
3EC8
  8
0
 10
0.9666411071598837
 20
3.188423963614393
 30
0.0
 40
0.0947837859501335
 50
325.2967233363419268
 51
24.0335796108882711
  0
ARC
  5
3EC9
  8
0
 10
0.9699487457171684
 20
3.1898989425815389
 30
0.0
 40
0.0911621791549156
 50
24.0335796108874789
 51
69.9409811840559712
  0
ARC
  5
3ECA
  8
0
 10
0.9668003117565326
 20
3.183908122190207
 30
0.0
 40
0.0683612722615737
 50
357.7302211432688068
 51
37.2596859047560613
  0
ARC
  5
3ECB
  8
0
 10
0.9694419898335802
 20
3.1859176057741889
 30
0.0
 40
0.0650421628423086
 50
37.2596859047560613
 51
65.1087802499036741
  0
ARC
  5
3ECC
  8
0
 10
0.9686328178718532
 20
3.1841736942768111
 30
0.0
 40
0.0669646577250933
 50
65.1087802499034609
 51
106.6603496789803955
  0
ARC
  5
3ECD
  8
0
 10
0.9688021009433995
 20
3.1836080224571388
 30
0.0
 40
0.0675551163315021
 50
106.6603496789796992
 51
139.4930044649842102
  0
ARC
  5
3ECE
  8
0
 10
0.970587928524356
 20
3.1820824044817959
 30
0.0
 40
0.0699038799116861
 50
139.4930044649823913
 51
164.9334327588321116
  0
ARC
  5
3ECF
  8
0
 10
0.9775540578488168
 20
3.1802071586006759
 30
0.0
 40
0.0771179983526137
 50
164.9334327588333906
 51
197.910885429548614
  0
ARC
  5
3ED0
  8
0
 10
0.9661922151118638
 20
3.1765349994521901
 30
0.0
 40
0.0651774697549724
 50
197.910885429548614
 51
242.3212171461451021
  0
ARC
  5
3ED1
  8
0
 10
0.9676442569959463
 20
3.1793032219119222
 30
0.0
 40
0.0683034066096931
 50
242.3212171461441926
 51
296.807435302197689
  0
ARC
  5
3ED2
  8
0
 10
0.9688386673802895
 20
3.1769394535042639
 30
0.0
 40
0.065655007611945
 50
296.8074353021982006
 51
331.6505777544560942
  0
ARC
  5
3ED3
  8
0
 10
0.9641737409575092
 20
3.179456450491013
 30
0.0
 40
0.0709556502485733
 50
331.6505777544580269
 51
1.4085936621905739
  0
ARC
  5
3ED4
  8
0
 10
0.483676368569665
 20
3.1197658517303282
 30
0.0
 40
0.0234812541910901
 50
321.6921064823077927
 51
22.1213219182866396
  0
ARC
  5
3ED5
  8
0
 10
0.4839217528594735
 20
3.119865598347288
 30
0.0
 40
0.0232163715052031
 50
22.1213219182878689
 51
86.5152089431805251
  0
ARC
  5
3ED6
  8
0
 10
0.4838614185886923
 20
3.1188748257652881
 30
0.0
 40
0.0242089794507037
 50
86.5152089431862379
 51
137.253966839667612
  0
ARC
  5
3ED7
  8
0
 10
0.4832023901574805
 20
3.1194839407702508
 30
0.0
 40
0.0233115723176723
 50
137.2539668396686068
 51
187.6902028123768957
  0
ARC
  5
3ED8
  8
0
 10
0.4832912341057321
 20
3.1194959374742761
 30
0.0
 40
0.0234012225717067
 50
187.6902028123722062
 51
243.5392951642577088
  0
ARC
  5
3ED9
  8
0
 10
0.4834121478496738
 20
3.1197388700212469
 30
0.0
 40
0.0236725827674818
 50
243.5392951642575099
 51
322.1397761333244034
  0
ARC
  5
3EDA
  8
0
 10
0.4833854796756154
 20
3.135392731097681
 30
0.0
 40
0.0951293626435644
 50
69.4602525135243383
 51
129.1400690166146887
  0
ARC
  5
3EDB
  8
0
 10
0.4828667155911615
 20
3.1354979229419722
 30
0.0
 40
0.0947209176757482
 50
128.9368513591174121
 51
179.8973781515817052
  0
ARC
  5
3EDC
  8
0
 10
0.4811552755792801
 20
3.1355943580606001
 30
0.0
 40
0.0930093545508699
 50
179.9548958745290861
 51
248.7592927724469973
  0
ARC
  5
3EDD
  8
0
 10
0.4819171165148544
 20
3.1375543698002062
 30
0.0
 40
0.0951122210778945
 50
248.7592927724469973
 51
325.296723336343689
  0
ARC
  5
3EDE
  8
0
 10
0.4821871268049418
 20
3.1373673829653899
 30
0.0
 40
0.0947837859501335
 50
325.2967233363419268
 51
24.0335796108882711
  0
ARC
  5
3EDF
  8
0
 10
0.4854947653622266
 20
3.138842361932535
 30
0.0
 40
0.0911621791549156
 50
24.0335796108874789
 51
69.9409811840559712
  0
ARC
  5
3EE0
  8
0
 10
0.4823463314015908
 20
3.132851541541203
 30
0.0
 40
0.0683612722615737
 50
357.7302211432688068
 51
37.2596859047560613
  0
ARC
  5
3EE1
  8
0
 10
0.4849880094786383
 20
3.1348610251251858
 30
0.0
 40
0.0650421628423086
 50
37.2596859047560613
 51
65.1087802499036741
  0
ARC
  5
3EE2
  8
0
 10
0.4841788375169114
 20
3.1331171136278071
 30
0.0
 40
0.0669646577250933
 50
65.1087802499034609
 51
106.6603496789803955
  0
ARC
  5
3EE3
  8
0
 10
0.4843481205884577
 20
3.1325514418081362
 30
0.0
 40
0.0675551163315021
 50
106.6603496789796992
 51
139.4930044649842102
  0
ARC
  5
3EE4
  8
0
 10
0.4861339481694143
 20
3.1310258238327928
 30
0.0
 40
0.0699038799116861
 50
139.4930044649823913
 51
164.9334327588321116
  0
ARC
  5
3EE5
  8
0
 10
0.493100077493875
 20
3.1291505779516728
 30
0.0
 40
0.0771179983526137
 50
164.9334327588333906
 51
197.910885429548614
  0
ARC
  5
3EE6
  8
0
 10
0.4817382347569219
 20
3.1254784188031861
 30
0.0
 40
0.0651774697549724
 50
197.910885429548614
 51
242.3212171461451021
  0
ARC
  5
3EE7
  8
0
 10
0.4831902766410044
 20
3.1282466412629191
 30
0.0
 40
0.0683034066096931
 50
242.3212171461441926
 51
296.807435302197689
  0
ARC
  5
3EE8
  8
0
 10
0.4843846870253477
 20
3.1258828728552599
 30
0.0
 40
0.065655007611945
 50
296.8074353021982006
 51
331.6505777544560942
  0
ARC
  5
3EE9
  8
0
 10
0.4797197606025674
 20
3.128399869842009
 30
0.0
 40
0.0709556502485733
 50
331.6505777544580269
 51
1.4085936621905739
  0
ARC
  5
3EEA
  8
0
 10
0.6377308203340171
 20
3.4774954185007161
 30
0.0
 40
0.0234812541910901
 50
321.6921064823077927
 51
22.1213219182866396
  0
ARC
  5
3EEB
  8
0
 10
0.6379762046238256
 20
3.477595165117676
 30
0.0
 40
0.0232163715052031
 50
22.1213219182878689
 51
86.5152089431805251
  0
ARC
  5
3EEC
  8
0
 10
0.6379158703530444
 20
3.476604392535676
 30
0.0
 40
0.0242089794507037
 50
86.5152089431862379
 51
137.253966839667612
  0
ARC
  5
3EED
  8
0
 10
0.6372568419218326
 20
3.4772135075406392
 30
0.0
 40
0.0233115723176723
 50
137.2539668396686068
 51
187.6902028123768957
  0
ARC
  5
3EEE
  8
0
 10
0.6373456858700841
 20
3.477225504244664
 30
0.0
 40
0.0234012225717067
 50
187.6902028123722062
 51
243.5392951642577088
  0
ARC
  5
3EEF
  8
0
 10
0.6374665996140259
 20
3.4774684367916349
 30
0.0
 40
0.0236725827674818
 50
243.5392951642575099
 51
322.1397761333244034
  0
ARC
  5
3EF0
  8
0
 10
0.6374399314399675
 20
3.4931222978680689
 30
0.0
 40
0.0951293626435644
 50
69.4602525135243383
 51
129.1400690166146887
  0
ARC
  5
3EF1
  8
0
 10
0.6369211673555136
 20
3.4932274897123601
 30
0.0
 40
0.0947209176757482
 50
128.9368513591174121
 51
179.8973781515817052
  0
ARC
  5
3EF2
  8
0
 10
0.6352097273436322
 20
3.493323924830988
 30
0.0
 40
0.0930093545508699
 50
179.9548958745290861
 51
248.7592927724469973
  0
ARC
  5
3EF3
  8
0
 10
0.6359715682792065
 20
3.4952839365705941
 30
0.0
 40
0.0951122210778945
 50
248.7592927724469973
 51
325.296723336343689
  0
ARC
  5
3EF4
  8
0
 10
0.6362415785692939
 20
3.4950969497357778
 30
0.0
 40
0.0947837859501335
 50
325.2967233363419268
 51
24.0335796108882711
  0
ARC
  5
3EF5
  8
0
 10
0.6395492171265788
 20
3.4965719287029229
 30
0.0
 40
0.0911621791549156
 50
24.0335796108874789
 51
69.9409811840559712
  0
ARC
  5
3EF6
  8
0
 10
0.636400783165943
 20
3.490581108311591
 30
0.0
 40
0.0683612722615737
 50
357.7302211432688068
 51
37.2596859047560613
  0
ARC
  5
3EF7
  8
0
 10
0.6390424612429904
 20
3.4925905918955742
 30
0.0
 40
0.0650421628423086
 50
37.2596859047560613
 51
65.1087802499036741
  0
ARC
  5
3EF8
  8
0
 10
0.6382332892812635
 20
3.490846680398195
 30
0.0
 40
0.0669646577250933
 50
65.1087802499034609
 51
106.6603496789803955
  0
ARC
  5
3EF9
  8
0
 10
0.6384025723528098
 20
3.4902810085785241
 30
0.0
 40
0.0675551163315021
 50
106.6603496789796992
 51
139.4930044649842102
  0
ARC
  5
3EFA
  8
0
 10
0.6401883999337663
 20
3.4887553906031812
 30
0.0
 40
0.0699038799116861
 50
139.4930044649823913
 51
164.9334327588321116
  0
ARC
  5
3EFB
  8
0
 10
0.6471545292582271
 20
3.4868801447220612
 30
0.0
 40
0.0771179983526137
 50
164.9334327588333906
 51
197.910885429548614
  0
ARC
  5
3EFC
  8
0
 10
0.635792686521274
 20
3.483207985573574
 30
0.0
 40
0.0651774697549724
 50
197.910885429548614
 51
242.3212171461451021
  0
ARC
  5
3EFD
  8
0
 10
0.6372447284053564
 20
3.4859762080333061
 30
0.0
 40
0.0683034066096931
 50
242.3212171461441926
 51
296.807435302197689
  0
ARC
  5
3EFE
  8
0
 10
0.6384391387896998
 20
3.4836124396256478
 30
0.0
 40
0.065655007611945
 50
296.8074353021982006
 51
331.6505777544560942
  0
ARC
  5
3EFF
  8
0
 10
0.6337742123669196
 20
3.4861294366123969
 30
0.0
 40
0.0709556502485733
 50
331.6505777544580269
 51
1.4085936621905739
  0
ARC
  5
3F00
  8
0
 10
1.0458404175658449
 20
3.6130823666774949
 30
0.0
 40
0.0234812541910901
 50
321.6921064823077927
 51
22.1213219182866396
  0
ARC
  5
3F01
  8
0
 10
1.0460858018556529
 20
3.6131821132944562
 30
0.0
 40
0.0232163715052031
 50
22.1213219182878689
 51
86.5152089431805251
  0
ARC
  5
3F02
  8
0
 10
1.0460254675848719
 20
3.6121913407124562
 30
0.0
 40
0.0242089794507037
 50
86.5152089431862379
 51
137.253966839667612
  0
ARC
  5
3F03
  8
0
 10
1.0453664391536599
 20
3.6128004557174189
 30
0.0
 40
0.0233115723176723
 50
137.2539668396686068
 51
187.6902028123768957
  0
ARC
  5
3F04
  8
0
 10
1.0454552831019119
 20
3.6128124524214442
 30
0.0
 40
0.0234012225717067
 50
187.6902028123722062
 51
243.5392951642577088
  0
ARC
  5
3F05
  8
0
 10
1.045576196845853
 20
3.6130553849684151
 30
0.0
 40
0.0236725827674818
 50
243.5392951642575099
 51
322.1397761333244034
  0
ARC
  5
3F06
  8
0
 10
1.0455495286717951
 20
3.6287092460448491
 30
0.0
 40
0.0951293626435644
 50
69.4602525135243383
 51
129.1400690166146887
  0
ARC
  5
3F07
  8
0
 10
1.0450307645873409
 20
3.6288144378891398
 30
0.0
 40
0.0947209176757482
 50
128.9368513591174121
 51
179.8973781515817052
  0
ARC
  5
3F08
  8
0
 10
1.0433193245754599
 20
3.6289108730077682
 30
0.0
 40
0.0930093545508699
 50
179.9548958745290861
 51
248.7592927724469973
  0
ARC
  5
3F09
  8
0
 10
1.044081165511034
 20
3.630870884747373
 30
0.0
 40
0.0951122210778945
 50
248.7592927724469973
 51
325.296723336343689
  0
ARC
  5
3F0A
  8
0
 10
1.044351175801121
 20
3.6306838979125571
 30
0.0
 40
0.0947837859501335
 50
325.2967233363419268
 51
24.0335796108882711
  0
ARC
  5
3F0B
  8
0
 10
1.047658814358406
 20
3.6321588768797031
 30
0.0
 40
0.0911621791549156
 50
24.0335796108874789
 51
69.9409811840559712
  0
ARC
  5
3F0C
  8
0
 10
1.04451038039777
 20
3.6261680564883711
 30
0.0
 40
0.0683612722615737
 50
357.7302211432688068
 51
37.2596859047560613
  0
ARC
  5
3F0D
  8
0
 10
1.047152058474818
 20
3.628177540072353
 30
0.0
 40
0.0650421628423086
 50
37.2596859047560613
 51
65.1087802499036741
  0
ARC
  5
3F0E
  8
0
 10
1.046342886513091
 20
3.6264336285749752
 30
0.0
 40
0.0669646577250933
 50
65.1087802499034609
 51
106.6603496789803955
  0
ARC
  5
3F0F
  8
0
 10
1.0465121695846371
 20
3.6258679567553029
 30
0.0
 40
0.0675551163315021
 50
106.6603496789796992
 51
139.4930044649842102
  0
ARC
  5
3F10
  8
0
 10
1.0482979971655939
 20
3.62434233877996
 30
0.0
 40
0.0699038799116861
 50
139.4930044649823913
 51
164.9334327588321116
  0
ARC
  5
3F11
  8
0
 10
1.0552641264900551
 20
3.6224670928988401
 30
0.0
 40
0.0771179983526137
 50
164.9334327588333906
 51
197.910885429548614
  0
ARC
  5
3F12
  8
0
 10
1.043902283753102
 20
3.6187949337503542
 30
0.0
 40
0.0651774697549724
 50
197.910885429548614
 51
242.3212171461451021
  0
ARC
  5
3F13
  8
0
 10
1.045354325637184
 20
3.6215631562100858
 30
0.0
 40
0.0683034066096931
 50
242.3212171461441926
 51
296.807435302197689
  0
ARC
  5
3F14
  8
0
 10
1.0465487360215271
 20
3.619199387802428
 30
0.0
 40
0.065655007611945
 50
296.8074353021982006
 51
331.6505777544560942
  0
ARC
  5
3F15
  8
0
 10
1.041883809598747
 20
3.6217163847891771
 30
0.0
 40
0.0709556502485733
 50
331.6505777544580269
 51
1.4085936621905739
  0
ARC
  5
3F16
  8
0
 10
0.3707634463603573
 20
5.128359333325796
 30
0.0
 40
0.0413665750975364
 50
330.6052243271591919
 51
56.0160845473849207
  0
ARC
  5
3F17
  8
0
 10
0.3688345483575941
 20
5.1254978920155159
 30
0.0
 40
0.0448174436660661
 50
56.0160845473832296
 51
125.1817034765188055
  0
ARC
  5
3F18
  8
0
 10
0.3668788724306435
 20
5.1282721197375407
 30
0.0
 40
0.0414231826588794
 50
125.1817034765221024
 51
217.4198848778563047
  0
ARC
  5
3F19
  8
0
 10
0.3686592041525825
 20
5.1296342654334062
 30
0.0
 40
0.043664838729047
 50
217.4198848778545994
 51
294.7813747221339895
  0
ARC
  5
3F1A
  8
0
 10
0.3682942422529831
 20
5.1304247901414861
 30
0.0
 40
0.0445355433300704
 50
294.7813747221314884
 51
329.8492424157764731
  0
ARC
  5
3F1B
  8
0
 10
0.3718216051108354
 20
5.14645700169019
 30
0.0
 40
0.1143460635685627
 50
359.3717371767411919
 51
71.1565624229603912
  0
ARC
  5
3F1C
  8
0
 10
0.3696452429047814
 20
5.140079831563539
 30
0.0
 40
0.1210843757664524
 50
71.1565624229599649
 51
153.8690727123187969
  0
ARC
  5
3F1D
  8
0
 10
0.3643813052633829
 20
5.1465432894229721
 30
0.0
 40
0.1135652729469229
 50
155.6273251595247871
 51
251.4121093506699083
  0
ARC
  5
3F1E
  8
0
 10
0.3684701620388293
 20
5.1495679890482959
 30
0.0
 40
0.1177715432520463
 50
249.9955637152908992
 51
357.8760431720886004
  0
ARC
  5
3F1F
  8
0
 10
0.3705581585204141
 20
5.137533805325698
 30
0.0
 40
0.0771005943173196
 50
357.1284466689621127
 51
70.9270103519605044
  0
ARC
  5
3F20
  8
0
 10
0.3695926565435497
 20
5.1347413452218218
 30
0.0
 40
0.0800552563113654
 50
70.9270103519594244
 51
165.7217519642850903
  0
ARC
  5
3F21
  8
0
 10
0.3682914711165606
 20
5.1350724871971991
 30
0.0
 40
0.0787125953253899
 50
165.7217519642842092
 51
247.4946264928865958
  0
ARC
  5
3F22
  8
0
 10
0.3684530984639207
 20
5.1354562274693647
 30
0.0
 40
0.0791289774842463
 50
247.4928640053960862
 51
358.7074516818940992
  0
ARC
  5
3F23
  8
0
 10
0.6213594791421749
 20
4.9282511735249228
 30
0.0
 40
0.0413665750975364
 50
330.6052243271591919
 51
56.0160845473849207
  0
ARC
  5
3F24
  8
0
 10
0.6194305811394121
 20
4.9253897322146427
 30
0.0
 40
0.0448174436660661
 50
56.0160845473832296
 51
125.1817034765188055
  0
ARC
  5
3F25
  8
0
 10
0.6174749052124616
 20
4.9281639599366676
 30
0.0
 40
0.0414231826588794
 50
125.1817034765221024
 51
217.4198848778563047
  0
ARC
  5
3F26
  8
0
 10
0.6192552369343969
 20
4.929526105632533
 30
0.0
 40
0.043664838729047
 50
217.4198848778545994
 51
294.7813747221339895
  0
ARC
  5
3F27
  8
0
 10
0.6188902750347977
 20
4.9303166303406121
 30
0.0
 40
0.0445355433300704
 50
294.7813747221314884
 51
329.8492424157764731
  0
ARC
  5
3F28
  8
0
 10
0.6224176378926494
 20
4.9463488418893169
 30
0.0
 40
0.1143460635685627
 50
359.3717371767411919
 51
71.1565624229603912
  0
ARC
  5
3F29
  8
0
 10
0.620241275686599
 20
4.9399716717626658
 30
0.0
 40
0.1210843757664524
 50
71.1565624229599649
 51
153.8690727123187969
  0
ARC
  5
3F2A
  8
0
 10
0.6149773380452009
 20
4.9464351296220981
 30
0.0
 40
0.1135652729469229
 50
155.6273251595247871
 51
251.4121093506699083
  0
ARC
  5
3F2B
  8
0
 10
0.6190661948206438
 20
4.9494598292474228
 30
0.0
 40
0.1177715432520463
 50
249.9955637152908992
 51
357.8760431720886004
  0
ARC
  5
3F2C
  8
0
 10
0.6211541913022316
 20
4.9374256455248249
 30
0.0
 40
0.0771005943173196
 50
357.1284466689621127
 51
70.9270103519605044
  0
ARC
  5
3F2D
  8
0
 10
0.6201886893253638
 20
4.9346331854209486
 30
0.0
 40
0.0800552563113654
 50
70.9270103519594244
 51
165.7217519642850903
  0
ARC
  5
3F2E
  8
0
 10
0.6188875038983787
 20
4.9349643273963251
 30
0.0
 40
0.0787125953253899
 50
165.7217519642842092
 51
247.4946264928865958
  0
ARC
  5
3F2F
  8
0
 10
0.6190491312457352
 20
4.9353480676684924
 30
0.0
 40
0.0791289774842463
 50
247.4928640053960862
 51
358.7074516818942129
  0
ARC
  5
3F30
  8
0
 10
0.6779593491017728
 20
4.6209641965998527
 30
0.0
 40
0.0413665750975364
 50
330.6052243271591919
 51
56.0160845473849207
  0
ARC
  5
3F31
  8
0
 10
0.6760304510990096
 20
4.6181027552895726
 30
0.0
 40
0.0448174436660661
 50
56.0160845473832296
 51
125.1817034765188055
  0
ARC
  5
3F32
  8
0
 10
0.674074775172059
 20
4.6208769830115983
 30
0.0
 40
0.0414231826588794
 50
125.1817034765221024
 51
217.4198848778563047
  0
ARC
  5
3F33
  8
0
 10
0.6758551068939945
 20
4.622239128707462
 30
0.0
 40
0.043664838729047
 50
217.4198848778545994
 51
294.7813747221339895
  0
ARC
  5
3F34
  8
0
 10
0.6754901449943951
 20
4.623029653415542
 30
0.0
 40
0.0445355433300704
 50
294.7813747221314884
 51
329.8492424157764731
  0
ARC
  5
3F35
  8
0
 10
0.6790175078522473
 20
4.6390618649642468
 30
0.0
 40
0.1143460635685627
 50
359.3717371767411919
 51
71.1565624229603912
  0
ARC
  5
3F36
  8
0
 10
0.6768411456461969
 20
4.6326846948375957
 30
0.0
 40
0.1210843757664524
 50
71.1565624229599649
 51
153.8690727123187969
  0
ARC
  5
3F37
  8
0
 10
0.6715772080047984
 20
4.639148152697028
 30
0.0
 40
0.1135652729469229
 50
155.6273251595247871
 51
251.4121093506699083
  0
ARC
  5
3F38
  8
0
 10
0.6756660647802413
 20
4.6421728523223527
 30
0.0
 40
0.1177715432520463
 50
249.9955637152908992
 51
357.8760431720886004
  0
ARC
  5
3F39
  8
0
 10
0.6777540612618296
 20
4.6301386685997548
 30
0.0
 40
0.0771005943173196
 50
357.1284466689621127
 51
70.9270103519605044
  0
ARC
  5
3F3A
  8
0
 10
0.6767885592849617
 20
4.6273462084958794
 30
0.0
 40
0.0800552563113654
 50
70.9270103519594244
 51
165.7217519642850903
  0
ARC
  5
3F3B
  8
0
 10
0.6754873738579761
 20
4.6276773504712549
 30
0.0
 40
0.0787125953253899
 50
165.7217519642842092
 51
247.4946264928865958
  0
ARC
  5
3F3C
  8
0
 10
0.6756490012053327
 20
4.6280610907434223
 30
0.0
 40
0.0791289774842463
 50
247.4928640053960862
 51
358.7074516818942129
  0
ARC
  5
3F3D
  8
0
 10
0.5145289101282599
 20
4.3482051777451209
 30
0.0
 40
0.0413665750975364
 50
330.6052243271591919
 51
56.0160845473849207
  0
ARC
  5
3F3E
  8
0
 10
0.5126000121254966
 20
4.3453437364348408
 30
0.0
 40
0.0448174436660661
 50
56.0160845473832296
 51
125.1817034765188055
  0
ARC
  5
3F3F
  8
0
 10
0.510644336198546
 20
4.3481179641568657
 30
0.0
 40
0.0414231826588794
 50
125.1817034765221024
 51
217.4198848778563047
  0
ARC
  5
3F40
  8
0
 10
0.5124246679204814
 20
4.3494801098527311
 30
0.0
 40
0.043664838729047
 50
217.4198848778545994
 51
294.7813747221339895
  0
ARC
  5
3F41
  8
0
 10
0.5120597060208821
 20
4.3502706345608111
 30
0.0
 40
0.0445355433300704
 50
294.7813747221314884
 51
329.8492424157764731
  0
ARC
  5
3F42
  8
0
 10
0.5155870688787343
 20
4.366302846109515
 30
0.0
 40
0.1143460635685627
 50
359.3717371767411919
 51
71.1565624229603912
  0
ARC
  5
3F43
  8
0
 10
0.5134107066726838
 20
4.359925675982864
 30
0.0
 40
0.1210843757664524
 50
71.1565624229599649
 51
153.8690727123187969
  0
ARC
  5
3F44
  8
0
 10
0.5081467690312853
 20
4.3663891338422971
 30
0.0
 40
0.1135652729469229
 50
155.6273251595247871
 51
251.4121093506699083
  0
ARC
  5
3F45
  8
0
 10
0.5122356258067283
 20
4.3694138334676209
 30
0.0
 40
0.1177715432520463
 50
249.9955637152908992
 51
357.8760431720886004
  0
ARC
  5
3F46
  8
0
 10
0.5143236222883166
 20
4.357379649745023
 30
0.0
 40
0.0771005943173196
 50
357.1284466689621127
 51
70.9270103519605044
  0
ARC
  5
3F47
  8
0
 10
0.5133581203114486
 20
4.3545871896411468
 30
0.0
 40
0.0800552563113654
 50
70.9270103519594244
 51
165.7217519642850903
  0
ARC
  5
3F48
  8
0
 10
0.5120569348844631
 20
4.3549183316165241
 30
0.0
 40
0.0787125953253899
 50
165.7217519642842092
 51
247.4946264928865958
  0
ARC
  5
3F49
  8
0
 10
0.5122185622318196
 20
4.3553020718886897
 30
0.0
 40
0.0791289774842463
 50
247.4928640053960862
 51
358.7074516818942129
  0
ARC
  5
3F4A
  8
0
 10
0.7389644543300129
 20
5.3267013558104992
 30
0.0
 40
0.1723695500671192
 50
71.1488697802016929
 51
145.6275276945031862
  0
ARC
  5
3F4B
  8
0
 10
0.7309146607009147
 20
5.3322074856748642
 30
0.0
 40
0.1626167738698307
 50
145.627527694502902
 51
209.8412437906609114
  0
ARC
  5
3F4C
  8
0
 10
0.7305784625809295
 20
5.3320146216778239
 30
0.0
 40
0.1622291842708529
 50
209.8412437906611956
 51
251.5033257807995994
  0
ARC
  5
3F4D
  8
0
 10
0.7342600144955576
 20
5.343019743399398
 30
0.0
 40
0.1738337751127028
 50
251.5033257807995994
 51
325.6259249649418734
  0
ARC
  5
3F4E
  8
0
 10
0.7448626722594334
 20
5.3357669965841623
 30
0.0
 40
0.1609878151242905
 50
325.6259249649417029
 51
29.0881026477424207
  0
ARC
  5
3F4F
  8
0
 10
0.74181965280766
 20
5.3340741012189454
 30
0.0
 40
0.1644700359819391
 50
29.0881026477423603
 51
71.2602909046502191
  0
ARC
  5
3F50
  8
0
 10
0.7391694478589237
 20
5.3148064771465222
 30
0.0
 40
0.0742257057971497
 50
22.7527411801250494
 51
158.071320484284513
  0
ARC
  5
3F51
  8
0
 10
0.7391532570500452
 20
5.3170578824696051
 30
0.0
 40
0.0733994417597743
 50
159.6971184475466998
 51
21.1269432172132596
  0
ARC
  5
3F52
  8
0
 10
0.7386631300435162
 20
5.3916173384112831
 30
0.0
 40
0.0841581112445414
 50
215.6903051366604984
 51
325.0629676455029085
  0
ARC
  5
3F53
  8
0
 10
0.7374711956703344
 20
5.3201436574771641
 30
0.0
 40
0.1308906466980743
 50
359.3029152524184155
 51
132.2097012174569954
  0
ARC
  5
3F54
  8
0
 10
0.7343698504325893
 20
5.3235628011573404
 30
0.0
 40
0.1262744918274731
 50
132.2097012174567112
 51
214.6376631897508958
  0
ARC
  5
3F55
  8
0
 10
0.73756908311017
 20
5.3257729091809232
 30
0.0
 40
0.1301628934529739
 50
214.6376631897510947
 51
294.8627656767926055
  0
ARC
  5
3F56
  8
0
 10
0.7369135509180857
 20
5.3271875388951058
 30
0.0
 40
0.1317220277265718
 50
294.8627656767934013
 51
356.2407236331832223
  0
ARC
  5
3F57
  8
0
 10
1.019216843234698
 20
4.8386711780555407
 30
0.0
 40
0.1723695500671192
 50
71.1488697802016929
 51
145.6275276945031862
  0
ARC
  5
3F58
  8
0
 10
1.011167049605596
 20
4.8441773079199058
 30
0.0
 40
0.1626167738698307
 50
145.627527694502902
 51
209.8412437906609114
  0
ARC
  5
3F59
  8
0
 10
1.010830851485611
 20
4.8439844439228672
 30
0.0
 40
0.1622291842708529
 50
209.8412437906611956
 51
251.5033257807995994
  0
ARC
  5
3F5A
  8
0
 10
1.0145124034002391
 20
4.8549895656444413
 30
0.0
 40
0.1738337751127028
 50
251.5033257807995994
 51
325.6259249649418734
  0
ARC
  5
3F5B
  8
0
 10
1.025115061164118
 20
4.8477368188292038
 30
0.0
 40
0.1609878151242905
 50
325.6259249649417029
 51
29.0881026477424207
  0
ARC
  5
3F5C
  8
0
 10
1.022072041712345
 20
4.8460439234639869
 30
0.0
 40
0.1644700359819391
 50
29.0881026477423603
 51
71.2602909046502191
  0
ARC
  5
3F5D
  8
0
 10
1.0194218367636081
 20
4.8267762993915637
 30
0.0
 40
0.0742257057971497
 50
22.7527411801250494
 51
158.071320484284513
  0
ARC
  5
3F5E
  8
0
 10
1.019405645954726
 20
4.8290277047146466
 30
0.0
 40
0.0733994417597743
 50
159.6971184475466998
 51
21.1269432172132596
  0
ARC
  5
3F5F
  8
0
 10
1.0189155189481971
 20
4.9035871606563246
 30
0.0
 40
0.0841581112445414
 50
215.6903051366604984
 51
325.062967645503079
  0
ARC
  5
3F60
  8
0
 10
1.0177235845750161
 20
4.8321134797222056
 30
0.0
 40
0.1308906466980743
 50
359.3029152524184155
 51
132.2097012174569954
  0
ARC
  5
3F61
  8
0
 10
1.0146222393372739
 20
4.8355326234023819
 30
0.0
 40
0.1262744918274731
 50
132.2097012174567112
 51
214.6376631897508958
  0
ARC
  5
3F62
  8
0
 10
1.0178214720148511
 20
4.8377427314259647
 30
0.0
 40
0.1301628934529739
 50
214.6376631897510947
 51
294.8627656767926055
  0
ARC
  5
3F63
  8
0
 10
1.017165939822771
 20
4.839157361140149
 30
0.0
 40
0.1317220277265718
 50
294.8627656767934013
 51
356.2407236331832223
  0
ARC
  5
3F64
  8
0
 10
0.92247356409597
 20
4.3081363146100244
 30
0.0
 40
0.1723695500671192
 50
71.1488697802016929
 51
145.6275276945031862
  0
ARC
  5
3F65
  8
0
 10
0.9144237704668682
 20
4.3136424444743886
 30
0.0
 40
0.1626167738698307
 50
145.627527694502902
 51
209.8412437906609114
  0
ARC
  5
3F66
  8
0
 10
0.914087572346883
 20
4.3134495804773501
 30
0.0
 40
0.1622291842708529
 50
209.8412437906611956
 51
251.5033257807995994
  0
ARC
  5
3F67
  8
0
 10
0.9177691242615111
 20
4.3244547021989241
 30
0.0
 40
0.1738337751127028
 50
251.5033257807995994
 51
325.6259249649418734
  0
ARC
  5
3F68
  8
0
 10
0.9283717820253905
 20
4.3172019553836867
 30
0.0
 40
0.1609878151242905
 50
325.6259249649417029
 51
29.0881026477424207
  0
ARC
  5
3F69
  8
0
 10
0.925328762573617
 20
4.3155090600184698
 30
0.0
 40
0.1644700359819391
 50
29.0881026477423603
 51
71.2602909046502191
  0
ARC
  5
3F6A
  8
0
 10
0.9226785576248808
 20
4.2962414359460466
 30
0.0
 40
0.0742257057971497
 50
22.7527411801250494
 51
158.071320484284513
  0
ARC
  5
3F6B
  8
0
 10
0.9226623668159987
 20
4.2984928412691303
 30
0.0
 40
0.0733994417597743
 50
159.6971184475466998
 51
21.1269432172132596
  0
ARC
  5
3F6C
  8
0
 10
0.9221722398094698
 20
4.3730522972108083
 30
0.0
 40
0.0841581112445414
 50
215.6903051366604984
 51
325.062967645503079
  0
ARC
  5
3F6D
  8
0
 10
0.9209803054362879
 20
4.3015786162766894
 30
0.0
 40
0.1308906466980743
 50
359.3029152524184155
 51
132.2097012174569954
  0
ARC
  5
3F6E
  8
0
 10
0.9178789601985464
 20
4.3049977599568647
 30
0.0
 40
0.1262744918274731
 50
132.2097012174567112
 51
214.6376631897508958
  0
ARC
  5
3F6F
  8
0
 10
0.9210781928761235
 20
4.3072078679804484
 30
0.0
 40
0.1301628934529739
 50
214.6376631897510947
 51
294.8627656767926055
  0
ARC
  5
3F70
  8
0
 10
0.9204226606840428
 20
4.308622497694631
 30
0.0
 40
0.1317220277265718
 50
294.8627656767934013
 51
356.2407236331832223
  0
ARC
  5
3F71
  8
0
 10
0.4933370487141997
 20
3.9558675237168148
 30
0.0
 40
0.1723695500671192
 50
71.1488697802016929
 51
145.6275276945031862
  0
ARC
  5
3F72
  8
0
 10
0.4852872550851015
 20
3.9613736535811799
 30
0.0
 40
0.1626167738698307
 50
145.627527694502902
 51
209.8412437906609114
  0
ARC
  5
3F73
  8
0
 10
0.4849510569651164
 20
3.96118078958414
 30
0.0
 40
0.1622291842708529
 50
209.8412437906611956
 51
251.5033257807995994
  0
ARC
  5
3F74
  8
0
 10
0.4886326088797444
 20
3.9721859113057141
 30
0.0
 40
0.1738337751127028
 50
251.5033257807995994
 51
325.6259249649418734
  0
ARC
  5
3F75
  8
0
 10
0.4992352666436202
 20
3.9649331644904779
 30
0.0
 40
0.1609878151242905
 50
325.6259249649417029
 51
29.0881026477424207
  0
ARC
  5
3F76
  8
0
 10
0.4961922471918468
 20
3.9632402691252611
 30
0.0
 40
0.1644700359819391
 50
29.0881026477423603
 51
71.2602909046502191
  0
ARC
  5
3F77
  8
0
 10
0.4935420422431105
 20
3.9439726450528378
 30
0.0
 40
0.0742257057971497
 50
22.7527411801250494
 51
158.071320484284513
  0
ARC
  5
3F78
  8
0
 10
0.493525851434232
 20
3.9462240503759212
 30
0.0
 40
0.0733994417597743
 50
159.6971184475466998
 51
21.1269432172132596
  0
ARC
  5
3F79
  8
0
 10
0.4930357244277031
 20
4.0207835063175992
 30
0.0
 40
0.0841581112445414
 50
215.6903051366604984
 51
325.062967645503079
  0
ARC
  5
3F7A
  8
0
 10
0.4918437900545212
 20
3.9493098253834802
 30
0.0
 40
0.1308906466980743
 50
359.3029152524184155
 51
132.2097012174569954
  0
ARC
  5
3F7B
  8
0
 10
0.4887424448167761
 20
3.952728969063656
 30
0.0
 40
0.1262744918274731
 50
132.2097012174567112
 51
214.6376631897508958
  0
ARC
  5
3F7C
  8
0
 10
0.4919416774943568
 20
3.9549390770872388
 30
0.0
 40
0.1301628934529739
 50
214.6376631897510947
 51
294.8627656767926055
  0
ARC
  5
3F7D
  8
0
 10
0.4912861453022726
 20
3.9563537068014218
 30
0.0
 40
0.1317220277265718
 50
294.8627656767934013
 51
356.2407236331832223
  0
ARC
  5
3F7E
  8
0
 10
1.1381222781459031
 20
4.5703027312833981
 30
0.0
 40
0.0232797562782155
 50
2.1161180468579799
 51
131.2812575015256868
  0
ARC
  5
3F7F
  8
0
 10
1.1381222781459031
 20
4.5703027312833981
 30
0.0
 40
0.0232797562782131
 50
131.28125750152509
 51
2.116118046858082
  0
ARC
  5
3F80
  8
0
 10
1.138396637721715
 20
4.5672634697353578
 30
0.0
 40
0.0592630450443941
 50
16.6580135975404602
 51
132.5727601705225993
  0
ARC
  5
3F81
  8
0
 10
1.13733933176277
 20
4.5684143790409344
 30
0.0
 40
0.0577001988841876
 50
132.5727601705245036
 51
219.4860001724073868
  0
ARC
  5
3F82
  8
0
 10
1.1354814219903231
 20
4.5668835987125043
 30
0.0
 40
0.0552928939312437
 50
219.4860001724071878
 51
298.7546584501304778
  0
ARC
  5
3F83
  8
0
 10
1.139063615226255
 20
4.5712143621724231
 30
0.0
 40
0.057603722115712
 50
293.5516143313190014
 51
13.0810131469101805
  0
ARC
  5
3F84
  8
0
 10
1.025176345064025
 20
5.1852213086986723
 30
0.0
 40
0.0232797562782155
 50
2.1161180468579799
 51
131.2812575015256868
  0
ARC
  5
3F85
  8
0
 10
1.025176345064025
 20
5.1852213086986723
 30
0.0
 40
0.0232797562782131
 50
131.28125750152509
 51
2.116118046858082
  0
ARC
  5
3F86
  8
0
 10
1.0254507046398369
 20
5.1821820471506319
 30
0.0
 40
0.0592630450443941
 50
16.6580135975404602
 51
132.5727601705225993
  0
ARC
  5
3F87
  8
0
 10
1.024393398680896
 20
5.1833329564562076
 30
0.0
 40
0.0577001988841876
 50
132.5727601705245036
 51
219.4860001724073868
  0
ARC
  5
3F88
  8
0
 10
1.022535488908445
 20
5.1818021761277784
 30
0.0
 40
0.0552928939312437
 50
219.4860001724071878
 51
298.7546584501304778
  0
ARC
  5
3F89
  8
0
 10
1.0261176821443769
 20
5.1861329395876972
 30
0.0
 40
0.057603722115712
 50
293.5516143313190014
 51
13.0810131469101805
  0
ARC
  5
3F8A
  8
0
 10
0.5293789238985452
 20
5.5832464754568667
 30
0.0
 40
0.0232797562782155
 50
2.1161180468579799
 51
131.2812575015256868
  0
ARC
  5
3F8B
  8
0
 10
0.5293789238985452
 20
5.5832464754568667
 30
0.0
 40
0.0232797562782131
 50
131.28125750152509
 51
2.116118046858082
  0
ARC
  5
3F8C
  8
0
 10
0.5296532834743571
 20
5.5802072139088281
 30
0.0
 40
0.0592630450443941
 50
16.6580135975404602
 51
132.5727601705225993
  0
ARC
  5
3F8D
  8
0
 10
0.5285959775154159
 20
5.5813581232144029
 30
0.0
 40
0.0577001988841876
 50
132.5727601705245036
 51
219.4860001724073868
  0
ARC
  5
3F8E
  8
0
 10
0.5267380677429654
 20
5.5798273428859728
 30
0.0
 40
0.0552928939312437
 50
219.4860001724071878
 51
298.7546584501304778
  0
ARC
  5
3F8F
  8
0
 10
0.5303202609789009
 20
5.5841581063458916
 30
0.0
 40
0.057603722115712
 50
293.5516143313190014
 51
13.0810131469101805
  0
ARC
  5
3F90
  8
0
 10
0.8141437636881931
 20
4.0287637843413222
 30
0.0
 40
0.0232797562782155
 50
2.1161180468579799
 51
131.2812575015256868
  0
ARC
  5
3F91
  8
0
 10
0.8141437636881931
 20
4.0287637843413222
 30
0.0
 40
0.0232797562782131
 50
131.28125750152509
 51
2.116118046858082
  0
ARC
  5
3F92
  8
0
 10
0.814418123264005
 20
4.0257245227932819
 30
0.0
 40
0.0592630450443941
 50
16.6580135975404602
 51
132.5727601705225993
  0
ARC
  5
3F93
  8
0
 10
0.8133608173050639
 20
4.0268754320988576
 30
0.0
 40
0.0577001988841876
 50
132.5727601705245036
 51
219.4860001724073868
  0
ARC
  5
3F94
  8
0
 10
0.8115029075326134
 20
4.0253446517704283
 30
0.0
 40
0.0552928939312437
 50
219.4860001724073868
 51
298.7546584501304778
  0
ARC
  5
3F95
  8
0
 10
0.8150851007685453
 20
4.0296754152303471
 30
0.0
 40
0.057603722115712
 50
293.5516143313190014
 51
13.0810131469101805
  0
ARC
  5
3F96
  8
0
 10
-6.2743757015764814
 20
1.42094284998037
 30
0.0
 40
7.1125480617782353
 50
356.0684868300908192
 51
359.6606506176977973
  0
LINE
  5
3F97
  8
0
 10
-0.1340567424481738
 20
-2.647897637643132
 30
0.0
 11
0.548896013451826
 21
-2.647897637643132
 31
0.0
  0
LINE
  5
3F98
  8
0
 10
-0.1977451605481737
 20
-2.5603190500431312
 30
0.0
 11
-0.1537417818481734
 21
-2.5829307633431311
 31
0.0
  0
LINE
  5
3F99
  8
0
 10
0.6126084532518257
 20
-2.510419450443131
 30
0.0
 11
0.5685810528518265
 21
-2.487775730743131
 31
0.0
  0
LINE
  5
3F9A
  8
0
 10
-0.1340567424481738
 20
-2.647897637643132
 30
0.0
 11
-0.1537417818481734
 21
-2.628212598243131
 31
0.0
  0
LINE
  5
3F9B
  8
0
 10
-0.197743972448174
 20
-2.5603196692431309
 30
0.0
 11
-0.1983237423481739
 21
-2.559717218043132
 31
0.0
  0
LINE
  5
3F9C
  8
0
 10
-0.1983382606481743
 20
-2.546711826043131
 30
0.0
 11
-0.1983237423481739
 21
-2.559717218043132
 31
0.0
  0
LINE
  5
3F9D
  8
0
 10
-0.1537417818481734
 20
-2.5115643047431311
 30
0.0
 11
-0.1537417818481734
 21
-2.5231421757431312
 31
0.0
  0
LINE
  5
3F9E
  8
0
 10
-0.1537417818481734
 20
-2.5829307633431311
 30
0.0
 11
-0.1537417818481734
 21
-2.628212598243131
 31
0.0
  0
LINE
  5
3F9F
  8
0
 10
0.5685810528518265
 20
-2.4761114437431311
 30
0.0
 11
0.5685810528518265
 21
-2.487775730743131
 31
0.0
  0
LINE
  5
3FA0
  8
0
 10
0.5685810528518265
 20
-2.5475641085431322
 30
0.0
 11
0.5685810528518265
 21
-2.628212598243131
 31
0.0
  0
LINE
  5
3FA1
  8
0
 10
0.6105750953518255
 20
-2.5941525233431308
 30
0.0
 11
0.6105750953518255
 21
-2.5811472462431309
 31
0.0
  0
LINE
  5
3FA2
  8
0
 10
0.6131707173518266
 20
-2.5240251817431312
 30
0.0
 11
0.6131842164518262
 21
-2.5110196289431319
 31
0.0
  0
LINE
  5
3FA3
  8
0
 10
0.548896013451826
 20
-2.647897637643132
 30
0.0
 11
0.5685810528518265
 21
-2.628212598243131
 31
0.0
  0
LINE
  5
3FA4
  8
0
 10
-0.1537417818481734
 20
-2.5231421757431312
 30
0.0
 11
-0.1977673081481739
 21
-2.546114965443131
 31
0.0
  0
LINE
  5
3FA5
  8
0
 10
0.5685810528518265
 20
-2.5475641085431322
 30
0.0
 11
0.6125975789503256
 21
-2.5246216631658811
 31
0.0
  0
ARC
  5
3FA6
  8
0
 10
0.1033961347493535
 20
-3.4955251549274098
 30
0.0
 40
1.045618218073709
 50
60.9841361336143066
 51
63.58370924532543
  0
ARC
  5
3FA7
  8
0
 10
-0.2168449418824738
 20
-1.2211754071987111
 30
0.0
 40
1.603025289717245
 50
299.3382692074958982
 51
301.0751270449819117
  0
ARC
  5
3FA8
  8
0
 10
-0.2252782176533228
 20
-2.5203697447120241
 30
0.0
 40
0.0376784624459911
 50
315.6428867261981281
 51
316.8989263808477972
  0
ARC
  5
3FA9
  8
0
 10
0.6014224897791061
 20
-2.521726628009981
 30
0.0
 40
0.0159052835039596
 50
42.3123927159076629
 51
45.3087602914330816
  0
ARC
  5
3FAA
  8
0
 10
0.8029813983644871
 20
-2.7069813057713139
 30
0.0
 40
0.2636304950985489
 50
136.0534546634507933
 51
136.2332354861769943
  0
ARC
  5
3FAB
  8
0
 10
-0.1791666398313985
 20
-2.6341060129035609
 30
0.0
 40
0.0768159317955943
 50
94.7325338319031829
 51
104.4414009801006955
  0
ARC
  5
3FAC
  8
0
 10
0.0680685263315852
 20
-5.6892552427758467
 30
0.0
 40
3.1419523492987218
 50
90.5248798833135027
 51
94.6291187431950647
  0
ARC
  5
3FAD
  8
0
 10
4.352748810459917
 20
-148.6289231076430042
 30
0.0
 40
146.1451580061882964
 50
91.5637717042244361
 51
91.6913260838954329
  0
ARC
  5
3FAE
  8
0
 10
0.0299644391008482
 20
8.5915210342604151
 30
0.0
 40
11.1347418134487892
 50
271.7217188237012806
 51
272.6905230184981974
  0
ARC
  5
3FAF
  8
0
 10
0.5503017245619373
 20
-2.2423472348367541
 30
0.0
 40
0.2886086901460297
 50
270.4647860579067924
 51
282.5818873563019906
  0
ARC
  5
3FB0
  8
0
 10
-0.1791819551941178
 20
-2.6210946968311148
 30
0.0
 40
0.0768099961288308
 50
94.7323461516308214
 51
104.4419272603094981
  0
ARC
  5
3FB1
  8
0
 10
0.0680539514315854
 20
-5.6762498213758459
 30
0.0
 40
3.1419523492987218
 50
90.5248798833135027
 51
94.6291187431950647
  0
ARC
  5
3FB2
  8
0
 10
4.3527342355599163
 20
-148.6159176862429945
 30
0.0
 40
146.1451580061882964
 50
91.5637717042244361
 51
91.6913260838954329
  0
ARC
  5
3FB3
  8
0
 10
0.0299498642008485
 20
8.6045264556604142
 30
0.0
 40
11.1347418134487892
 50
271.7217188237012806
 51
272.6905230184981974
  0
ARC
  5
3FB4
  8
0
 10
0.5374445426677253
 20
-2.0068838499829988
 30
0.0
 40
0.5112826672511199
 50
271.7017884344330128
 51
278.1108188394363765
  0
ARC
  5
3FB5
  8
0
 10
0.6079901325233679
 20
-2.5060214462303221
 30
0.0
 40
0.0072083519813121
 50
282.7457723770846769
 51
316.1011221898473877
  0
LINE
  5
3FB6
  8
0
 10
-0.1977451605481737
 20
-2.4889525914431321
 30
0.0
 11
-0.1537417818481734
 21
-2.5115643047431311
 31
0.0
  0
LINE
  5
3FB7
  8
0
 10
0.6126084532518257
 20
-2.4390529918431318
 30
0.0
 11
0.5685810528518265
 21
-2.4164092721431309
 31
0.0
  0
LINE
  5
3FB8
  8
0
 10
-0.197743972448174
 20
-2.4889532106431318
 30
0.0
 11
-0.1983237423481739
 21
-2.4883507594431311
 31
0.0
  0
LINE
  5
3FB9
  8
0
 10
-0.1983382606481743
 20
-2.4753453674431309
 30
0.0
 11
-0.1983237423481739
 21
-2.4883507594431311
 31
0.0
  0
LINE
  5
3FBA
  8
0
 10
-0.1537417818481734
 20
-2.440197846143132
 30
0.0
 11
-0.1537417818481734
 21
-2.451775717143132
 31
0.0
  0
LINE
  5
3FBB
  8
0
 10
0.5685810528518265
 20
-2.404744985143132
 30
0.0
 11
0.5685810528518265
 21
-2.4164092721431309
 31
0.0
  0
LINE
  5
3FBC
  8
0
 10
0.6131707173518266
 20
-2.4526587231431312
 30
0.0
 11
0.6131842164518262
 21
-2.4396531703431319
 31
0.0
  0
LINE
  5
3FBD
  8
0
 10
-0.1537417818481734
 20
-2.451775717143132
 30
0.0
 11
-0.1977673081481739
 21
-2.474748506843131
 31
0.0
  0
LINE
  5
3FBE
  8
0
 10
0.5685810528518265
 20
-2.4761976499431322
 30
0.0
 11
0.6125975789503256
 21
-2.4532552045658811
 31
0.0
  0
ARC
  5
3FBF
  8
0
 10
-0.2252782176533228
 20
-2.449003286112025
 30
0.0
 40
0.0376784624459911
 50
315.6428867261981281
 51
316.8989263808477972
  0
ARC
  5
3FC0
  8
0
 10
0.6014224897791061
 20
-2.450360169409981
 30
0.0
 40
0.0159052835039596
 50
42.3123927159076629
 51
45.3087602914330816
  0
ARC
  5
3FC1
  8
0
 10
0.8029813983644871
 20
-2.6356148471713148
 30
0.0
 40
0.2636304950985489
 50
136.0534546634507933
 51
136.2332354861769943
  0
ARC
  5
3FC2
  8
0
 10
-0.1791666398313985
 20
-2.5627395543035609
 30
0.0
 40
0.0768159317955943
 50
94.7325338319031829
 51
104.4414009801006955
  0
ARC
  5
3FC3
  8
0
 10
0.0680685263315852
 20
-5.6178887841758476
 30
0.0
 40
3.1419523492987218
 50
90.5248798833135027
 51
94.6291187431950647
  0
ARC
  5
3FC4
  8
0
 10
4.352748810459917
 20
-148.5575566490429935
 30
0.0
 40
146.1451580061882964
 50
91.5637717042244361
 51
91.6913260838954329
  0
ARC
  5
3FC5
  8
0
 10
0.0299644391008482
 20
8.6628874928604152
 30
0.0
 40
11.1347418134487892
 50
271.7217188237012806
 51
272.6905230184981974
  0
ARC
  5
3FC6
  8
0
 10
0.5503017245619373
 20
-2.170980776236755
 30
0.0
 40
0.2886086901460297
 50
270.4647860579067924
 51
282.5818873563019906
  0
ARC
  5
3FC7
  8
0
 10
-0.1791819551941178
 20
-2.5497282382311148
 30
0.0
 40
0.0768099961288308
 50
94.7323461516308214
 51
104.4419272603094981
  0
ARC
  5
3FC8
  8
0
 10
0.0680539514315854
 20
-5.6048833627758468
 30
0.0
 40
3.1419523492987218
 50
90.5248798833135027
 51
94.6291187431950647
  0
ARC
  5
3FC9
  8
0
 10
4.3527342355599163
 20
-148.5445512276430122
 30
0.0
 40
146.1451580061882964
 50
91.5637717042244361
 51
91.6913260838954329
  0
ARC
  5
3FCA
  8
0
 10
0.0299498642008485
 20
8.6758929142604142
 30
0.0
 40
11.1347418134487892
 50
271.7217188237012806
 51
272.6905230184981974
  0
ARC
  5
3FCB
  8
0
 10
0.5374445426677253
 20
-1.9355173913829999
 30
0.0
 40
0.5112826672511199
 50
271.7017884344330128
 51
278.1108188394363765
  0
ARC
  5
3FCC
  8
0
 10
0.6079901325233679
 20
-2.434654987630323
 30
0.0
 40
0.0072083519813121
 50
282.7457723770846769
 51
316.1011221898473877
  0
LINE
  5
3FCD
  8
0
 10
-0.1977451605481737
 20
-2.4175861328431321
 30
0.0
 11
-0.1537417818481734
 21
-2.440197846143132
 31
0.0
  0
LINE
  5
3FCE
  8
0
 10
0.6126084532518257
 20
-2.3676865332431332
 30
0.0
 11
0.5685810528518265
 21
-2.3450428135431318
 31
0.0
  0
LINE
  5
3FCF
  8
0
 10
-0.197743972448174
 20
-2.4175867520431318
 30
0.0
 11
-0.1983237423481739
 21
-2.4169843008431311
 31
0.0
  0
LINE
  5
3FD0
  8
0
 10
-0.1983382606481743
 20
-2.4039789088431318
 30
0.0
 11
-0.1983237423481739
 21
-2.4169843008431311
 31
0.0
  0
LINE
  5
3FD1
  8
0
 10
0.5685810528518265
 20
-2.2825144200185248
 30
0.0
 11
0.5685810528518265
 21
-2.3450428135431318
 31
0.0
  0
LINE
  5
3FD2
  8
0
 10
0.6131707173518266
 20
-2.381292264543132
 30
0.0
 11
0.6131842164518262
 21
-2.3682867117431319
 31
0.0
  0
LINE
  5
3FD3
  8
0
 10
-0.1537417818481734
 20
-2.380409258543132
 30
0.0
 11
-0.1977673081481739
 21
-2.4033820482431318
 31
0.0
  0
LINE
  5
3FD4
  8
0
 10
0.5685810528518265
 20
-2.4048311913431322
 30
0.0
 11
0.6125975789503256
 21
-2.3818887459658811
 31
0.0
  0
ARC
  5
3FD5
  8
0
 10
-0.2252782176533228
 20
-2.3776368275120241
 30
0.0
 40
0.0376784624459911
 50
315.6428867261981281
 51
316.8989263808477972
  0
ARC
  5
3FD6
  8
0
 10
0.6014224897791061
 20
-2.378993710809981
 30
0.0
 40
0.0159052835039596
 50
42.3123927159076629
 51
45.3087602914330816
  0
ARC
  5
3FD7
  8
0
 10
0.8029813983644871
 20
-2.5642483885713152
 30
0.0
 40
0.2636304950985489
 50
136.0534546634507933
 51
136.2332354861769943
  0
ARC
  5
3FD8
  8
0
 10
-0.1791666398313985
 20
-2.4913730957035618
 30
0.0
 40
0.0768159317955943
 50
94.7325338319031829
 51
104.4414009801006955
  0
ARC
  5
3FD9
  8
0
 10
0.0680685263315852
 20
-5.5465223255758476
 30
0.0
 40
3.1419523492987218
 50
90.5248798833135027
 51
94.6291187431950647
  0
ARC
  5
3FDA
  8
0
 10
4.352748810459917
 20
-148.4861901904430113
 30
0.0
 40
146.1451580061882964
 50
91.5637717042244361
 51
91.6913260838954329
  0
ARC
  5
3FDB
  8
0
 10
0.0299644391008482
 20
8.7342539514604152
 30
0.0
 40
11.1347418134487892
 50
271.7217188237012806
 51
272.6905230184981974
  0
ARC
  5
3FDC
  8
0
 10
0.5503017245619373
 20
-2.099614317636755
 30
0.0
 40
0.2886086901460297
 50
270.4647860579067924
 51
282.5818873563019906
  0
ARC
  5
3FDD
  8
0
 10
-0.1791819551941178
 20
-2.4783617796311161
 30
0.0
 40
0.0768099961288308
 50
94.7323461516308214
 51
104.4419272603094981
  0
ARC
  5
3FDE
  8
0
 10
0.0680539514315854
 20
-5.5335169041758467
 30
0.0
 40
3.1419523492987218
 50
90.5248798833135027
 51
94.6291187431950647
  0
ARC
  5
3FDF
  8
0
 10
4.3527342355599163
 20
-148.4731847690430016
 30
0.0
 40
146.1451580061882964
 50
91.5637717042244361
 51
91.6913260838954329
  0
ARC
  5
3FE0
  8
0
 10
0.0299498642008485
 20
8.7472593728604142
 30
0.0
 40
11.1347418134487892
 50
271.7217188237012806
 51
272.6905230184981974
  0
ARC
  5
3FE1
  8
0
 10
0.5374445426677253
 20
-1.8641509327829999
 30
0.0
 40
0.5112826672511199
 50
271.7017884344330128
 51
278.1108188394363765
  0
ARC
  5
3FE2
  8
0
 10
0.6079901325233679
 20
-2.3632885290303229
 30
0.0
 40
0.0072083519813121
 50
282.7457723770846769
 51
316.1011221898473877
  0
ARC
  5
3FE3
  8
0
 10
0.6037794631238285
 20
-2.2839532498248549
 30
0.0
 40
0.0352278060186511
 50
122.3617972984033031
 51
177.6591839624848888
  0
LINE
  5
3FE4
  8
0
 10
-0.1537417818481743
 20
-2.2825144200185248
 30
0.0
 11
-0.1537417818481748
 21
-2.380409258543132
 31
0.0
  0
ARC
  5
3FE5
  8
0
 10
-0.1889401921201763
 20
-2.2839532498248549
 30
0.0
 40
0.0352278060186511
 50
2.340816037515121
 51
57.6382027015966685
  0
ENDSEC
  0
EOF
