  0
SECTION
  2
HEADER
  9
$ACADVER
  1
AC1009
  9
$INSBASE
 10
4779.2914280285476707
 20
195.9165198461566035
 30
0.0
  9
$EXTMIN
 10
4776.6774887283836506
 20
187.2039214209565898
 30
0.0
  9
$EXTMAX
 10
4779.3029669950346943
 20
202.6639327727154978
 30
0.0
  9
$LIMMIN
 10
0.0
 20
0.0
  9
$LIMMAX
 10
11.6929133858000007
 20
8.2677165353999982
  9
$ORTHOMODE
 70
     0
  9
$REGENMODE
 70
     1
  9
$FILLMODE
 70
     1
  9
$QTEXTMODE
 70
     0
  9
$MIRRTEXT
 70
     0
  9
$DRAGMODE
 70
     2
  9
$LTSCALE
 40
0.6431102362
  9
$OSMODE
 70
  4095
  9
$ATTMODE
 70
     1
  9
$TEXTSIZE
 40
0.2
  9
$TRACEWID
 40
0.05
  9
$TEXTSTYLE
  7
STANDARD
  9
$CLAYER
  8
0
  9
$CELTYPE
  6
BYLAYER
  9
$CECOLOR
 62
   256
  9
$DIMSCALE
 40
1.0
  9
$DIMASZ
 40
0.1875
  9
$DIMEXO
 40
0.0625
  9
$DIMDLI
 40
0.4443307087
  9
$DIMRND
 40
0.0
  9
$DIMDLE
 40
0.0
  9
$DIMEXE
 40
0.125
  9
$DIMTP
 40
0.01
  9
$DIMTM
 40
0.01
  9
$DIMTXT
 40
2.0
  9
$DIMCEN
 40
0.1052362205
  9
$DIMTSZ
 40
0.0
  9
$DIMTOL
 70
     1
  9
$DIMLIM
 70
     0
  9
$DIMTIH
 70
     1
  9
$DIMTOH
 70
     1
  9
$DIMSE1
 70
     0
  9
$DIMSE2
 70
     0
  9
$DIMTAD
 70
     0
  9
$DIMZIN
 70
     0
  9
$DIMBLK
  1

  9
$DIMASO
 70
     1
  9
$DIMSHO
 70
     1
  9
$DIMPOST
  1
\X
  9
$DIMAPOST
  1

  9
$DIMALT
 70
     1
  9
$DIMALTD
 70
     2
  9
$DIMALTF
 40
25.3999999999999986
  9
$DIMLFAC
 40
1.0
  9
$DIMTOFL
 70
     0
  9
$DIMTVP
 40
0.0
  9
$DIMTIX
 70
     0
  9
$DIMSOXD
 70
     0
  9
$DIMSAH
 70
     0
  9
$DIMBLK1
  1

  9
$DIMBLK2
  1

  9
$DIMSTYLE
  2
STANDARD
  9
$DIMCLRD
 70
     0
  9
$DIMCLRE
 70
     0
  9
$DIMCLRT
 70
     0
  9
$DIMTFAC
 40
1.0
  9
$DIMGAP
 40
0.09
  9
$LUNITS
 70
     2
  9
$LUPREC
 70
     4
  9
$SKETCHINC
 40
0.1
  9
$FILLETRAD
 40
0.0
  9
$AUNITS
 70
     0
  9
$AUPREC
 70
     0
  9
$MENU
  1
.
  9
$ELEVATION
 40
0.0
  9
$PELEVATION
 40
0.0
  9
$THICKNESS
 40
0.0
  9
$LIMCHECK
 70
     0
  9
$BLIPMODE
 70
     0
  9
$CHAMFERA
 40
0.0
  9
$CHAMFERB
 40
0.0
  9
$SKPOLY
 70
     0
  9
$TDCREATE
 40
2458060.468368056230247
  9
$TDUPDATE
 40
2459970.4361458332277834
  9
$TDINDWG
 40
0.4231783565
  9
$TDUSRTIMER
 40
0.4231783565
  9
$USRTIMER
 70
     1
  9
$ANGBASE
 50
0.0
  9
$ANGDIR
 70
     0
  9
$PDMODE
 70
     0
  9
$PDSIZE
 40
0.3125
  9
$PLINEWID
 40
0.0
  9
$COORDS
 70
     1
  9
$SPLFRAME
 70
     0
  9
$SPLINETYPE
 70
     6
  9
$SPLINESEGS
 70
     8
  9
$ATTDIA
 70
     1
  9
$ATTREQ
 70
     1
  9
$HANDLING
 70
     1
  9
$HANDSEED
  5
C6EE
  9
$SURFTAB1
 70
     6
  9
$SURFTAB2
 70
     6
  9
$SURFTYPE
 70
     6
  9
$SURFU
 70
     6
  9
$SURFV
 70
     6
  9
$UCSNAME
  2

  9
$UCSORG
 10
0.0
 20
0.0
 30
0.0
  9
$UCSXDIR
 10
1.0
 20
0.0
 30
0.0
  9
$UCSYDIR
 10
0.0
 20
1.0
 30
0.0
  9
$PUCSNAME
  2

  9
$PUCSORG
 10
0.0
 20
0.0
 30
0.0
  9
$PUCSXDIR
 10
1.0
 20
0.0
 30
0.0
  9
$PUCSYDIR
 10
0.0
 20
1.0
 30
0.0
  9
$USERI1
 70
     0
  9
$USERI2
 70
     0
  9
$USERI3
 70
     0
  9
$USERI4
 70
     0
  9
$USERI5
 70
     0
  9
$USERR1
 40
0.0
  9
$USERR2
 40
0.0
  9
$USERR3
 40
0.0
  9
$USERR4
 40
0.0
  9
$USERR5
 40
0.0
  9
$WORLDVIEW
 70
     1
  9
$SHADEDGE
 70
     3
  9
$SHADEDIF
 70
    70
  9
$TILEMODE
 70
     1
  9
$MAXACTVP
 70
    64
  9
$PLIMCHECK
 70
     0
  9
$PEXTMIN
 10
1.0000000000000000E+20
 20
1.0000000000000000E+20
 30
1.0000000000000000E+20
  9
$PEXTMAX
 10
-1.0000000000000000E+20
 20
-1.0000000000000000E+20
 30
-1.0000000000000000E+20
  9
$PLIMMIN
 10
0.0
 20
0.0
  9
$PLIMMAX
 10
12.0
 20
9.0
  9
$UNITMODE
 70
     0
  9
$VISRETAIN
 70
     1
  9
$PLINEGEN
 70
     0
  9
$PSLTSCALE
 70
     1
  0
ENDSEC
  0
SECTION
  2
TABLES
  0
TABLE
  2
VPORT
 70
     1
  0
VPORT
  2
*ACTIVE
 70
     0
 10
0.0
 20
0.0
 11
1.0
 21
1.0
 12
974.4461604788965587
 22
68.938664900086124
 13
0.0
 23
0.0
 14
1.0
 24
1.0
 15
0.0
 25
0.0
 16
0.0
 26
0.0
 36
17.1152628219792007
 17
3803.5440673828129547
 27
125.9952621967499056
 37
0.0
 40
15.5787822456263392
 41
1.593589743589743
 42
50.0
 43
0.0
 44
0.0
 50
0.0
 51
0.0
 71
     0
 72
   100
 73
     1
 74
     1
 75
     0
 76
     0
 77
     0
 78
     0
  0
ENDTAB
  0
TABLE
  2
LTYPE
 70
     2
  0
LTYPE
  2
CONTINUOUS
 70
     0
  3
Solid line
 72
    65
 73
     0
 40
0.0
  0
LTYPE
  2
PHANTOM2
 70
     0
  3
___ _ _ ___ _ _ ___ _ _ ___ _ _
 72
    65
 73
     6
 40
1.25
 49
0.625
 49
-0.125
 49
0.125
 49
-0.125
 49
0.125
 49
-0.125
  0
ENDTAB
  0
TABLE
  2
LAYER
 70
     2
  0
LAYER
  2
0
 70
     0
 62
   255
  6
CONTINUOUS
  0
LAYER
  2
DEFPOINTS
 70
     0
 62
     7
  6
CONTINUOUS
  0
ENDTAB
  0
TABLE
  2
STYLE
 70
     1
  0
STYLE
  2
STANDARD
 70
     0
 40
0.0
 41
0.8
 50
0.0
 71
     0
 42
0.2
  3
txt
  4

  0
ENDTAB
  0
TABLE
  2
VIEW
 70
     0
  0
ENDTAB
  0
TABLE
  2
UCS
 70
     0
  0
ENDTAB
  0
TABLE
  2
APPID
 70
     9
  0
APPID
  2
ACAD
 70
     0
  0
APPID
  2
ACAD_MLEADERVER
 70
     0
  0
APPID
  2
ACAD_EXEMPT_FROM_CAD_STANDARDS
 70
     0
  0
APPID
  2
ACAD_NAV_VCDISPLAY
 70
     0
  0
APPID
  2
ACAECLAYERSTANDARD
 70
     0
  0
APPID
  2
ACCMTRANSPARENCY
 70
     0
  0
APPID
  2
ACAD_DSTYLE_DIMJAG
 70
     0
  0
APPID
  2
ACAD_DSTYLE_DIMTALN
 70
     0
  0
APPID
  2
ACDBATTR
 70
     0
  0
ENDTAB
  0
TABLE
  2
DIMSTYLE
 70
     1
  0
DIMSTYLE
  2
STANDARD
 70
     0
  3

  4

  5

  6

  7

 40
1.0
 41
0.1875
 42
0.0625
 43
0.38
 44
0.125
 45
0.0
 46
0.0
 47
0.01
 48
0.01
140
0.15625
141
0.09
142
0.0
143
25.3999999999999986
144
1.0
145
0.0
146
1.0
147
0.09
 71
     1
 72
     0
 73
     1
 74
     1
 75
     0
 76
     0
 77
     0
 78
     4
170
     0
171
     2
172
     0
173
     0
174
     0
175
     0
176
     0
177
     0
178
     0
  0
ENDTAB
  0
ENDSEC
  0
SECTION
  2
BLOCKS
  0
BLOCK
  8
0
  2
$MODEL_SPACE
 70
     0
 10
0.0
 20
0.0
 30
0.0
  3
$MODEL_SPACE
  1

  0
ENDBLK
  5
21
  8
0
  0
BLOCK
 67
     1
  8
0
  2
$PAPER_SPACE
 70
     0
 10
0.0
 20
0.0
 30
0.0
  3
$PAPER_SPACE
  1

  0
ENDBLK
  5
1D
 67
     1
  8
0
  0
ENDSEC
  0
SECTION
  2
ENTITIES
  0
ATTDEF
  5
3930
  8
DEFPOINTS
 10
4779.2923003283658545
 20
195.9165973951791102
 30
0.0
 40
0.001
  1
K-97258D
  3

  2
MODELNUMBER
 70
     0
1001
ACDBATTR
1070
     0
1070
     1
  0
ATTDEF
  5
3931
  8
DEFPOINTS
 10
4779.2923003283658545
 20
195.9149307285125019
 30
0.0
 40
0.001
  1
ELATE
  3

  2
TRADENAME
 70
     0
1001
ACDBATTR
1070
     0
1070
     1
  0
ATTDEF
  5
3932
  8
DEFPOINTS
 10
4779.2923003283658545
 20
195.9132640618458083
 30
0.0
 40
0.001
  1
HYGIENE SPRAY
  3

  2
PRODUCT
 70
     0
1001
ACDBATTR
1070
     0
1070
     1
  0
LINE
  5
C5A8
  8
0
 10
4778.2127650765132785
 20
200.0809913639548085
 30
0.0
 11
4778.2121634792438272
 21
202.6040141323294108
 31
0.0
  0
ARC
  5
C5A9
  8
0
 10
4589.0738592759325911
 20
206.1138057027845889
 30
0.0
 40
189.2471968238085083
 50
357.1400823577101846
 51
357.7151734117887827
  0
ARC
  5
C5AA
  8
0
 10
4715.188866841406707
 20
201.0819558063303987
 30
0.0
 40
63.0318465425530619
 50
357.7151734117887827
 51
359.0900877586299771
  0
LINE
  5
C5AB
  8
0
 10
4778.1514171480866935
 20
202.6639319486450006
 30
0.0
 11
4776.7551792315243802
 21
202.6241673804688048
 31
0.0
  0
ARC
  5
C5AC
  8
0
 10
4778.1517327448091237
 20
202.6034998499777942
 30
0.0
 40
0.0604329227376659
 50
0.4875912426727404
 51
90.2992150887848481
  0
LINE
  5
C5AD
  8
0
 10
4777.1591741419751997
 20
196.6527403185565959
 30
0.0
 11
4778.0656743735326017
 21
196.6527403185565959
 31
0.0
  0
LINE
  5
C5AE
  8
0
 10
4777.1395959656374544
 20
198.2065909857807924
 30
0.0
 11
4777.1394741420372156
 21
196.672441882892798
 31
0.0
  0
ARC
  5
C5AF
  8
0
 10
4754.936733469837236
 20
198.5568722374426045
 30
0.0
 40
22.3063955315506313
 50
359.8170070320152263
 51
3.5846788563363838
  0
ARC
  5
C5B0
  8
0
 10
4776.8808137663181697
 20
199.9315856759619123
 30
0.0
 40
0.3192971077826933
 50
3.5846788563363838
 51
32.0278986982596905
  0
ARC
  5
C5B1
  8
0
 10
4776.7746952487786984
 20
199.8742710298122063
 30
0.0
 40
0.4397263202968018
 50
31.0262051033509501
 51
48.7656343374081302
  0
ARC
  5
C5B2
  8
0
 10
4777.0703882208190407
 20
200.2151432054361919
 30
0.0
 40
0.0117499859894804
 50
185.7403784327580922
 51
240.1322714541549885
  0
ARC
  5
C5B3
  8
0
 10
4772.2188444687089941
 20
199.8275496014782959
 30
0.0
 40
4.8552541842699819
 50
4.5648652902406059
 51
15.0856681541085198
  0
ARC
  5
C5B4
  8
0
 10
4776.2347796170488436
 20
200.8737382891216896
 30
0.0
 40
0.7063038739564541
 50
17.9313019194866001
 51
28.03462877529984
  0
ARC
  5
C5B5
  8
0
 10
4776.475200733310885
 20
201.0064088604258927
 30
0.0
 40
0.4317565455533138
 50
27.4899585255547798
 51
53.3756388463394629
  0
LINE
  5
C5B6
  8
0
 10
4776.7168767867478891
 20
202.5847826705862929
 30
0.0
 11
4776.7168767867478891
 21
201.3845420943555098
 31
0.0
  0
ARC
  5
C5B7
  8
0
 10
4776.7562767867466391
 20
202.5847826705862929
 30
0.0
 40
0.0394
 50
91.5962796467415359
 51
179.9999999999901945
  0
ARC
  5
C5B8
  8
0
 10
4776.7562767867475486
 20
201.3845420943555098
 30
0.0
 40
0.0394
 50
180.0000000000098055
 51
233.375638846281106
  0
ARC
  5
C5B9
  8
0
 10
4776.8775698290291984
 20
198.4850550007782033
 30
0.0
 40
0.3654458553319007
 50
335.5720615825568984
 51
0.0900762356886517
  0
ARC
  5
C5BA
  8
0
 10
4776.4176484320078089
 20
198.6939550721695866
 30
0.0
 40
0.8705863617910827
 50
329.2248607962188203
 51
335.5720615825568984
  0
ARC
  5
C5BB
  8
0
 10
4776.864135123869346
 20
198.42805809416339
 30
0.0
 40
0.3509214996711538
 50
322.3690356781314108
 51
329.2248607962188203
  0
ARC
  5
C5BC
  8
0
 10
4777.1513959655985673
 20
198.2065900487673105
 30
0.0
 40
0.0118
 50
142.3690356765467016
 51
179.9954502614691876
  0
LINE
  5
C5BD
  8
0
 10
4777.0937524574128474
 20
198.2348710750860903
 30
0.0
 11
4777.1591433480580235
 21
198.2380158709821103
 31
0.0
  0
ARC
  5
C5BE
  8
0
 10
4753.6616017869610005
 20
196.6258925017847901
 30
0.0
 40
23.4487670843918288
 50
4.0241633226966469
 51
8.5459729985793924
  0
LINE
  5
C5BF
  8
0
 10
4776.8844496966257793
 20
200.1562814049217138
 30
0.0
 11
4777.0913444300686024
 21
200.1793817191530991
 31
0.0
  0
ARC
  5
C5C0
  8
0
 10
4776.8904460529420248
 20
200.115925041896304
 30
0.0
 40
0.0407994157519175
 50
98.4514681791400221
 51
187.714856720531003
  0
ARC
  5
C5C1
  8
0
 10
4777.0918598097168797
 20
198.2742255905156128
 30
0.0
 40
0.0394
 50
184.0241633226982003
 51
272.7533622727352167
  0
ARC
  5
C5C2
  8
0
 10
4777.1591741419751997
 20
196.6724403185565961
 30
0.0
 40
0.0197
 50
179.9954502609253097
 51
270.0
  0
ARC
  5
C5C3
  8
0
 10
4778.0656743735326017
 20
196.6724403185567098
 30
0.0
 40
0.0197
 50
270.0000000000521254
 51
357.1400822084953006
  0
LINE
  5
C5C4
  8
0
 10
4776.6868700137029009
 20
201.5954613516254881
 30
0.0
 11
4776.7074955014286388
 21
201.5911419108319933
 31
0.0
  0
LINE
  5
C5C5
  8
0
 10
4776.6774887283836506
 20
201.6070108026640924
 30
0.0
 11
4776.6774887283836506
 21
202.3792579001296872
 31
0.0
  0
LINE
  5
C5C6
  8
0
 10
4776.6868700136910775
 20
201.6970156249271042
 30
0.0
 11
4776.7074955014386433
 21
201.6926961841078878
 31
0.0
  0
LINE
  5
C5C7
  8
0
 10
4776.6868700137029009
 20
201.613109242855586
 30
0.0
 11
4776.7074955014286388
 21
201.6087898020620912
 31
0.0
  0
LINE
  5
C5C8
  8
0
 10
4776.686869905463027
 20
201.7881526811000867
 30
0.0
 11
4776.7074956096676033
 21
201.7924723690098006
 31
0.0
  0
LINE
  5
C5C9
  8
0
 10
4776.6868700136910775
 20
201.8305365118677059
 30
0.0
 11
4776.7074955014386433
 21
201.8262170710484895
 31
0.0
  0
LINE
  5
C5CA
  8
0
 10
4776.6868699054075478
 20
201.9216717240992125
 30
0.0
 11
4776.7074956097230825
 21
201.9259914121317934
 31
0.0
  0
LINE
  5
C5CB
  8
0
 10
4776.6868699054739409
 20
201.9685161523482861
 30
0.0
 11
4776.7074956096575988
 21
201.972835840232392
 31
0.0
  0
LINE
  5
C5CC
  8
0
 10
4776.6868700136910775
 20
201.9872352020786934
 30
0.0
 11
4776.7074955014386433
 21
201.9829157612595054
 31
0.0
  0
LINE
  5
C5CD
  8
0
 10
4776.6868699054075478
 20
202.0783702786849858
 30
0.0
 11
4776.7074956097230825
 21
202.0826899667175951
 31
0.0
  0
LINE
  5
C5CE
  8
0
 10
4776.6868699054739409
 20
202.0921239140068053
 30
0.0
 11
4776.7074956096575988
 21
202.0964436018907975
 31
0.0
  0
LINE
  5
C5CF
  8
0
 10
4776.6868700136910775
 20
202.1360762761360945
 30
0.0
 11
4776.7074955014386433
 21
202.1317568353169065
 31
0.0
  0
LINE
  5
C5D0
  8
0
 10
4776.6868699054211902
 20
202.2272129522895057
 30
0.0
 11
4776.707495609711259
 21
202.2315326402963933
 31
0.0
  0
LINE
  5
C5D1
  8
0
 10
4776.6868700137029009
 20
202.2475805781016902
 30
0.0
 11
4776.7074955014286388
 21
202.2432611373081954
 31
0.0
  0
LINE
  5
C5D2
  8
0
 10
4776.6868699054211902
 20
202.3387202721698941
 30
0.0
 11
4776.707495609711259
 21
202.3430399601768102
 31
0.0
  0
LINE
  5
C5D3
  8
0
 10
4776.6868699054211902
 20
202.3908073284910074
 30
0.0
 11
4776.707495609711259
 21
202.3951270164978951
 31
0.0
  0
ARC
  5
C5D4
  8
0
 10
4776.6892887283829623
 20
201.6246586938941903
 30
0.0
 40
0.0118
 50
180.0
 51
258.1719163981546785
  0
ARC
  5
C5D5
  8
0
 10
4776.6892887283829623
 20
201.7085650759634063
 30
0.0
 40
0.0118
 50
180.0000000000179057
 51
258.1719163421461758
  0
ARC
  5
C5D6
  8
0
 10
4776.6892887283829623
 20
201.7766032527298989
 30
0.0
 40
0.0118
 50
101.8286205725446933
 51
180.0000000000341913
  0
ARC
  5
C5D7
  8
0
 10
4776.6892887283829623
 20
202.3792579001296872
 30
0.0
 40
0.0118
 50
101.828620783591802
 51
180.0000000000179057
  0
ARC
  5
C5D8
  8
0
 10
4776.6892887283829623
 20
202.3271708438086876
 30
0.0
 40
0.0118
 50
101.8286207835387955
 51
180.0
  0
ARC
  5
C5D9
  8
0
 10
4776.6892887283829623
 20
202.2156635239282139
 30
0.0
 40
0.0118
 50
101.8286207835911057
 51
180.0
  0
ARC
  5
C5DA
  8
0
 10
4776.6892887283829623
 20
202.0668208503261098
 30
0.0
 40
0.0118
 50
101.8286208394412995
 51
179.9999999999820943
  0
ARC
  5
C5DB
  8
0
 10
4776.6892887283829623
 20
201.8420859629040081
 30
0.0
 40
0.0118
 50
180.0000000000179057
 51
258.1719163422515066
  0
ARC
  5
C5DC
  8
0
 10
4776.6892887283829623
 20
201.9101222957403081
 30
0.0
 40
0.0118
 50
101.8286208394407026
 51
180.0000000000341913
  0
ARC
  5
C5DD
  8
0
 10
4776.6892887283829623
 20
201.9569667239757962
 30
0.0
 40
0.0118
 50
101.8286205166419052
 51
180.0000000000179057
  0
LINE
  5
C5DE
  8
0
 10
4776.6879131035066166
 20
201.9855121427964093
 30
0.0
 11
4776.6925171649018012
 21
201.9860525616608129
 31
0.0
  0
ARC
  5
C5DF
  8
0
 10
4776.6892887283829623
 20
201.9737926011584932
 30
0.0
 40
0.0118
 50
96.6946719292850645
 51
179.9999999999820943
  0
ARC
  5
C5E0
  8
0
 10
4776.6892887283829623
 20
201.9987846531149955
 30
0.0
 40
0.0118
 50
180.0
 51
258.1719163421997791
  0
ARC
  5
C5E1
  8
0
 10
4776.6892887283829623
 20
202.1046865014862988
 30
0.0
 40
0.0118
 50
180.0
 51
281.8286205165895808
  0
ARC
  5
C5E2
  8
0
 10
4776.6892887283829623
 20
202.1476257271723966
 30
0.0
 40
0.0118
 50
180.0000000000341913
 51
258.1719163423048258
  0
ARC
  5
C5E3
  8
0
 10
4776.6892887283829623
 20
201.6070108026640924
 30
0.0
 40
0.0118
 50
180.0
 51
258.1719163981543943
  0
ARC
  5
C5E4
  8
0
 10
4776.6892887283829623
 20
202.0805744856342017
 30
0.0
 40
0.0118
 50
101.8286205165898934
 51
180.0
  0
LINE
  5
C5E5
  8
0
 10
4776.6875128529900394
 20
201.794715144290592
 30
0.0
 11
4776.7052857260941892
 21
201.7920095480918974
 31
0.0
  0
ARC
  5
C5E6
  8
0
 10
4776.6892887283829623
 20
201.8063807461433043
 30
0.0
 40
0.0118
 50
180.0000000000179057
 51
261.3442174602084833
  0
ARC
  5
C5E7
  8
0
 10
4776.6893076066471622
 20
201.692756467956599
 30
0.0
 40
0.0118110236000036
 50
138.0068714162466108
 51
180.0002685326834921
  0
ARC
  5
C5E8
  8
0
 10
4776.6892887283829623
 20
202.2591300291402945
 30
0.0
 40
0.0118
 50
180.0
 51
258.1719163981537122
  0
ARC
  5
C5E9
  8
0
 10
4776.7050767867476679
 20
201.579592459793389
 30
0.0
 40
0.0118
 50
359.9999999999820943
 51
78.1719163981550338
  0
ARC
  5
C5EA
  8
0
 10
4776.7050767867476679
 20
201.5972403510234869
 30
0.0
 40
0.0118
 50
359.9999999999657803
 51
78.1719163981557159
  0
ARC
  5
C5EB
  8
0
 10
4776.7050767867476679
 20
201.6811467330716141
 30
0.0
 40
0.0118
 50
0.0
 51
78.1719163421982159
  0
ARC
  5
C5EC
  8
0
 10
4776.7050767867476679
 20
202.4066764448591016
 30
0.0
 40
0.0118
 50
281.8286207835914752
 51
0.0000000000179129
  0
ARC
  5
C5ED
  8
0
 10
4776.7050767867476679
 20
202.3545893885379883
 30
0.0
 40
0.0118
 50
281.8286207835910773
 51
0.0000000000179129
  0
ARC
  5
C5EE
  8
0
 10
4776.7050767867476679
 20
202.2430820686575998
 30
0.0
 40
0.0118
 50
281.8286207834860875
 51
0.0
  0
ARC
  5
C5EF
  8
0
 10
4776.7050767867476679
 20
202.1079930302632874
 30
0.0
 40
0.0118
 50
281.8286205165902061
 51
359.9999999999820943
  0
ARC
  5
C5F0
  8
0
 10
4776.7050767867476679
 20
202.0942393950764995
 30
0.0
 40
0.0118
 50
281.8286208394407026
 51
0.0
  0
ARC
  5
C5F1
  8
0
 10
4776.7050767867476679
 20
201.9843852686049104
 30
0.0
 40
0.0118
 50
281.8286205165895808
 51
326.519662834007022
  0
ARC
  5
C5F2
  8
0
 10
4776.7050767867476679
 20
201.9375408404906125
 30
0.0
 40
0.0118
 50
281.8286208394422943
 51
359.9999999999820943
  0
ARC
  5
C5F3
  8
0
 10
4776.7050767867476679
 20
201.8040217973799031
 30
0.0
 40
0.0118
 50
281.8286205725444233
 51
359.9999999999820943
  0
ARC
  5
C5F4
  8
0
 10
4776.7050767867476679
 20
201.8146676200121874
 30
0.0
 40
0.0118
 50
0.0
 51
78.171916342252203
  0
ARC
  5
C5F5
  8
0
 10
4776.7050767867476679
 20
201.9713663102232033
 30
0.0
 40
0.0118
 50
359.9999999999820943
 51
78.1719163421998644
  0
ARC
  5
C5F6
  8
0
 10
4776.7050767867476679
 20
202.1202073842806897
 30
0.0
 40
0.0118
 50
359.9999999999820943
 51
78.1719163423052237
  0
ARC
  5
C5F7
  8
0
 10
4776.7050767867476679
 20
202.2317116862695912
 30
0.0
 40
0.0118
 50
28.8027585426233799
 51
78.1719163981017147
  0
LINE
  5
C5F8
  8
0
 10
4779.2914280285476707
 20
194.9913398835566056
 30
0.0
 11
4779.2914280285476707
 21
196.8416998087566014
 31
0.0
  0
LINE
  5
C5F9
  8
0
 10
4779.1339776348477244
 20
194.9913398835566056
 30
0.0
 11
4779.2914280285476707
 21
194.9913398835566056
 31
0.0
  0
LINE
  5
C5FA
  8
0
 10
4779.0945776348480649
 20
195.0307398835566062
 30
0.0
 11
4779.0945776348480649
 21
196.8022998087566009
 31
0.0
  0
LINE
  5
C5FB
  8
0
 10
4779.1339776348477244
 20
196.8416998087566014
 30
0.0
 11
4779.2914280285476707
 21
196.8416998087566014
 31
0.0
  0
LINE
  5
C5FC
  8
0
 10
4778.95677763484764
 20
195.2195162597566025
 30
0.0
 11
4778.1305689791233817
 21
195.2195162597566025
 31
0.0
  0
LINE
  5
C5FD
  8
0
 10
4778.95677763484764
 20
196.6135234326565921
 30
0.0
 11
4778.130306279407705
 21
196.6135234326565921
 31
0.0
  0
ARC
  5
C5FE
  8
0
 10
4778.95677763484764
 20
196.7513234326565907
 30
0.0
 40
0.1378
 50
270.0
 51
0.0000000000016284
  0
ARC
  5
C5FF
  8
0
 10
4778.95677763484764
 20
195.0817162597566039
 30
0.0
 40
0.1378
 50
359.9999999999984084
 51
90.0
  0
ARC
  5
C600
  8
0
 10
4779.1339776348477244
 20
195.0307398835566062
 30
0.0
 40
0.0394
 50
179.9999999999901945
 51
270.0
  0
ARC
  5
C601
  8
0
 10
4779.1339776348477244
 20
196.8022998087566009
 30
0.0
 40
0.0394
 50
90.0
 51
180.0000000000098055
  0
ARC
  5
C602
  8
0
 10
4792.1230636540685737
 20
195.9248240580816116
 30
0.0
 40
15.1218400693943202
 50
178.3180058760783879
 51
181.7452753796328011
  0
ARC
  5
C603
  8
0
 10
4777.676137340799869
 20
196.970169068226113
 30
0.0
 40
0.618719111186535
 50
239.706480954976314
 51
255.2738776933074121
  0
ARC
  5
C604
  8
0
 10
4777.6091333013209805
 20
196.7152384443332096
 30
0.0
 40
0.3551301047672268
 50
255.2738776933074121
 51
286.93560832673802
  0
ARC
  5
C605
  8
0
 10
4777.5059253328918203
 20
197.0541784105693068
 30
0.0
 40
0.7094353198842852
 50
286.93560832673802
 51
300.3782224932086251
  0
ARC
  5
C606
  8
0
 10
4776.933866566638244
 20
198.030078638157903
 30
0.0
 40
1.8406437384600081
 50
300.3782224932086251
 51
309.0346348434612196
  0
ARC
  5
C607
  8
0
 10
4777.6841323428361648
 20
194.8429406233723
 30
0.0
 40
0.6400362315794528
 50
104.9812914372594008
 51
120.0450517308342029
  0
ARC
  5
C608
  8
0
 10
4777.6083216263732538
 20
195.0811067533086884
 30
0.0
 40
0.3905422664377228
 50
75.8711780077320981
 51
103.2693734106849064
  0
ARC
  5
C609
  8
0
 10
4777.5146073800524391
 20
194.7935664856478013
 30
0.0
 40
0.6925692846109911
 50
58.7531948829616724
 51
74.1592599812141628
  0
ARC
  5
C60A
  8
0
 10
4776.7769252958987636
 20
193.5777511773102901
 30
0.0
 40
2.1146739647482979
 50
51.4852612973105224
 51
58.7531948829616724
  0
ARC
  5
C60B
  8
0
 10
4778.130306279407705
 20
196.5544234326565061
 30
0.0
 40
0.0591
 50
90.0
 51
129.0346348434478898
  0
ARC
  5
C60C
  8
0
 10
4778.1305689791233817
 20
195.2786162597566033
 30
0.0
 40
0.0591
 50
231.4852612973095063
 51
270.0
  0
LINE
  5
C60D
  8
0
 10
4777.1602414871367728
 20
196.6320093002181011
 30
0.0
 11
4777.1700508087906201
 21
196.4448362930023109
 31
0.0
  0
LINE
  5
C60E
  8
0
 10
4778.0635803649593072
 20
196.6320093002042029
 30
0.0
 11
4778.0605700400737987
 21
196.574568880416507
 31
0.0
  0
ARC
  5
C60F
  8
0
 10
4778.0439073631241627
 20
196.6330403185565956
 30
0.0
 40
0.0197
 50
356.9999999579392806
 51
90.0
  0
ARC
  5
C610
  8
0
 10
4777.1799144889710078
 20
196.6330403185565956
 30
0.0
 40
0.0197
 50
90.0
 51
183.0000000014090062
  0
LINE
  5
C611
  8
0
 10
4777.0858025226461905
 20
195.3890353077109125
 30
0.0
 11
4777.3340882536767822
 21
195.3890353077109125
 31
0.0
  0
LINE
  5
C612
  8
0
 10
4777.0853056402984294
 20
196.4448362930023109
 30
0.0
 11
4777.334225074700953
 21
196.4448362930023109
 31
0.0
  0
ARC
  5
C613
  8
0
 10
4777.0867793593542956
 20
196.3657555798394014
 30
0.0
 40
0.0790944438137695
 50
91.0676194741238447
 51
177.8795468708684098
  0
ARC
  5
C614
  8
0
 10
4777.0858025226461905
 20
195.4666353077109022
 30
0.0
 40
0.0776
 50
181.7452753796343927
 51
270.0
  0
ARC
  5
C615
  8
0
 10
4777.328435725637064
 20
196.3710781531225962
 30
0.0
 40
0.0739849968651303
 50
61.2365665490383719
 51
85.5119993360282251
  0
ARC
  5
C616
  8
0
 10
4777.3340882536767822
 20
195.4481353077106007
 30
0.0
 40
0.0591
 50
270.0
 51
300.0450517309471934
  0
LINE
  5
C617
  8
0
 10
4777.8875014772484064
 20
195.3773251609534043
 30
0.0
 11
4777.8875014772484064
 21
187.6946101946946897
 31
0.0
  0
LINE
  5
C618
  8
0
 10
4777.3363203748476735
 20
195.3890774747409864
 30
0.0
 11
4777.3363203748476735
 21
187.6946101990492082
 31
0.0
  0
LINE
  5
C61A
  8
0
 10
4778.064666831647628
 20
187.2039214209565898
 30
0.0
 11
4778.064666831647628
 21
187.7157324445066138
 31
0.0
  0
LINE
  5
C61B
  8
0
 10
4777.1570742925468949
 20
187.7157324445066138
 30
0.0
 11
4778.064666831647628
 21
187.7157324445066138
 31
0.0
  0
LINE
  5
C61C
  8
0
 10
4777.1570742925468949
 20
187.2039214209565898
 30
0.0
 11
4777.1570742925468949
 21
187.7157324445066138
 31
0.0
  0
LINE
  5
C61D
  8
0
 10
4778.064666831647628
 20
187.2039214209565898
 30
0.0
 11
4777.1570742925468949
 21
187.2039214209565898
 31
0.0
  0
ARC
  5
C61E
  8
0
 10
4777.5232726329377329
 20
187.4598460601467877
 30
0.0
 40
0.3042936704644861
 50
133.1415319041373095
 51
226.8623236911753906
  0
ARC
  5
C61F
  8
0
 10
4777.387039612344779
 20
187.3333545576122958
 30
0.0
 40
0.1195418140398243
 50
233.0678686079143063
 51
305.2457532454052966
  0
ARC
  5
C620
  8
0
 10
4777.2566513652236608
 20
187.4614642864162022
 30
0.0
 40
0.3011768226675782
 50
311.4512981621243739
 51
44.2258103158885376
  0
ARC
  5
C621
  8
0
 10
4777.3880906483091167
 20
187.5893986581208139
 30
0.0
 40
0.1177552083439834
 50
44.2258103158885376
 51
128.2458875134043126
  0
ARC
  5
C622
  8
0
 10
4777.7020834144059336
 20
187.4598460601467877
 30
0.0
 40
0.3042936704644861
 50
313.1376763088244957
 51
46.8584680958627189
  0
ARC
  5
C623
  8
0
 10
4777.8383164349997969
 20
187.3333545576122958
 30
0.0
 40
0.1195418140398243
 50
234.7542467545947034
 51
306.9321313920856937
  0
ARC
  5
C624
  8
0
 10
4777.9687046821200056
 20
187.4614642864162022
 30
0.0
 40
0.3011768226675782
 50
135.7741896841114055
 51
228.5487018378755977
  0
ARC
  5
C625
  8
0
 10
4777.8372653990363688
 20
187.5893986581208139
 30
0.0
 40
0.1177552083439834
 50
51.7541124865956377
 51
135.7741896841114055
  0
ENDSEC
  0
EOF
