  0
SECTION
  2
HEADER
  9
$ACADVER
  1
AC1009
  9
$INSBASE
 10
518.890040351401808
 20
46.2146929699969675
 30
0.0
  9
$EXTMIN
 10
516.6338016544094671
 20
42.9437852857476514
 30
-0.0000000349181948
  9
$EXTMAX
 10
521.1503114053117542
 20
49.4852017368601977
 30
0.0000000814935746
  9
$LIMMIN
 10
0.0
 20
0.0
  9
$LIMMAX
 10
11.6929133858000007
 20
8.2677165353999982
  9
$ORTHOMODE
 70
     0
  9
$REGENMODE
 70
     1
  9
$FILLMODE
 70
     1
  9
$QTEXTMODE
 70
     0
  9
$MIRRTEXT
 70
     0
  9
$DRAGMODE
 70
     2
  9
$LTSCALE
 40
0.6431102362
  9
$OSMODE
 70
   575
  9
$ATTMODE
 70
     1
  9
$TEXTSIZE
 40
0.2
  9
$TRACEWID
 40
0.05
  9
$TEXTSTYLE
  7
STANDARD
  9
$CLAYER
  8
0
  9
$CELTYPE
  6
BYLAYER
  9
$CECOLOR
 62
   256
  9
$DIMSCALE
 40
1.0
  9
$DIMASZ
 40
0.1875
  9
$DIMEXO
 40
0.0625
  9
$DIMDLI
 40
0.4443307087
  9
$DIMRND
 40
0.0
  9
$DIMDLE
 40
0.0
  9
$DIMEXE
 40
0.125
  9
$DIMTP
 40
0.01
  9
$DIMTM
 40
0.01
  9
$DIMTXT
 40
1.0
  9
$DIMCEN
 40
0.1052362205
  9
$DIMTSZ
 40
0.0
  9
$DIMTOL
 70
     1
  9
$DIMLIM
 70
     0
  9
$DIMTIH
 70
     0
  9
$DIMTOH
 70
     1
  9
$DIMSE1
 70
     0
  9
$DIMSE2
 70
     0
  9
$DIMTAD
 70
     0
  9
$DIMZIN
 70
     0
  9
$DIMBLK
  1

  9
$DIMASO
 70
     1
  9
$DIMSHO
 70
     1
  9
$DIMPOST
  1
\X
  9
$DIMAPOST
  1

  9
$DIMALT
 70
     1
  9
$DIMALTD
 70
     2
  9
$DIMALTF
 40
25.3999999999999986
  9
$DIMLFAC
 40
1.0
  9
$DIMTOFL
 70
     0
  9
$DIMTVP
 40
0.0
  9
$DIMTIX
 70
     0
  9
$DIMSOXD
 70
     0
  9
$DIMSAH
 70
     0
  9
$DIMBLK1
  1

  9
$DIMBLK2
  1

  9
$DIMSTYLE
  2
STANDARD
  9
$DIMCLRD
 70
     0
  9
$DIMCLRE
 70
     0
  9
$DIMCLRT
 70
     0
  9
$DIMTFAC
 40
1.0
  9
$DIMGAP
 40
0.09
  9
$LUNITS
 70
     2
  9
$LUPREC
 70
     4
  9
$SKETCHINC
 40
0.1
  9
$FILLETRAD
 40
0.0
  9
$AUNITS
 70
     0
  9
$AUPREC
 70
     0
  9
$MENU
  1
.
  9
$ELEVATION
 40
0.0
  9
$PELEVATION
 40
0.0
  9
$THICKNESS
 40
0.0
  9
$LIMCHECK
 70
     0
  9
$BLIPMODE
 70
     0
  9
$CHAMFERA
 40
0.0
  9
$CHAMFERB
 40
0.0
  9
$SKPOLY
 70
     0
  9
$TDCREATE
 40
2458172.5207638889551163
  9
$TDUPDATE
 40
2459398.0689930561929941
  9
$TDINDWG
 40
0.2815365509
  9
$TDUSRTIMER
 40
0.2815365509
  9
$USRTIMER
 70
     1
  9
$ANGBASE
 50
0.0
  9
$ANGDIR
 70
     0
  9
$PDMODE
 70
     0
  9
$PDSIZE
 40
0.3125
  9
$PLINEWID
 40
0.0
  9
$COORDS
 70
     2
  9
$SPLFRAME
 70
     0
  9
$SPLINETYPE
 70
     6
  9
$SPLINESEGS
 70
     8
  9
$ATTDIA
 70
     1
  9
$ATTREQ
 70
     1
  9
$HANDLING
 70
     1
  9
$HANDSEED
  5
F133
  9
$SURFTAB1
 70
     6
  9
$SURFTAB2
 70
     6
  9
$SURFTYPE
 70
     6
  9
$SURFU
 70
     6
  9
$SURFV
 70
     6
  9
$UCSNAME
  2

  9
$UCSORG
 10
0.0
 20
0.0
 30
0.0
  9
$UCSXDIR
 10
1.0
 20
0.0
 30
0.0
  9
$UCSYDIR
 10
0.0
 20
1.0
 30
0.0
  9
$PUCSNAME
  2

  9
$PUCSORG
 10
0.0
 20
0.0
 30
0.0
  9
$PUCSXDIR
 10
1.0
 20
0.0
 30
0.0
  9
$PUCSYDIR
 10
0.0
 20
1.0
 30
0.0
  9
$USERI1
 70
     0
  9
$USERI2
 70
     0
  9
$USERI3
 70
     0
  9
$USERI4
 70
     0
  9
$USERI5
 70
     0
  9
$USERR1
 40
0.0
  9
$USERR2
 40
0.0
  9
$USERR3
 40
0.0
  9
$USERR4
 40
0.0
  9
$USERR5
 40
0.0
  9
$WORLDVIEW
 70
     1
  9
$SHADEDGE
 70
     3
  9
$SHADEDIF
 70
    70
  9
$TILEMODE
 70
     1
  9
$MAXACTVP
 70
    64
  9
$PLIMCHECK
 70
     0
  9
$PEXTMIN
 10
1.0000000000000000E+20
 20
1.0000000000000000E+20
 30
1.0000000000000000E+20
  9
$PEXTMAX
 10
-1.0000000000000000E+20
 20
-1.0000000000000000E+20
 30
-1.0000000000000000E+20
  9
$PLIMMIN
 10
0.0
 20
0.0
  9
$PLIMMAX
 10
12.0
 20
9.0
  9
$UNITMODE
 70
     0
  9
$VISRETAIN
 70
     1
  9
$PLINEGEN
 70
     0
  9
$PSLTSCALE
 70
     1
  0
ENDSEC
  0
SECTION
  2
TABLES
  0
TABLE
  2
VPORT
 70
     1
  0
VPORT
  2
*ACTIVE
 70
     0
 10
0.0
 20
0.0
 11
1.0
 21
1.0
 12
89.1806674900154377
 22
-24.459564046645621
 13
0.0
 23
0.0
 14
1.0
 24
1.0
 15
0.0
 25
0.0
 16
0.0
 26
0.0
 36
14.6338572656650907
 17
429.6292891080536833
 27
69.7025415122186871
 37
0.0
 40
9.3046605708556793
 41
2.3500000000000001
 42
50.0
 43
0.0
 44
0.0
 50
0.0
 51
0.0
 71
     0
 72
   100
 73
     1
 74
     1
 75
     0
 76
     0
 77
     0
 78
     0
  0
ENDTAB
  0
TABLE
  2
LTYPE
 70
     2
  0
LTYPE
  2
CONTINUOUS
 70
     0
  3
Solid line
 72
    65
 73
     0
 40
0.0
  0
LTYPE
  2
PHANTOM2
 70
     0
  3
___ _ _ ___ _ _ ___ _ _ ___ _ _
 72
    65
 73
     6
 40
1.25
 49
0.625
 49
-0.125
 49
0.125
 49
-0.125
 49
0.125
 49
-0.125
  0
ENDTAB
  0
TABLE
  2
LAYER
 70
     2
  0
LAYER
  2
0
 70
     0
 62
   255
  6
CONTINUOUS
  0
LAYER
  2
DEFPOINTS
 70
     0
 62
     7
  6
CONTINUOUS
  0
ENDTAB
  0
TABLE
  2
STYLE
 70
     1
  0
STYLE
  2
STANDARD
 70
     0
 40
0.0
 41
0.8
 50
0.0
 71
     0
 42
0.2
  3
txt
  4

  0
ENDTAB
  0
TABLE
  2
VIEW
 70
     3
  0
ENDTAB
  0
TABLE
  2
UCS
 70
     0
  0
ENDTAB
  0
TABLE
  2
APPID
 70
    10
  0
APPID
  2
ACAD
 70
     0
  0
APPID
  2
ACAD_MLEADERVER
 70
     0
  0
APPID
  2
ACAD_EXEMPT_FROM_CAD_STANDARDS
 70
     0
  0
APPID
  2
ACAD_DSTYLE_DIMJAG
 70
     0
  0
APPID
  2
ACAD_DSTYLE_DIMTALN
 70
     0
  0
APPID
  2
ACAD_NAV_VCDISPLAY
 70
     0
  0
APPID
  2
ACAECLAYERSTANDARD
 70
     0
  0
APPID
  2
ACCMTRANSPARENCY
 70
     0
  0
APPID
  2
DCO15
 70
     0
  0
APPID
  2
ACDBATTR
 70
     0
  0
ENDTAB
  0
TABLE
  2
DIMSTYLE
 70
     1
  0
DIMSTYLE
  2
STANDARD
 70
     0
  3

  4

  5

  6

  7

 40
1.0
 41
0.1875
 42
0.0625
 43
0.38
 44
0.125
 45
0.0
 46
0.0
 47
0.01
 48
0.01
140
0.15625
141
0.09
142
0.0
143
25.3999999999999986
144
1.0
145
0.0
146
1.0
147
0.09
 71
     1
 72
     0
 73
     1
 74
     1
 75
     0
 76
     0
 77
     0
 78
     4
170
     0
171
     2
172
     0
173
     0
174
     0
175
     0
176
     0
177
     0
178
     0
  0
ENDTAB
  0
ENDSEC
  0
SECTION
  2
BLOCKS
  0
BLOCK
  8
0
  2
$MODEL_SPACE
 70
     0
 10
0.0
 20
0.0
 30
0.0
  3
$MODEL_SPACE
  1

  0
ENDBLK
  5
21
  8
0
  0
BLOCK
 67
     1
  8
0
  2
$PAPER_SPACE
 70
     0
 10
0.0
 20
0.0
 30
0.0
  3
$PAPER_SPACE
  1

  0
ENDBLK
  5
1D
 67
     1
  8
0
  0
BLOCK
  8
0
  2
_FILLED
 70
     0
 10
0.0
 20
0.0
 30
0.0
  3
_FILLED
  1

  0
SOLID
  5
87E2
  8
0
  6
BYBLOCK
 62
     0
 10
0.0
 20
0.0
 30
0.0
 11
-1.0
 21
0.1666666667
 31
0.0
 12
-1.0
 22
-0.1666666667
 32
0.0
 13
-1.0
 23
-0.1666666667
 33
0.0
  0
ENDBLK
  5
87E3
  8
0
  6
BYBLOCK
 62
     0
  0
ENDSEC
  0
SECTION
  2
ENTITIES
  0
ATTDEF
  5
C848
  8
DEFPOINTS
 10
518.8900909530782428
 20
46.2135419427273391
 30
0.0
 40
0.001
  1
K-97280A
  3

  2
MODELNUMBER
 70
     0
1001
ACDBATTR
1070
     0
1070
     1
  0
ATTDEF
  5
C849
  8
DEFPOINTS
 10
518.8900909530782428
 20
46.211875276060681
 30
0.0
 40
0.001
  1
ALEO 
  3

  2
TRADENAME
 70
     0
1001
ACDBATTR
1070
     0
1070
     1
  0
ATTDEF
  5
C84A
  8
DEFPOINTS
 10
518.8900909530782428
 20
46.210208609394023
 30
0.0
 40
0.001
  1
VALVE TRIM
  3

  2
PRODUCT
 70
     0
1001
ACDBATTR
1070
     0
1070
     1
  0
LINE
  5
F062
  8
0
 10
517.3692056074200991
 20
42.9469764345719724
 30
0.0
 11
518.3857509074822474
 21
42.9469764345719724
 31
0.0
  0
LINE
  5
F063
  8
0
 10
518.6535743898873534
 20
42.9469764345719724
 30
0.0
 11
519.1260153347873256
 21
42.9469764345719724
 31
0.0
  0
LINE
  5
F064
  8
0
 10
517.3693863348717059
 20
49.4824095054219768
 30
0.0
 11
520.4106867400231522
 21
49.4824095054219697
 31
0.0
  0
LINE
  5
F065
  8
0
 10
520.408492709507982
 20
42.946976434581309
 30
0.0
 11
519.4409759646872544
 21
42.9469764345719724
 31
0.0
  0
LINE
  5
F066
  8
0
 10
519.4306426579872777
 20
42.9573097413719793
 30
0.0
 11
519.1363486415873467
 21
42.9573097413719793
 31
0.0
  0
LINE
  5
F067
  8
0
 10
519.1363486415873467
 20
42.9573097413719793
 30
0.0
 11
519.1260153347873256
 21
42.9469764345719724
 31
0.0
  0
LINE
  5
F068
  8
0
 10
519.4306426579872777
 20
42.9573097413719793
 30
0.0
 11
519.4409759646872544
 21
42.9469764345719724
 31
0.0
  0
LINE
  5
F069
  8
0
 10
518.3960842141823377
 20
42.9573097413719793
 30
0.0
 11
518.6432410831873767
 21
42.9573097413719793
 31
0.0
  0
LINE
  5
F06A
  8
0
 10
518.6432410831873767
 20
42.9573097413719793
 30
0.0
 11
518.6535743898873534
 21
42.9469764345719724
 31
0.0
  0
LINE
  5
F06B
  8
0
 10
518.3960842141823377
 20
42.9573097413719793
 30
0.0
 11
518.3857509074822474
 21
42.9469764345719724
 31
0.0
  0
LINE
  5
F06C
  8
0
 10
516.6656309025519249
 20
48.778645528313298
 30
0.0
 11
516.6656309025519249
 21
43.6529411812219692
 31
0.0
  0
LINE
  5
F06D
  8
0
 10
521.1144498002519185
 20
48.7786540711391368
 30
0.0
 11
521.1144498002519185
 21
43.6507403948398505
 31
0.0
  0
ARC
  5
F06E
  8
0
 10
520.4095897216888034
 20
48.7775494149301494
 30
0.0
 40
0.7048609441708092
 50
0.0897938309964186
 51
89.9108270269400123
  0
ARC
  5
F06F
  8
0
 10
517.3704909920628552
 20
48.7775494292714527
 30
0.0
 40
0.7048609417597401
 50
90.0897939111404042
 51
179.9109017529314087
  0
ARC
  5
F070
  8
0
 10
520.4095897311335648
 20
43.6518365022774617
 30
0.0
 40
0.7048609213802912
 50
269.9108267565399046
 51
359.9109010678922118
  0
ARC
  5
F071
  8
0
 10
517.3704006283109038
 20
43.6517461603311006
 30
0.0
 40
0.7047707389084247
 50
179.9028482845461099
 51
269.9028482845383792
  0
ARC
  5
F072
  8
0
 10
517.404389947043569
 20
48.7436635171308481
 30
0.0
 40
0.7056582233821259
 50
89.9749224643671255
 51
180.0273490903985021
  0
LINE
  5
F073
  8
0
 10
517.404698803451879
 20
49.4493216729219682
 30
0.0
 11
520.375381908851864
 21
49.4493216729219682
 31
0.0
  0
ARC
  5
F074
  8
0
 10
520.3756907513476335
 20
48.7436635127113433
 30
0.0
 40
0.7056582277955429
 50
359.9726507895638861
 51
90.0250764058378365
  0
LINE
  5
F075
  8
0
 10
517.4046912421837305
 20
42.9800778620533279
 30
0.0
 11
520.3753894557680724
 21
42.9800778740627578
 31
0.0
  0
ARC
  5
F076
  8
0
 10
517.4043667602414871
 20
43.6857128286784402
 30
0.0
 40
0.7056350412306264
 50
179.9718705124946041
 51
270.0263471134244924
  0
LINE
  5
F077
  8
0
 10
516.6987318040519312
 20
43.6860592617219723
 30
0.0
 11
516.6987318040519312
 21
48.7433266841219677
 31
0.0
  0
LINE
  5
F078
  8
0
 10
521.0813488987517985
 20
48.7433266782219832
 30
0.0
 11
521.0813488987517985
 21
43.6860592559219825
 31
0.0
  0
ARC
  5
F079
  8
0
 10
520.3757139647578924
 20
43.6857128184820311
 30
0.0
 40
0.7056350190372233
 50
269.9736506895437174
 51
0.028129845367401
  0
ARC
  5
F07A
  8
0
 10
-1126.0767273129479236
 20
-49.4694926959232575
 30
0.0
 40
1646.8211013697271028
 50
3.2646020409250411
 51
3.3649828545005769
  0
ARC
  5
F07B
  8
0
 10
1469.50790134029603
 20
-8.9673751400188593
 30
0.0
 40
951.2929840749425239
 50
176.6138563418230945
 51
176.7893128685161059
  0
ARC
  5
F07C
  8
0
 10
518.890040969283632
 20
47.2323992759115114
 30
0.0
 40
0.9857687749001361
 50
359.3203195735375743
 51
182.3040150977653013
  0
ARC
  5
F07D
  8
0
 10
518.8958180524172121
 20
47.2424211015515496
 30
0.0
 40
0.980162913032654
 50
358.7305149695391151
 51
90.3377395668662615
  0
ARC
  5
F07E
  8
0
 10
519.6796284912860528
 20
44.4277839295331702
 30
0.0
 40
1.6118672244603121
 50
184.10473965393399
 51
195.9382314613864935
  0
ARC
  5
F07F
  8
0
 10
518.5503160910999441
 20
44.1235277448219918
 30
0.0
 40
0.4427664595583365
 50
198.2098856570561907
 51
239.143486595926106
  0
ARC
  5
F080
  8
0
 10
518.6612345228729737
 20
44.3654522099231272
 30
0.0
 40
0.7079251272002477
 50
241.4800892504997876
 51
267.3758348303890102
  0
ARC
  5
F081
  8
0
 10
518.9112738770309079
 20
47.1649045776781435
 30
0.0
 40
3.5179921281518052
 50
265.3949016117070983
 51
269.5983926205020111
  0
ARC
  5
F082
  8
0
 10
518.9425291315450295
 20
45.6144576048289068
 30
0.0
 40
1.9681826942774241
 50
271.5540880854345005
 51
278.4821402915924864
  0
ARC
  5
F083
  8
0
 10
519.1563977433728496
 20
44.2556116603754788
 30
0.0
 40
0.5927579993705108
 50
277.4093489879072081
 51
306.6288924261284023
  0
ARC
  5
F084
  8
0
 10
519.1434216375381538
 20
44.1800181664331504
 30
0.0
 40
0.5426818626282059
 50
312.500364014233412
 51
353.6929840543048158
  0
ARC
  5
F085
  8
0
 10
516.5677498290209542
 20
44.628718546474289
 30
0.0
 40
3.1562702505553522
 50
350.732154125363877
 51
354.2481007309110055
  0
LINE
  5
F086
  8
0
 10
518.9959074826069809
 20
43.6469988709056196
 30
0.0
 11
518.8866151666944688
 21
43.6469988709056196
 31
0.0
  0
ARC
  5
F087
  8
0
 10
518.8844521348398757
 20
47.2419650887429725
 30
0.0
 40
0.9806178198073494
 50
89.6734885361102982
 51
182.8756141436288942
  0
ENDSEC
  0
EOF
