  0
SECTION
  2
HEADER
  9
$ACADVER
  1
AC1009
  9
$INSBASE
 10
509.1489806975055217
 20
44.6793214449309488
 30
0.0
  9
$EXTMIN
 10
505.7390994699262023
 20
41.4110859613781983
 30
-0.0000000000112498
  9
$EXTMAX
 10
509.1982722293960251
 20
47.9501155598382525
 30
0.0000000000002956
  9
$LIMMIN
 10
0.0
 20
0.0
  9
$LIMMAX
 10
11.6929133858000007
 20
8.2677165353999982
  9
$ORTHOMODE
 70
     0
  9
$REGENMODE
 70
     1
  9
$FILLMODE
 70
     1
  9
$QTEXTMODE
 70
     0
  9
$MIRRTEXT
 70
     0
  9
$DRAGMODE
 70
     2
  9
$LTSCALE
 40
0.6431102362
  9
$OSMODE
 70
   575
  9
$ATTMODE
 70
     1
  9
$TEXTSIZE
 40
0.2
  9
$TRACEWID
 40
0.05
  9
$TEXTSTYLE
  7
STANDARD
  9
$CLAYER
  8
0
  9
$CELTYPE
  6
BYLAYER
  9
$CECOLOR
 62
   256
  9
$DIMSCALE
 40
1.0
  9
$DIMASZ
 40
0.1875
  9
$DIMEXO
 40
0.0625
  9
$DIMDLI
 40
0.4443307087
  9
$DIMRND
 40
0.0
  9
$DIMDLE
 40
0.0
  9
$DIMEXE
 40
0.125
  9
$DIMTP
 40
0.01
  9
$DIMTM
 40
0.01
  9
$DIMTXT
 40
1.0
  9
$DIMCEN
 40
0.1052362205
  9
$DIMTSZ
 40
0.0
  9
$DIMTOL
 70
     1
  9
$DIMLIM
 70
     0
  9
$DIMTIH
 70
     0
  9
$DIMTOH
 70
     1
  9
$DIMSE1
 70
     0
  9
$DIMSE2
 70
     0
  9
$DIMTAD
 70
     0
  9
$DIMZIN
 70
     0
  9
$DIMBLK
  1

  9
$DIMASO
 70
     1
  9
$DIMSHO
 70
     1
  9
$DIMPOST
  1
\X
  9
$DIMAPOST
  1

  9
$DIMALT
 70
     1
  9
$DIMALTD
 70
     2
  9
$DIMALTF
 40
25.3999999999999986
  9
$DIMLFAC
 40
1.0
  9
$DIMTOFL
 70
     0
  9
$DIMTVP
 40
0.0
  9
$DIMTIX
 70
     0
  9
$DIMSOXD
 70
     0
  9
$DIMSAH
 70
     0
  9
$DIMBLK1
  1

  9
$DIMBLK2
  1

  9
$DIMSTYLE
  2
STANDARD
  9
$DIMCLRD
 70
     0
  9
$DIMCLRE
 70
     0
  9
$DIMCLRT
 70
     0
  9
$DIMTFAC
 40
1.0
  9
$DIMGAP
 40
0.09
  9
$LUNITS
 70
     2
  9
$LUPREC
 70
     4
  9
$SKETCHINC
 40
0.1
  9
$FILLETRAD
 40
0.0
  9
$AUNITS
 70
     0
  9
$AUPREC
 70
     0
  9
$MENU
  1
.
  9
$ELEVATION
 40
0.0
  9
$PELEVATION
 40
0.0
  9
$THICKNESS
 40
0.0
  9
$LIMCHECK
 70
     0
  9
$BLIPMODE
 70
     0
  9
$CHAMFERA
 40
0.0
  9
$CHAMFERB
 40
0.0
  9
$SKPOLY
 70
     0
  9
$TDCREATE
 40
2458172.5207638889551163
  9
$TDUPDATE
 40
2459398.0709374998696148
  9
$TDINDWG
 40
0.2822541435
  9
$TDUSRTIMER
 40
0.2822541435
  9
$USRTIMER
 70
     1
  9
$ANGBASE
 50
0.0
  9
$ANGDIR
 70
     0
  9
$PDMODE
 70
     0
  9
$PDSIZE
 40
0.3125
  9
$PLINEWID
 40
0.0
  9
$COORDS
 70
     2
  9
$SPLFRAME
 70
     0
  9
$SPLINETYPE
 70
     6
  9
$SPLINESEGS
 70
     8
  9
$ATTDIA
 70
     1
  9
$ATTREQ
 70
     1
  9
$HANDLING
 70
     1
  9
$HANDSEED
  5
F1F0
  9
$SURFTAB1
 70
     6
  9
$SURFTAB2
 70
     6
  9
$SURFTYPE
 70
     6
  9
$SURFU
 70
     6
  9
$SURFV
 70
     6
  9
$UCSNAME
  2

  9
$UCSORG
 10
0.0
 20
0.0
 30
0.0
  9
$UCSXDIR
 10
1.0
 20
0.0
 30
0.0
  9
$UCSYDIR
 10
0.0
 20
1.0
 30
0.0
  9
$PUCSNAME
  2

  9
$PUCSORG
 10
0.0
 20
0.0
 30
0.0
  9
$PUCSXDIR
 10
1.0
 20
0.0
 30
0.0
  9
$PUCSYDIR
 10
0.0
 20
1.0
 30
0.0
  9
$USERI1
 70
     0
  9
$USERI2
 70
     0
  9
$USERI3
 70
     0
  9
$USERI4
 70
     0
  9
$USERI5
 70
     0
  9
$USERR1
 40
0.0
  9
$USERR2
 40
0.0
  9
$USERR3
 40
0.0
  9
$USERR4
 40
0.0
  9
$USERR5
 40
0.0
  9
$WORLDVIEW
 70
     1
  9
$SHADEDGE
 70
     3
  9
$SHADEDIF
 70
    70
  9
$TILEMODE
 70
     1
  9
$MAXACTVP
 70
    64
  9
$PLIMCHECK
 70
     0
  9
$PEXTMIN
 10
1.0000000000000000E+20
 20
1.0000000000000000E+20
 30
1.0000000000000000E+20
  9
$PEXTMAX
 10
-1.0000000000000000E+20
 20
-1.0000000000000000E+20
 30
-1.0000000000000000E+20
  9
$PLIMMIN
 10
0.0
 20
0.0
  9
$PLIMMAX
 10
12.0
 20
9.0
  9
$UNITMODE
 70
     0
  9
$VISRETAIN
 70
     1
  9
$PLINEGEN
 70
     0
  9
$PSLTSCALE
 70
     1
  0
ENDSEC
  0
SECTION
  2
TABLES
  0
TABLE
  2
VPORT
 70
     1
  0
VPORT
  2
*ACTIVE
 70
     0
 10
0.0
 20
0.0
 11
1.0
 21
1.0
 12
78.1449763758893141
 22
-26.2733625759578118
 13
0.0
 23
0.0
 14
1.0
 24
1.0
 15
0.0
 25
0.0
 16
0.0
 26
0.0
 36
14.6338572656650907
 17
429.6292891080536833
 27
69.7025415122186871
 37
0.0
 40
9.8949632840443549
 41
2.3500000000000001
 42
50.0
 43
0.0
 44
0.0
 50
0.0
 51
0.0
 71
     0
 72
   100
 73
     1
 74
     1
 75
     0
 76
     0
 77
     0
 78
     0
  0
ENDTAB
  0
TABLE
  2
LTYPE
 70
     2
  0
LTYPE
  2
CONTINUOUS
 70
     0
  3
Solid line
 72
    65
 73
     0
 40
0.0
  0
LTYPE
  2
PHANTOM2
 70
     0
  3
___ _ _ ___ _ _ ___ _ _ ___ _ _
 72
    65
 73
     6
 40
1.25
 49
0.625
 49
-0.125
 49
0.125
 49
-0.125
 49
0.125
 49
-0.125
  0
ENDTAB
  0
TABLE
  2
LAYER
 70
     2
  0
LAYER
  2
0
 70
     0
 62
   255
  6
CONTINUOUS
  0
LAYER
  2
DEFPOINTS
 70
     0
 62
     7
  6
CONTINUOUS
  0
ENDTAB
  0
TABLE
  2
STYLE
 70
     1
  0
STYLE
  2
STANDARD
 70
     0
 40
0.0
 41
0.8
 50
0.0
 71
     0
 42
0.2
  3
txt
  4

  0
ENDTAB
  0
TABLE
  2
VIEW
 70
     3
  0
ENDTAB
  0
TABLE
  2
UCS
 70
     0
  0
ENDTAB
  0
TABLE
  2
APPID
 70
    10
  0
APPID
  2
ACAD
 70
     0
  0
APPID
  2
ACAD_MLEADERVER
 70
     0
  0
APPID
  2
ACAD_EXEMPT_FROM_CAD_STANDARDS
 70
     0
  0
APPID
  2
ACAD_DSTYLE_DIMJAG
 70
     0
  0
APPID
  2
ACAD_DSTYLE_DIMTALN
 70
     0
  0
APPID
  2
ACAD_NAV_VCDISPLAY
 70
     0
  0
APPID
  2
ACAECLAYERSTANDARD
 70
     0
  0
APPID
  2
ACCMTRANSPARENCY
 70
     0
  0
APPID
  2
DCO15
 70
     0
  0
APPID
  2
ACDBATTR
 70
     0
  0
ENDTAB
  0
TABLE
  2
DIMSTYLE
 70
     1
  0
DIMSTYLE
  2
STANDARD
 70
     0
  3

  4

  5

  6

  7

 40
1.0
 41
0.1875
 42
0.0625
 43
0.38
 44
0.125
 45
0.0
 46
0.0
 47
0.01
 48
0.01
140
0.15625
141
0.09
142
0.0
143
25.3999999999999986
144
1.0
145
0.0
146
1.0
147
0.09
 71
     1
 72
     0
 73
     1
 74
     1
 75
     0
 76
     0
 77
     0
 78
     4
170
     0
171
     2
172
     0
173
     0
174
     0
175
     0
176
     0
177
     0
178
     0
  0
ENDTAB
  0
ENDSEC
  0
SECTION
  2
BLOCKS
  0
BLOCK
  8
0
  2
$MODEL_SPACE
 70
     0
 10
0.0
 20
0.0
 30
0.0
  3
$MODEL_SPACE
  1

  0
ENDBLK
  5
21
  8
0
  0
BLOCK
 67
     1
  8
0
  2
$PAPER_SPACE
 70
     0
 10
0.0
 20
0.0
 30
0.0
  3
$PAPER_SPACE
  1

  0
ENDBLK
  5
1D
 67
     1
  8
0
  0
BLOCK
  8
0
  2
_FILLED
 70
     0
 10
0.0
 20
0.0
 30
0.0
  3
_FILLED
  1

  0
SOLID
  5
87E2
  8
0
  6
BYBLOCK
 62
     0
 10
0.0
 20
0.0
 30
0.0
 11
-1.0
 21
0.1666666667
 31
0.0
 12
-1.0
 22
-0.1666666667
 32
0.0
 13
-1.0
 23
-0.1666666667
 33
0.0
  0
ENDBLK
  5
87E3
  8
0
  6
BYBLOCK
 62
     0
  0
ENDSEC
  0
SECTION
  2
ENTITIES
  0
ATTDEF
  5
C848
  8
DEFPOINTS
 10
509.1491285401662026
 20
44.6827231950768109
 30
0.0
 40
0.001
  1
K-97280A
  3

  2
MODELNUMBER
 70
     0
1001
ACDBATTR
1070
     0
1070
     1
  0
ATTDEF
  5
C849
  8
DEFPOINTS
 10
509.1491285401662026
 20
44.6810565284101386
 30
0.0
 40
0.001
  1
ALEO 
  3

  2
TRADENAME
 70
     0
1001
ACDBATTR
1070
     0
1070
     1
  0
ATTDEF
  5
C84A
  8
DEFPOINTS
 10
509.1491285401662026
 20
44.6793898617434806
 30
0.0
 40
0.001
  1
VALVE TRIM
  3

  2
PRODUCT
 70
     0
1001
ACDBATTR
1070
     0
1070
     1
  0
LINE
  5
F0D1
  8
0
 10
508.768815406575527
 20
41.4448650382739601
 30
0.0
 11
509.1489806975055217
 21
41.4116049095059466
 31
0.0
  0
LINE
  5
F0D2
  8
0
 10
505.7624058944056173
 20
42.1313053871559475
 30
0.0
 11
505.7624058944056173
 21
46.6631107515559478
 31
0.0
  0
LINE
  5
F0D3
  8
0
 10
507.1009885715055816
 20
44.7186915248099979
 30
0.0
 11
507.1009885715055816
 21
45.5412941784521692
 31
0.0
  0
LINE
  5
F0D4
  8
0
 10
507.4750043195056151
 20
46.6753844362559533
 30
0.0
 11
507.4750043195056151
 21
44.7698726268559568
 31
0.0
  0
LINE
  5
F0D5
  8
0
 10
507.4868153432054783
 20
44.7580616024559532
 30
0.0
 11
508.6177046329058271
 21
44.7580616024559532
 31
0.0
  0
LINE
  5
F0D6
  8
0
 10
507.3387889904054759
 20
44.7777466417559467
 30
0.0
 11
507.4750043195056151
 21
44.7777466417559467
 31
0.0
  0
LINE
  5
F0D7
  8
0
 10
507.0456585245055976
 20
45.7908719032559475
 30
0.0
 11
506.6297558066056013
 21
46.6827781601559479
 31
0.0
  0
LINE
  5
F0D8
  8
0
 10
508.6257313490054912
 20
44.9045936285559506
 30
0.0
 11
508.6150097706109818
 21
44.7088654396421532
 31
0.0
  0
LINE
  5
F0D9
  8
0
 10
509.1489806975055217
 20
47.947037980355951
 30
0.0
 11
509.1489806975055217
 21
41.4116049095059466
 31
0.0
  0
LINE
  5
F0DA
  8
0
 10
507.3387889904054759
 20
46.6675104213559493
 30
0.0
 11
507.4750043195056151
 21
46.6675104213559493
 31
0.0
  0
LINE
  5
F0DB
  8
0
 10
506.6297558066056013
 20
46.6827781601559479
 30
0.0
 11
505.78209093370549
 21
46.6827958189559524
 31
0.0
  0
LINE
  5
F0DC
  8
0
 10
507.4868153432054783
 20
46.6871954606559498
 30
0.0
 11
508.6697017698056129
 21
46.6871954606559498
 31
0.0
  0
LINE
  5
F0DD
  8
0
 10
508.7707850414054747
 20
47.9139501478559495
 30
0.0
 11
508.7686115446055055
 21
47.9136362682559493
 31
0.0
  0
LINE
  5
F0DE
  8
0
 10
509.1489806975055217
 20
47.947037980355951
 30
0.0
 11
508.7688383428541101
 21
47.9137798338014207
 31
0.0
  0
ARC
  5
F0DF
  8
0
 10
1843.3755864601021131
 20
44.6793320964956777
 30
0.0
 40
1334.6266241191181052
 50
179.8619394439012069
 51
180.1380614705387018
  0
ARC
  5
F0E0
  8
0
 10
507.1540638029061938
 20
63.6715103002043179
 30
0.0
 40
18.9528930908483595
 50
269.0914273319700101
 51
269.8395500509595877
  0
ARC
  5
F0E1
  8
0
 10
507.3387910595367885
 20
45.7226240022170387
 30
0.0
 40
0.944886419141185
 50
90.0001254674443913
 51
129.5153345509066014
  0
ARC
  5
F0E2
  8
0
 10
507.3387957664596115
 20
45.7226686312797028
 30
0.0
 40
0.944921989548043
 50
255.4237266261073955
 51
269.999589130845095
  0
ARC
  5
F0E3
  8
0
 10
506.5104373904055137
 20
45.5412941896559573
 30
0.0
 40
0.5905511811000002
 50
359.9999989129997857
 51
25.0000000000995186
  0
ARC
  5
F0E4
  8
0
 10
505.7821329757329067
 20
42.1313544882736366
 30
0.0
 40
0.0197271424340417
 50
180.1426100981063883
 51
292.4981382900066933
  0
ARC
  5
F0E5
  8
0
 10
505.7820980798708206
 20
46.6631036335008673
 30
0.0
 40
0.0196921867517281
 50
90.0207922626075145
 51
179.9792895259180909
  0
ARC
  5
F0E6
  8
0
 10
508.7725086128015164
 20
47.8943321158708173
 30
0.0
 40
0.0196935888002246
 50
101.4133138206454987
 51
177.2984574473047132
  0
ARC
  5
F0E7
  8
0
 10
508.772554496891587
 20
41.4643289205041725
 30
0.0
 40
0.0197402322654686
 50
182.7478765235811125
 51
262.1431953166223252
  0
ARC
  5
F0E8
  8
0
 10
508.770531070805589
 20
41.46447517015595
 30
0.0
 40
0.0196850394
 50
184.8315837698999076
 51
264.9999999996014139
  0
ARC
  5
F0E9
  8
0
 10
508.7705310718055784
 20
47.8941677088559601
 30
0.0
 40
0.0196850394
 50
94.9329924093857329
 51
175.1683847283001967
  0
ARC
  5
F0EA
  8
0
 10
507.4868153432054783
 20
44.7698726260559567
 30
0.0
 40
0.0118110236
 50
180.0
 51
270.0
  0
ARC
  5
F0EB
  8
0
 10
507.4868153432054783
 20
46.6753844370559534
 30
0.0
 40
0.0118110236
 50
90.0
 51
180.0
  0
LINE
  5
F0EC
  8
0
 10
506.875516252605621
 20
45.6486279269559532
 30
0.0
 11
506.624777130456323
 21
46.6827782638731676
 31
0.0
  0
LINE
  5
F0ED
  8
0
 10
506.875516252605621
 20
45.6486279269559532
 30
0.0
 11
507.1009885715055816
 21
44.7186915248099979
 31
0.0
  0
ARC
  5
F0EE
  8
0
 10
506.8762831137887019
 20
41.0866770575973632
 30
0.0
 40
3.6343943053996499
 50
90.3587135131723329
 51
92.542535700332806
  0
ARC
  5
F0EF
  8
0
 10
506.5812702764246751
 20
44.1833500709245968
 30
0.0
 40
0.4960671015995384
 50
112.4526218838818039
 51
159.3232410875939138
  0
ARC
  5
F0F0
  8
0
 10
506.7266941265295941
 20
43.9396322146970491
 30
0.0
 40
0.7779483539918406
 50
90.8570646734862493
 51
115.4972315416596018
  0
ARC
  5
F0F1
  8
0
 10
506.9405727019300798
 20
43.9942782930368921
 30
0.0
 40
0.9003770470125765
 50
156.1382353875368949
 51
174.9238831803396863
  0
ARC
  5
F0F2
  8
0
 10
509.9677212152491279
 20
43.6234647762354726
 30
0.0
 40
3.9497673156483741
 50
173.4510627153468931
 51
178.031500464262308
  0
ARC
  5
F0F3
  8
0
 10
645.1219596826056204
 20
40.0233585931012925
 30
0.0
 40
139.1518307928828904
 50
178.4616070451126006
 51
178.8660996065854079
  0
ARC
  5
F0F4
  8
0
 10
502.3808836537930915
 20
42.8775027936209909
 30
0.0
 40
3.6178894165955979
 50
354.5722493190684759
 51
358.4087018975567958
  0
ARC
  5
F0F5
  8
0
 10
505.0043853483393832
 20
42.6047726880744477
 30
0.0
 40
0.9806311368048048
 50
339.6765966845829894
 51
355.9365971510865165
  0
ARC
  5
F0F6
  8
0
 10
505.6428260346697243
 20
42.3691329340479115
 30
0.0
 40
0.300094101332825
 50
310.2554040072691919
 51
339.5292219293764902
  0
ARC
  5
F0F7
  8
0
 10
505.7109518621310826
 20
42.3049988669600765
 30
0.0
 40
0.207394606174073
 50
292.3097379383822272
 51
307.3399648285397916
  0
ARC
  5
F0F8
  8
0
 10
549.8592326888066282
 20
44.8098177397324875
 30
0.0
 40
41.2443464670334876
 50
180.1402409541748
 51
184.6547013029440052
  0
ARC
  5
F0F9
  8
0
 10
470.623880263057174
 20
46.7338067874151619
 30
0.0
 40
38.0458500593577682
 50
357.2442036598180835
 51
359.9298048810913997
  0
ARC
  5
F0FA
  8
0
 10
561.1525338639585243
 20
43.7676422085706207
 30
0.0
 40
52.5639748859882801
 50
175.4955590846170992
 51
176.8159902585273073
  0
ENDSEC
  0
EOF
