  0
SECTION
  2
HEADER
  9
$ACADVER
  1
AC1009
  9
$INSBASE
 10
4469.8115256979408514
 20
459.5270189603094195
 30
0.0
  9
$EXTMIN
 10
4460.0765099097998245
 20
459.5009721392671054
 30
-0.0000000349181948
  9
$EXTMAX
 10
4477.4181863671747124
 20
479.4989849758965192
 30
0.0000000814935746
  9
$LIMMIN
 10
0.0
 20
0.0
  9
$LIMMAX
 10
11.6929133858000007
 20
8.2677165353999982
  9
$ORTHOMODE
 70
     0
  9
$REGENMODE
 70
     1
  9
$FILLMODE
 70
     1
  9
$QTEXTMODE
 70
     0
  9
$MIRRTEXT
 70
     0
  9
$DRAGMODE
 70
     2
  9
$LTSCALE
 40
0.6431102362
  9
$OSMODE
 70
    19
  9
$ATTMODE
 70
     1
  9
$TEXTSIZE
 40
0.2
  9
$TRACEWID
 40
0.05
  9
$TEXTSTYLE
  7
STANDARD
  9
$CLAYER
  8
0
  9
$CELTYPE
  6
BYLAYER
  9
$CECOLOR
 62
   256
  9
$DIMSCALE
 40
1.0
  9
$DIMASZ
 40
0.1875
  9
$DIMEXO
 40
0.0625
  9
$DIMDLI
 40
0.4443307087
  9
$DIMRND
 40
0.0
  9
$DIMDLE
 40
0.0
  9
$DIMEXE
 40
0.125
  9
$DIMTP
 40
0.01
  9
$DIMTM
 40
0.01
  9
$DIMTXT
 40
2.0
  9
$DIMCEN
 40
0.1052362205
  9
$DIMTSZ
 40
0.0
  9
$DIMTOL
 70
     1
  9
$DIMLIM
 70
     0
  9
$DIMTIH
 70
     1
  9
$DIMTOH
 70
     1
  9
$DIMSE1
 70
     0
  9
$DIMSE2
 70
     0
  9
$DIMTAD
 70
     0
  9
$DIMZIN
 70
     0
  9
$DIMBLK
  1

  9
$DIMASO
 70
     1
  9
$DIMSHO
 70
     1
  9
$DIMPOST
  1
\X
  9
$DIMAPOST
  1

  9
$DIMALT
 70
     1
  9
$DIMALTD
 70
     2
  9
$DIMALTF
 40
25.3999999999999986
  9
$DIMLFAC
 40
1.0
  9
$DIMTOFL
 70
     0
  9
$DIMTVP
 40
0.0
  9
$DIMTIX
 70
     0
  9
$DIMSOXD
 70
     0
  9
$DIMSAH
 70
     0
  9
$DIMBLK1
  1

  9
$DIMBLK2
  1

  9
$DIMSTYLE
  2
STANDARD
  9
$DIMCLRD
 70
     0
  9
$DIMCLRE
 70
     0
  9
$DIMCLRT
 70
     0
  9
$DIMTFAC
 40
1.0
  9
$DIMGAP
 40
0.09
  9
$LUNITS
 70
     2
  9
$LUPREC
 70
     4
  9
$SKETCHINC
 40
0.1
  9
$FILLETRAD
 40
0.0
  9
$AUNITS
 70
     0
  9
$AUPREC
 70
     0
  9
$MENU
  1
.
  9
$ELEVATION
 40
0.0
  9
$PELEVATION
 40
0.0
  9
$THICKNESS
 40
0.0
  9
$LIMCHECK
 70
     0
  9
$BLIPMODE
 70
     0
  9
$CHAMFERA
 40
0.0
  9
$CHAMFERB
 40
0.0
  9
$SKPOLY
 70
     0
  9
$TDCREATE
 40
2458060.468368056230247
  9
$TDUPDATE
 40
2459262.7252314807847142
  9
$TDINDWG
 40
1.4724796296
  9
$TDUSRTIMER
 40
1.4724796296
  9
$USRTIMER
 70
     1
  9
$ANGBASE
 50
0.0
  9
$ANGDIR
 70
     0
  9
$PDMODE
 70
     0
  9
$PDSIZE
 40
0.3125
  9
$PLINEWID
 40
0.0
  9
$COORDS
 70
     1
  9
$SPLFRAME
 70
     0
  9
$SPLINETYPE
 70
     6
  9
$SPLINESEGS
 70
     8
  9
$ATTDIA
 70
     1
  9
$ATTREQ
 70
     1
  9
$HANDLING
 70
     1
  9
$HANDSEED
  5
18B13
  9
$SURFTAB1
 70
     6
  9
$SURFTAB2
 70
     6
  9
$SURFTYPE
 70
     6
  9
$SURFU
 70
     6
  9
$SURFV
 70
     6
  9
$UCSNAME
  2

  9
$UCSORG
 10
0.0
 20
0.0
 30
0.0
  9
$UCSXDIR
 10
1.0
 20
0.0
 30
0.0
  9
$UCSYDIR
 10
0.0
 20
1.0
 30
0.0
  9
$PUCSNAME
  2

  9
$PUCSORG
 10
0.0
 20
0.0
 30
0.0
  9
$PUCSXDIR
 10
1.0
 20
0.0
 30
0.0
  9
$PUCSYDIR
 10
0.0
 20
1.0
 30
0.0
  9
$USERI1
 70
     0
  9
$USERI2
 70
     0
  9
$USERI3
 70
     0
  9
$USERI4
 70
     0
  9
$USERI5
 70
     0
  9
$USERR1
 40
0.0
  9
$USERR2
 40
0.0
  9
$USERR3
 40
0.0
  9
$USERR4
 40
0.0
  9
$USERR5
 40
0.0
  9
$WORLDVIEW
 70
     1
  9
$SHADEDGE
 70
     3
  9
$SHADEDIF
 70
    70
  9
$TILEMODE
 70
     1
  9
$MAXACTVP
 70
    64
  9
$PLIMCHECK
 70
     0
  9
$PEXTMIN
 10
1.0000000000000000E+20
 20
1.0000000000000000E+20
 30
1.0000000000000000E+20
  9
$PEXTMAX
 10
-1.0000000000000000E+20
 20
-1.0000000000000000E+20
 30
-1.0000000000000000E+20
  9
$PLIMMIN
 10
0.0
 20
0.0
  9
$PLIMMAX
 10
12.0
 20
9.0
  9
$UNITMODE
 70
     0
  9
$VISRETAIN
 70
     1
  9
$PLINEGEN
 70
     0
  9
$PSLTSCALE
 70
     1
  0
ENDSEC
  0
SECTION
  2
TABLES
  0
TABLE
  2
VPORT
 70
     1
  0
VPORT
  2
*ACTIVE
 70
     0
 10
0.0
 20
0.0
 11
1.0
 21
1.0
 12
557.3819916931752232
 22
336.9203734550428067
 13
0.0
 23
0.0
 14
1.0
 24
1.0
 15
0.0
 25
0.0
 16
0.0
 26
0.0
 36
60.4960186965801583
 17
3911.3653564453120453
 27
132.5796051025390057
 37
0.0
 40
20.1232613512638601
 41
1.6896551724137929
 42
50.0
 43
0.0
 44
0.0
 50
0.0
 51
0.0
 71
     0
 72
   100
 73
     1
 74
     1
 75
     0
 76
     0
 77
     0
 78
     0
  0
ENDTAB
  0
TABLE
  2
LTYPE
 70
     2
  0
LTYPE
  2
CONTINUOUS
 70
     0
  3
Solid line
 72
    65
 73
     0
 40
0.0
  0
LTYPE
  2
PHANTOM2
 70
     0
  3
___ _ _ ___ _ _ ___ _ _ ___ _ _
 72
    65
 73
     6
 40
1.25
 49
0.625
 49
-0.125
 49
0.125
 49
-0.125
 49
0.125
 49
-0.125
  0
ENDTAB
  0
TABLE
  2
LAYER
 70
     2
  0
LAYER
  2
0
 70
     0
 62
   255
  6
CONTINUOUS
  0
LAYER
  2
DEFPOINTS
 70
     0
 62
     7
  6
CONTINUOUS
  0
ENDTAB
  0
TABLE
  2
STYLE
 70
     1
  0
STYLE
  2
STANDARD
 70
     0
 40
0.0
 41
0.8
 50
0.0
 71
     0
 42
0.2
  3
txt
  4

  0
ENDTAB
  0
TABLE
  2
VIEW
 70
     0
  0
ENDTAB
  0
TABLE
  2
UCS
 70
     0
  0
ENDTAB
  0
TABLE
  2
APPID
 70
    11
  0
APPID
  2
ACAD
 70
     0
  0
APPID
  2
ACAD_MLEADERVER
 70
     0
  0
APPID
  2
ACAD_EXEMPT_FROM_CAD_STANDARDS
 70
     0
  0
APPID
  2
ACAD_NAV_VCDISPLAY
 70
     0
  0
APPID
  2
ACAECLAYERSTANDARD
 70
     0
  0
APPID
  2
ACCMTRANSPARENCY
 70
     0
  0
APPID
  2
ACAD_DSTYLE_DIMJAG
 70
     0
  0
APPID
  2
ACAD_DSTYLE_DIMTALN
 70
     0
  0
APPID
  2
ACDBATTR
 70
     0
  0
APPID
  2
ACADANNOTATIVE
 70
     0
  0
APPID
  2
DCO15
 70
     0
  0
ENDTAB
  0
TABLE
  2
DIMSTYLE
 70
     1
  0
DIMSTYLE
  2
STANDARD
 70
     0
  3

  4

  5

  6

  7

 40
1.0
 41
0.1875
 42
0.0625
 43
0.38
 44
0.125
 45
0.0
 46
0.0
 47
0.01
 48
0.01
140
0.15625
141
0.09
142
0.0
143
25.3999999999999986
144
1.0
145
0.0
146
1.0
147
0.09
 71
     1
 72
     0
 73
     1
 74
     1
 75
     0
 76
     0
 77
     0
 78
     4
170
     0
171
     2
172
     0
173
     0
174
     0
175
     0
176
     0
177
     0
178
     0
  0
ENDTAB
  0
ENDSEC
  0
SECTION
  2
BLOCKS
  0
BLOCK
  8
0
  2
$MODEL_SPACE
 70
     0
 10
0.0
 20
0.0
 30
0.0
  3
$MODEL_SPACE
  1

  0
ENDBLK
  5
21
  8
0
  0
BLOCK
 67
     1
  8
0
  2
$PAPER_SPACE
 70
     0
 10
0.0
 20
0.0
 30
0.0
  3
$PAPER_SPACE
  1

  0
ENDBLK
  5
1D
 67
     1
  8
0
  0
ENDSEC
  0
SECTION
  2
ENTITIES
  0
ATTDEF
  5
159BF
  8
DEFPOINTS
 10
4469.8115271459409996
 20
459.5303550688254859
 30
0.0
 40
0.001
  1
K-97318IN
  3

  2
MODELNUMBER
 70
     0
1001
ACDBATTR
1070
     0
1070
     1
  0
ATTDEF
  5
159C0
  8
DEFPOINTS
 10
4469.811401336284689
 20
459.528688228446299
 30
0.0
 40
0.001
  1
BRIVE
  3

  2
TRADENAME
 70
     0
1001
ACDBATTR
1070
     0
1070
     1
  0
ATTDEF
  5
159C1
  8
DEFPOINTS
 10
4469.8115271459409996
 20
459.5270217354920987
 30
0.0
 40
0.001
  1
TOILET
  3

  2
PRODUCT
 70
     0
1001
ACDBATTR
1070
     0
1070
     1
  0
LINE
  5
189CF
  8
0
 10
4476.8210182483880999
 20
475.3869143260105261
 30
0.0
 11
4462.8020331474926934
 21
475.3869143260105261
 31
0.0
  0
LINE
  5
189D0
  8
0
 10
4473.7158021081813786
 20
475.3082685416105733
 30
0.0
 11
4465.9072584576797453
 21
475.3082685416105733
 31
0.0
  0
ARC
  5
189D1
  8
0
 10
4473.9416343561269969
 20
475.9048726641134976
 30
0.0
 40
0.6379158903801809
 50
234.2872809977664019
 51
269.1999672330334761
  0
ARC
  5
189D2
  8
0
 10
4474.5333987157664524
 20
475.5393462599702161
 30
0.0
 40
0.2735117754305061
 50
213.8702437902649081
 51
264.665796726212875
  0
ARC
  5
189D3
  8
0
 10
4474.4989625611824522
 20
475.9051933503092755
 30
0.0
 40
0.6382379780477989
 50
270.8087935226698164
 51
305.703618752562079
  0
ARC
  5
189D4
  8
0
 10
4476.6627368156832745
 20
479.0773315715489957
 30
0.0
 40
4.0659262154037119
 50
245.1818981539981905
 51
248.7923353866684977
  0
ARC
  5
189D5
  8
0
 10
4475.3927836510229099
 20
475.8494598072894064
 30
0.0
 40
0.597477520507254
 50
250.3523562402654079
 51
257.1184600765350865
  0
ARC
  5
189D6
  8
0
 10
4476.6079387960789973
 20
475.0696276746517128
 30
0.0
 40
0.1976404650930566
 50
356.2616466033641132
 51
87.1225920859511831
  0
LINE
  5
189D7
  8
0
 10
4477.191437337741263
 20
476.0468988336750158
 30
0.0
 11
4477.191437337741263
 21
475.8871502980733226
 31
0.0
  0
LINE
  5
189D8
  8
0
 10
4462.4316140581404397
 20
475.8871502980733226
 30
0.0
 11
4462.4316140581404397
 21
476.0468988336750158
 31
0.0
  0
ARC
  5
189D9
  8
0
 10
4455.229753610611624
 20
475.9163249270524716
 30
0.0
 40
21.5925216088065817
 50
352.7055274209549225
 51
357.7184914480395719
  0
ARC
  5
189DA
  8
0
 10
4470.3182286351120638
 20
474.080318521724223
 30
0.0
 40
6.3937466263746572
 50
323.7404520027661761
 51
351.8575829626292943
  0
ARC
  5
189DB
  8
0
 10
4452.1316478755134085
 20
474.6929594937157049
 30
0.0
 40
23.5629666102303403
 50
337.4525070743750916
 51
348.540365554955315
  0
ARC
  5
189DC
  8
0
 10
4471.3500542185292943
 20
473.6207616319882163
 30
0.0
 40
5.2953641078224072
 50
292.0887356022793142
 51
321.145957930736472
  0
ARC
  5
189DD
  8
0
 10
4474.6592052953019447
 20
466.4408415070444107
 30
0.0
 40
2.6276078963393328
 50
120.1024616224033963
 51
173.0469146493352071
  0
ARC
  5
189DE
  8
0
 10
4516.6187537319556213
 20
457.3775820703245927
 30
0.0
 40
45.3965031396274128
 50
170.8567520854757049
 51
172.3686538198591904
  0
ARC
  5
189DF
  8
0
 10
4437.4070501596143004
 20
469.6858135784747219
 30
0.0
 40
34.7672905093259885
 50
351.5739045340819189
 51
355.1708417073249962
  0
ARC
  5
189E0
  8
0
 10
4470.018602990787258
 20
463.5149958279159819
 30
0.0
 40
1.6094059125708009
 50
300.6763408376447728
 51
356.123021554989009
  0
LINE
  5
189E1
  8
0
 10
4471.1722205541118456
 20
462.248703818376498
 30
0.0
 11
4471.175434199340998
 21
462.1793886320105003
 31
0.0
  0
ARC
  5
189E2
  8
0
 10
4471.1658218287502677
 20
462.2469925431839215
 30
0.0
 40
0.0066236054402856
 50
14.9727769712715304
 51
90.0
  0
ARC
  5
189E3
  8
0
 10
4471.1705572511646096
 20
462.1652461960737241
 30
0.0
 40
0.0884967385794776
 50
93.0673374756704845
 51
113.9737607280525964
  0
ARC
  5
189E4
  8
0
 10
4471.5950863273856157
 20
461.0172626138179908
 30
0.0
 40
1.3122920122609349
 50
110.5425430759435983
 51
118.043252983871497
  0
ARC
  5
189E5
  8
0
 10
4470.7061128057112001
 20
462.5508429737569145
 30
0.0
 40
0.5985322869490414
 50
300.3219160855246059
 51
321.6394017281368178
  0
ARC
  5
189E6
  8
0
 10
4470.8306724977182967
 20
462.2806788959533719
 30
0.0
 40
0.2915436109054818
 50
305.192854101571811
 51
344.5128576270107033
  0
LINE
  5
189E7
  8
0
 10
4471.1095470820737319
 20
462.2364270681493963
 30
0.0
 11
4471.1116302765403816
 21
462.202830302010625
 31
0.0
  0
ARC
  5
189E8
  8
0
 10
4461.7176460499586028
 20
470.1836409250255997
 30
0.0
 40
12.9898121086387395
 50
328.2724897466655989
 51
339.6094368349033061
  0
ARC
  5
189E9
  8
0
 10
4468.7824978148746595
 20
465.5021879212545173
 30
0.0
 40
4.5267145765872083
 50
314.5096205613162965
 51
331.6486857321597768
  0
ARC
  5
189EA
  8
0
 10
4469.9548104816358318
 20
464.3462623700731911
 30
0.0
 40
2.8806754550427991
 50
287.0619165648876105
 51
313.9989018662569151
  0
ARC
  5
189EB
  8
0
 10
4469.8114672956617142
 20
389.3096372671680001
 30
0.0
 40
79.3418621675583324
 50
88.7232610065748588
 51
91.2766665989081076
  0
ARC
  5
189EC
  8
0
 10
4472.0433343039658212
 20
477.6047469003460719
 30
0.0
 40
8.9849347813384224
 50
267.0397196552356718
 51
278.3062427151032239
  0
ARC
  5
189ED
  8
0
 10
4469.8115256979408514
 20
449.9200601838612101
 30
0.0
 40
29.5631585256798992
 50
81.1447907093298113
 51
98.8552092906702029
  0
ARC
  5
189EE
  8
0
 10
4466.154519942967454
 20
475.4105356472863946
 30
0.0
 40
11.0552477893547394
 50
3.2998889303701269
 51
15.4603069359881804
  0
ARC
  5
189EF
  8
0
 10
4476.7969406224647173
 20
476.4200034659961034
 30
0.0
 40
1.033369683717438
 50
271.3351187123058139
 51
279.9206925904749141
  0
ARC
  5
189F0
  8
0
 10
4476.9509063098757906
 20
475.5657883724650219
 30
0.0
 40
0.1654626374098754
 50
278.3639435281622241
 51
311.2597899270589892
  0
ARC
  5
189F1
  8
0
 10
4476.7842150118631253
 20
475.7026649935054934
 30
0.0
 40
0.3862030977254111
 50
331.8456606698655946
 51
349.0386247141893818
  0
ARC
  5
189F2
  8
0
 10
4475.8401077793960212
 20
475.9037059700834789
 30
0.0
 40
1.351430969577347
 50
348.2816684667830032
 51
359.2980818982840105
  0
ARC
  5
189F3
  8
0
 10
4476.746779838133989
 20
475.7638401304708964
 30
0.0
 40
0.4495401366963899
 50
314.1717621072269822
 51
327.217462765682626
  0
ARC
  5
189F4
  8
0
 10
4476.4112395332758751
 20
478.211945283065802
 30
0.0
 40
0.4242626853658901
 50
20.0703626622126308
 51
63.3127938120851184
  0
ARC
  5
189F5
  8
0
 10
4471.6826607029743172
 20
462.3650743352312134
 30
0.0
 40
16.9785757442471699
 50
74.1950300394272944
 51
80.9189332254082387
  0
ARC
  5
189F6
  8
0
 10
4476.059642724870173
 20
477.595722269358987
 30
0.0
 40
1.1333662133288449
 50
61.4225527495486716
 51
77.3932816051354706
  0
ARC
  5
189F7
  8
0
 10
4475.1190673971468641
 20
477.0294204482217992
 30
0.0
 40
1.7868643086697931
 50
345.8594911163156098
 51
14.1405088836844701
  0
ARC
  5
189F8
  8
0
 10
4476.7035572910408519
 20
476.6263492781184823
 30
0.0
 40
0.1519613156759801
 50
269.4054641206716951
 51
347.279573795101328
  0
ARC
  5
189F9
  8
0
 10
4468.7278423974994439
 20
476.2482841502074962
 30
0.0
 40
8.214695547296321
 50
8.5243953848506795
 51
16.0428844679119393
  0
ARC
  5
189FA
  8
0
 10
4476.5336207940563327
 20
478.4886003994799921
 30
0.0
 40
0.0938758346329511
 50
18.5535227794179711
 51
45.9560482423821313
  0
ARC
  5
189FB
  8
0
 10
4476.0688667341901237
 20
477.8768901436877172
 30
0.0
 40
0.8615195878654871
 50
52.0326495287807589
 51
70.9675638029539186
  0
ARC
  5
189FC
  8
0
 10
4473.9695241426234134
 20
575.0563616767220765
 30
0.0
 40
98.6198268402777529
 50
269.8090394149476197
 51
271.5876954823418146
  0
ARC
  5
189FD
  8
0
 10
4475.3198851274883054
 20
475.9751111377938173
 30
0.0
 40
0.6275061538638691
 50
249.6122090040281876
 51
270.0160370596814232
  0
ARC
  5
189FE
  8
0
 10
4476.0092127024026922
 20
475.9751111835410029
 30
0.0
 40
0.6275061556885982
 50
269.9839702713913994
 51
290.3877794541343746
  0
LINE
  5
189FF
  8
0
 10
4475.3200607661410686
 20
475.3476050085104134
 30
0.0
 11
4476.0090371440410308
 21
475.3476050524104721
 31
0.0
  0
ARC
  5
18A00
  8
0
 10
4465.6814588638153509
 20
475.9047029131548925
 30
0.0
 40
0.637745573210737
 50
270.7964885533472739
 51
305.7175609495803883
  0
ARC
  5
18A01
  8
0
 10
4465.0896526801161599
 20
475.5393462599702161
 30
0.0
 40
0.2735117754304976
 50
275.334203273787125
 51
326.1297562097349783
  0
ARC
  5
18A02
  8
0
 10
4465.1240888346992506
 20
475.9051933503092755
 30
0.0
 40
0.6382379780477895
 50
234.2963812474378926
 51
269.1912064773302973
  0
ARC
  5
18A03
  8
0
 10
4462.9603145801993378
 20
479.0773315715489957
 30
0.0
 40
4.0659262154037119
 50
291.2345690567543102
 51
294.8181018460019231
  0
ARC
  5
18A04
  8
0
 10
4464.2368834077697102
 20
475.8255313920797107
 30
0.0
 40
0.5726775250440017
 50
282.7700192307145244
 51
290.020188698405093
  0
ARC
  5
18A05
  8
0
 10
4463.015112599801796
 20
475.0696276746517128
 30
0.0
 40
0.1976404650930532
 50
92.8774079140488453
 51
183.7383533966358868
  0
ARC
  5
18A06
  8
0
 10
4484.3932977852700787
 20
475.9163249270524716
 30
0.0
 40
21.5925216088065817
 50
182.281508551960286
 51
187.2944725790451059
  0
ARC
  5
18A07
  8
0
 10
4469.3048227607687295
 20
474.080318521724223
 30
0.0
 40
6.3937466263746572
 50
188.1424170373707057
 51
216.2595479972337955
  0
ARC
  5
18A08
  8
0
 10
4487.4914035203682943
 20
474.6929594937157049
 30
0.0
 40
23.5629666102303403
 50
191.4596344450445997
 51
202.5474929256249084
  0
ARC
  5
18A09
  8
0
 10
4468.2729971773524085
 20
473.6207616319882163
 30
0.0
 40
5.2953641078224072
 50
218.8540420692633859
 51
247.9112643977206858
  0
ARC
  5
18A0A
  8
0
 10
4464.9638461005788486
 20
466.4408415070444107
 30
0.0
 40
2.6276078963393328
 50
6.9530853506647912
 51
59.8975383775966108
  0
ARC
  5
18A0B
  8
0
 10
4423.0042976639260814
 20
457.3775820703245927
 30
0.0
 40
45.3965031396274128
 50
7.6313461801407616
 51
9.1432479145243342
  0
ARC
  5
18A0C
  8
0
 10
4502.2160012362674024
 20
469.6858135784747219
 30
0.0
 40
34.7672905093259885
 50
184.8291582926748902
 51
188.4260954659181095
  0
ARC
  5
18A0D
  8
0
 10
4469.6044485987031294
 20
463.5149958898483078
 30
0.0
 40
1.609406109924014
 50
183.8769801787557014
 51
239.32343945556471
  0
LINE
  5
18A0E
  8
0
 10
4468.4508308417698572
 20
462.248703818376498
 30
0.0
 11
4468.4476171965407048
 21
462.1793886320105003
 31
0.0
  0
ARC
  5
18A0F
  8
0
 10
4468.457229567131435
 20
462.2469925431839215
 30
0.0
 40
0.006623605440288
 50
90.0
 51
165.0272230287189927
  0
ARC
  5
18A10
  8
0
 10
4468.4524941447170931
 20
462.1652461960737241
 30
0.0
 40
0.0884967385794776
 50
66.0262392719473041
 51
86.9326625243295155
  0
ARC
  5
18A11
  8
0
 10
4468.0279650684951775
 20
461.0172626138179908
 30
0.0
 40
1.3122920122609349
 50
61.9567470161285314
 51
69.4574569240563449
  0
ARC
  5
18A12
  8
0
 10
4468.9169557647510373
 20
462.5508593803916142
 30
0.0
 40
0.5985559359931285
 50
218.3608094455526896
 51
239.6764113674323937
  0
ARC
  5
18A13
  8
0
 10
4468.7923989308992532
 20
462.2806883727184868
 30
0.0
 40
0.2915654467911193
 50
195.4878858687056038
 51
234.8045303295259032
  0
LINE
  5
18A14
  8
0
 10
4468.5135043138079709
 20
462.2364270681493963
 30
0.0
 11
4468.5114211193404117
 21
462.202830302010625
 31
0.0
  0
ARC
  5
18A15
  8
0
 10
4477.905405345921281
 20
470.1836409250255997
 30
0.0
 40
12.9898121086387395
 50
200.3905631650966939
 51
211.7275102533344011
  0
ARC
  5
18A16
  8
0
 10
4470.8405535810061338
 20
465.5021879212545173
 30
0.0
 40
4.5267145765872083
 50
208.3513142678401096
 51
225.4903794386837035
  0
ARC
  5
18A17
  8
0
 10
4469.668240914245871
 20
464.3462623700731911
 30
0.0
 40
2.8806754550427991
 50
226.0010981337431133
 51
252.9380834351123042
  0
ARC
  5
18A18
  8
0
 10
4467.5797170919149721
 20
477.6047469003460719
 30
0.0
 40
8.9849347813384224
 50
261.6937572848967761
 51
272.9602803447643282
  0
ARC
  5
18A19
  8
0
 10
4473.4685314529151583
 20
475.4105356472863946
 30
0.0
 40
11.0552477893547394
 50
164.5396930640118001
 51
176.7001110696299122
  0
ARC
  5
18A1A
  8
0
 10
4462.826110773416076
 20
476.4200034659961034
 30
0.0
 40
1.033369683717438
 50
260.0793074095251995
 51
268.6648812876942998
  0
ARC
  5
18A1B
  8
0
 10
4462.6721450860050027
 20
475.5657883724650219
 30
0.0
 40
0.1654626374098754
 50
228.7402100729410108
 51
261.6360564718377759
  0
ARC
  5
18A1C
  8
0
 10
4462.838836384017668
 20
475.7026649935054934
 30
0.0
 40
0.3862030977254111
 50
190.9613752858105045
 51
208.1543393301344054
  0
ARC
  5
18A1D
  8
0
 10
4463.7829436164847721
 20
475.9037059700834789
 30
0.0
 40
1.351430969577347
 50
180.7019181017126925
 51
191.7183315332169968
  0
ARC
  5
18A1E
  8
0
 10
4462.8762715577458948
 20
475.7638401304708964
 30
0.0
 40
0.4495401366963899
 50
212.7825372343174024
 51
225.8282378927729894
  0
ARC
  5
18A1F
  8
0
 10
4463.2118118626049181
 20
478.211945283065802
 30
0.0
 40
0.4242626853658901
 50
116.6872061879148958
 51
159.9296373377873977
  0
ARC
  5
18A20
  8
0
 10
4467.9403906929073855
 20
462.3650743352312134
 30
0.0
 40
16.9785757442471699
 50
99.081066774591747
 51
105.8049699605727056
  0
ARC
  5
18A21
  8
0
 10
4463.5634086710124393
 20
477.595722269358987
 30
0.0
 40
1.1333662133288449
 50
102.606718394864501
 51
118.5774472504513
  0
ARC
  5
18A22
  8
0
 10
4462.9194941048399414
 20
476.6263492781184823
 30
0.0
 40
0.1519613156759801
 50
192.7204262048987005
 51
270.5945358793281912
  0
ARC
  5
18A23
  8
0
 10
4470.8952089983831684
 20
476.2482841502073256
 30
0.0
 40
8.2146955472973371
 50
163.9571155320880109
 51
171.4756046151493081
  0
ARC
  5
18A24
  8
0
 10
4463.0894306018253701
 20
478.4886003994799921
 30
0.0
 40
0.0938758346329511
 50
134.0439517576178048
 51
161.4464772205820111
  0
ARC
  5
18A25
  8
0
 10
4463.5541846616906696
 20
477.8768901436877172
 30
0.0
 40
0.8615195878654871
 50
109.0324361970460956
 51
127.9673504712192056
  0
ARC
  5
18A26
  8
0
 10
4465.6535272532582894
 20
575.0563616767220765
 30
0.0
 40
98.6198268402777529
 50
268.4123045176581854
 51
270.1909605850523803
  0
ARC
  5
18A27
  8
0
 10
4464.3031662683915783
 20
475.9751111377938173
 30
0.0
 40
0.6275061538638691
 50
269.9839629403185768
 51
290.387790995971784
  0
ARC
  5
18A28
  8
0
 10
4463.613838693478101
 20
475.9751111835410029
 30
0.0
 40
0.6275061556885982
 50
249.6122205458655969
 51
270.0160297286086006
  0
LINE
  5
18A29
  8
0
 10
4464.3029906297397247
 20
475.3476050085104134
 30
0.0
 11
4463.6140142518406719
 21
475.3476050524104721
 31
0.0
  0
ARC
  5
18A2A
  8
0
 10
4469.8115256979408514
 20
271.9842357204472023
 30
0.0
 40
204.4887043404634142
 50
88.9270012590074685
 51
91.0729987409925172
  0
ARC
  5
18A2B
  8
0
 10
4460.1648322117571297
 20
498.8487171215929834
 30
0.0
 40
22.1215802992440196
 50
273.7873429436016863
 51
276.0792639990114026
  0
ARC
  5
18A2C
  8
0
 10
4461.0512285289960346
 20
475.7387112130134028
 30
0.0
 40
0.9802439457774502
 50
96.3487624788960915
 51
122.295107623411397
  0
ARC
  5
18A2D
  8
0
 10
4462.2118376945982163
 20
466.6072932642338742
 30
0.0
 40
10.1850154722167794
 50
93.2972258522793965
 51
97.1573836404979971
  0
ARC
  5
18A2E
  8
0
 10
4461.0180073204574001
 20
476.3652978760388805
 30
0.0
 40
0.888456324985019
 50
231.5443192626140103
 51
260.5627430902450783
  0
ARC
  5
18A2F
  8
0
 10
4460.8052522157568092
 20
476.1060072552215843
 30
0.0
 40
0.5531201270307737
 50
181.081743955117588
 51
232.0986279465267046
  0
ARC
  5
18A30
  8
0
 10
4460.8222630615491653
 20
476.0791345815625277
 30
0.0
 40
0.5702691371477688
 50
121.1230501586273931
 51
178.3489861059414068
  0
ARC
  5
18A31
  8
0
 10
4461.9308355350958664
 20
481.8763035408467772
 30
0.0
 40
6.4745495415225838
 50
260.5906344699747024
 51
267.6461175731596995
  0
ARC
  5
18A32
  8
0
 10
4462.4410339059513717
 20
488.6419878650560236
 30
0.0
 40
13.2575078479646091
 50
266.6438870322393768
 51
270.4449201499139122
  0
LINE
  5
18A33
  8
0
 10
4462.5439816823718502
 20
475.3848797303920719
 30
0.0
 11
4462.6764556752432327
 21
475.3975279138106771
 31
0.0
  0
ARC
  5
18A34
  8
0
 10
4460.9650691948372696
 20
475.8111725528495981
 30
0.0
 40
0.8326459767064761
 50
56.4048506994610008
 51
123.5951524811989941
  0
ARC
  5
18A35
  8
0
 10
4460.7356101585310171
 20
476.0955653486419124
 30
0.0
 40
0.4606147471041045
 50
142.181178257052494
 51
218.0810715986131072
  0
ARC
  5
18A36
  8
0
 10
4460.8482528653594272
 20
476.0121923535824067
 30
0.0
 40
0.6007273624458076
 50
124.9233266992414997
 51
142.4871449008763875
  0
ARC
  5
18A37
  8
0
 10
4461.186311748893786
 20
476.0955855039437097
 30
0.0
 40
0.4671702392115808
 50
324.8618488276795802
 51
34.8502003934617619
  0
ARC
  5
18A38
  8
0
 10
4461.0853437924042737
 20
476.0162933467819926
 30
0.0
 40
0.5953852911017924
 50
35.5599007093968424
 51
55.1236167796111403
  0
ARC
  5
18A39
  8
0
 10
4460.9652936176062212
 20
476.3807190189884864
 30
0.0
 40
0.8333866470136161
 50
236.4201522935393882
 51
302.9807885512092867
  0
ARC
  5
18A3A
  8
0
 10
4460.8474374020042887
 20
476.1781045556879803
 30
0.0
 40
0.599559863284026
 50
217.6985746520331872
 51
235.0938202656433873
  0
ARC
  5
18A3B
  8
0
 10
4461.0883603516913354
 20
476.1715219903510956
 30
0.0
 40
0.591004567758739
 50
304.0126564702035239
 51
324.3070729705710846
  0
ARC
  5
18A3C
  8
0
 10
4469.8115256979408514
 20
465.022157653701413
 30
0.0
 40
3.569390842290928
 50
253.922639141505698
 51
286.0773608584943872
  0
ARC
  5
18A3D
  8
0
 10
4469.8115260161875995
 20
464.1093264828858196
 30
0.0
 40
2.2297292218753131
 50
242.540325848845697
 51
297.4595047011214888
  0
ARC
  5
18A3E
  8
0
 10
4469.8115256979408514
 20
464.2954304585845762
 30
0.0
 40
2.4197399239320099
 50
241.1761183256753895
 51
298.8238816743245252
  0
ARC
  5
18A3F
  8
0
 10
4469.8115233135258677
 20
464.3256949121627031
 30
0.0
 40
2.5734620814531621
 50
242.5280899290644072
 51
297.4719436930747065
  0
ARC
  5
18A40
  8
0
 10
4469.8115253435562408
 20
464.3058485509749858
 30
0.0
 40
2.5676209101697052
 50
242.2185087595806863
 51
297.7812607533156779
  0
ARC
  5
18A41
  8
0
 10
4464.5039839987339292
 20
477.0294204482217992
 30
0.0
 40
1.7868643086697931
 50
165.8594911163154961
 51
194.1405088836843902
  0
ARC
  5
18A43
  8
0
 10
4461.1746627898119186
 20
476.0955757455064941
 30
0.0
 40
0.5027834187291348
 50
325.8519772142615238
 51
34.1480227857385401
  0
ARC
  5
18A44
  8
0
 10
4461.0226767708536499
 20
475.9849346620212032
 30
0.0
 40
0.6907003079343347
 50
34.6665474003949328
 51
73.7574550629594512
  0
ARC
  5
18A45
  8
0
 10
4460.9650906140523148
 20
475.8349803955608195
 30
0.0
 40
0.8508810760199123
 50
72.8588156842893255
 51
126.240444815375497
  0
ARC
  5
18A46
  8
0
 10
4461.0281311063381509
 20
476.1999441446686205
 30
0.0
 40
0.6826494455050871
 50
288.0179420936132146
 51
325.506075683810991
  0
ARC
  5
18A47
  8
0
 10
4460.9650046664055481
 20
476.3550560447255862
 30
0.0
 40
0.8497660274746731
 50
236.4081304713359941
 51
288.8305995866558078
  0
ARC
  5
18A48
  8
0
 10
4460.9430704154119667
 20
477.8192814839512153
 30
0.0
 40
2.218536727118527
 50
269.0267793790671931
 51
272.0309697686167283
  0
ARC
  5
18A49
  8
0
 10
4460.9579318458136186
 20
476.4914931630011097
 30
0.0
 40
0.9088736714954851
 50
268.5896549060997813
 51
272.3119987052701845
  0
LINE
  5
18A4A
  8
0
 10
4460.9355416479420455
 20
475.6007575315824738
 30
0.0
 11
4460.9355620291544255
 21
475.5828948237772806
 31
0.0
  0
LINE
  5
18A4B
  8
0
 10
4460.9945967548410408
 20
475.6013431967307952
 30
0.0
 11
4460.9945967548210319
 21
475.5833593429143775
 31
0.0
  0
ARC
  5
18A4C
  8
0
 10
4460.9372852705018886
 20
475.8673719849741133
 30
0.0
 40
0.2830565963513151
 50
251.3909865594870041
 51
269.6508532891214145
  0
ARC
  5
18A4D
  8
0
 10
4460.9875786403399616
 20
475.8727213817787174
 30
0.0
 40
0.2880136683037195
 50
271.3962814578433722
 51
289.3751543454446846
  0
ARC
  5
18A4E
  8
0
 10
4461.0468433744181311
 20
475.2960402590414901
 30
0.0
 40
0.3071295036639076
 50
83.2152084871550244
 51
94.6968139648297722
  0
ARC
  5
18A4F
  8
0
 10
4460.8862933642540156
 20
475.2969860334346208
 30
0.0
 40
0.304677720653997
 50
86.40675718124713
 51
97.417576179589787
  0
LINE
  5
18A50
  8
0
 10
4476.6178601764349878
 20
475.2670189603105086
 30
0.0
 11
4463.005191219446715
 21
475.2670189603105086
 31
0.0
  0
ENDSEC
  0
EOF
