  0
SECTION
  2
HEADER
  9
$ACADVER
  1
AC1009
  9
$INSBASE
 10
4315.1513059168546533
 20
452.0155565368527277
 30
0.0
  9
$EXTMIN
 10
4298.6894551463374228
 20
444.1493648981324895
 30
-0.0000000000112498
  9
$EXTMAX
 10
4331.4115279048473894
 20
453.601931205462904
 30
0.0000000000002956
  9
$LIMMIN
 10
0.0
 20
0.0
  9
$LIMMAX
 10
11.6929133858000007
 20
8.2677165353999982
  9
$ORTHOMODE
 70
     0
  9
$REGENMODE
 70
     1
  9
$FILLMODE
 70
     1
  9
$QTEXTMODE
 70
     0
  9
$MIRRTEXT
 70
     0
  9
$DRAGMODE
 70
     2
  9
$LTSCALE
 40
0.6431102362
  9
$OSMODE
 70
     3
  9
$ATTMODE
 70
     1
  9
$TEXTSIZE
 40
0.2
  9
$TRACEWID
 40
0.05
  9
$TEXTSTYLE
  7
STANDARD
  9
$CLAYER
  8
0
  9
$CELTYPE
  6
BYLAYER
  9
$CECOLOR
 62
   256
  9
$DIMSCALE
 40
1.0
  9
$DIMASZ
 40
0.1875
  9
$DIMEXO
 40
0.0625
  9
$DIMDLI
 40
0.4443307087
  9
$DIMRND
 40
0.0
  9
$DIMDLE
 40
0.0
  9
$DIMEXE
 40
0.125
  9
$DIMTP
 40
0.01
  9
$DIMTM
 40
0.01
  9
$DIMTXT
 40
2.0
  9
$DIMCEN
 40
0.1052362205
  9
$DIMTSZ
 40
0.0
  9
$DIMTOL
 70
     1
  9
$DIMLIM
 70
     0
  9
$DIMTIH
 70
     1
  9
$DIMTOH
 70
     1
  9
$DIMSE1
 70
     0
  9
$DIMSE2
 70
     0
  9
$DIMTAD
 70
     0
  9
$DIMZIN
 70
     0
  9
$DIMBLK
  1

  9
$DIMASO
 70
     1
  9
$DIMSHO
 70
     1
  9
$DIMPOST
  1
\X
  9
$DIMAPOST
  1

  9
$DIMALT
 70
     1
  9
$DIMALTD
 70
     2
  9
$DIMALTF
 40
25.3999999999999986
  9
$DIMLFAC
 40
1.0
  9
$DIMTOFL
 70
     0
  9
$DIMTVP
 40
0.0
  9
$DIMTIX
 70
     0
  9
$DIMSOXD
 70
     0
  9
$DIMSAH
 70
     0
  9
$DIMBLK1
  1

  9
$DIMBLK2
  1

  9
$DIMSTYLE
  2
STANDARD
  9
$DIMCLRD
 70
     0
  9
$DIMCLRE
 70
     0
  9
$DIMCLRT
 70
     0
  9
$DIMTFAC
 40
1.0
  9
$DIMGAP
 40
0.09
  9
$LUNITS
 70
     2
  9
$LUPREC
 70
     4
  9
$SKETCHINC
 40
0.1
  9
$FILLETRAD
 40
0.0
  9
$AUNITS
 70
     0
  9
$AUPREC
 70
     0
  9
$MENU
  1
.
  9
$ELEVATION
 40
0.0
  9
$PELEVATION
 40
0.0
  9
$THICKNESS
 40
0.0
  9
$LIMCHECK
 70
     0
  9
$BLIPMODE
 70
     0
  9
$CHAMFERA
 40
0.0
  9
$CHAMFERB
 40
0.0
  9
$SKPOLY
 70
     0
  9
$TDCREATE
 40
2458060.468368056230247
  9
$TDUPDATE
 40
2459166.4227777780033648
  9
$TDINDWG
 40
1.1383635417
  9
$TDUSRTIMER
 40
1.1383635417
  9
$USRTIMER
 70
     1
  9
$ANGBASE
 50
0.0
  9
$ANGDIR
 70
     0
  9
$PDMODE
 70
     0
  9
$PDSIZE
 40
0.3125
  9
$PLINEWID
 40
0.0
  9
$COORDS
 70
     1
  9
$SPLFRAME
 70
     0
  9
$SPLINETYPE
 70
     6
  9
$SPLINESEGS
 70
     8
  9
$ATTDIA
 70
     1
  9
$ATTREQ
 70
     1
  9
$HANDLING
 70
     1
  9
$HANDSEED
  5
171A0
  9
$SURFTAB1
 70
     6
  9
$SURFTAB2
 70
     6
  9
$SURFTYPE
 70
     6
  9
$SURFU
 70
     6
  9
$SURFV
 70
     6
  9
$UCSNAME
  2

  9
$UCSORG
 10
0.0
 20
0.0
 30
0.0
  9
$UCSXDIR
 10
1.0
 20
0.0
 30
0.0
  9
$UCSYDIR
 10
0.0
 20
1.0
 30
0.0
  9
$PUCSNAME
  2

  9
$PUCSORG
 10
0.0
 20
0.0
 30
0.0
  9
$PUCSXDIR
 10
1.0
 20
0.0
 30
0.0
  9
$PUCSYDIR
 10
0.0
 20
1.0
 30
0.0
  9
$USERI1
 70
     0
  9
$USERI2
 70
     0
  9
$USERI3
 70
     0
  9
$USERI4
 70
     0
  9
$USERI5
 70
     0
  9
$USERR1
 40
0.0
  9
$USERR2
 40
0.0
  9
$USERR3
 40
0.0
  9
$USERR4
 40
0.0
  9
$USERR5
 40
0.0
  9
$WORLDVIEW
 70
     1
  9
$SHADEDGE
 70
     3
  9
$SHADEDIF
 70
    70
  9
$TILEMODE
 70
     1
  9
$MAXACTVP
 70
    64
  9
$PLIMCHECK
 70
     0
  9
$PEXTMIN
 10
1.0000000000000000E+20
 20
1.0000000000000000E+20
 30
1.0000000000000000E+20
  9
$PEXTMAX
 10
-1.0000000000000000E+20
 20
-1.0000000000000000E+20
 30
-1.0000000000000000E+20
  9
$PLIMMIN
 10
0.0
 20
0.0
  9
$PLIMMAX
 10
12.0
 20
9.0
  9
$UNITMODE
 70
     0
  9
$VISRETAIN
 70
     1
  9
$PLINEGEN
 70
     0
  9
$PSLTSCALE
 70
     1
  0
ENDSEC
  0
SECTION
  2
TABLES
  0
TABLE
  2
VPORT
 70
     1
  0
VPORT
  2
*ACTIVE
 70
     0
 10
0.0
 20
0.0
 11
1.0
 21
1.0
 12
403.6851350802797924
 22
316.2960429492587195
 13
0.0
 23
0.0
 14
1.0
 24
1.0
 15
0.0
 25
0.0
 16
0.0
 26
0.0
 36
60.4960186965801583
 17
3911.3653564453120453
 27
132.5796051025390057
 37
0.0
 40
17.0364683611154994
 41
1.9267068273092369
 42
50.0
 43
0.0
 44
0.0
 50
0.0
 51
0.0
 71
     0
 72
   100
 73
     1
 74
     1
 75
     0
 76
     0
 77
     0
 78
     0
  0
ENDTAB
  0
TABLE
  2
LTYPE
 70
     2
  0
LTYPE
  2
CONTINUOUS
 70
     0
  3
Solid line
 72
    65
 73
     0
 40
0.0
  0
LTYPE
  2
PHANTOM2
 70
     0
  3
___ _ _ ___ _ _ ___ _ _ ___ _ _
 72
    65
 73
     6
 40
1.25
 49
0.625
 49
-0.125
 49
0.125
 49
-0.125
 49
0.125
 49
-0.125
  0
ENDTAB
  0
TABLE
  2
LAYER
 70
     2
  0
LAYER
  2
0
 70
     0
 62
   255
  6
CONTINUOUS
  0
LAYER
  2
DEFPOINTS
 70
     0
 62
     7
  6
CONTINUOUS
  0
ENDTAB
  0
TABLE
  2
STYLE
 70
     1
  0
STYLE
  2
STANDARD
 70
     0
 40
0.0
 41
0.8
 50
0.0
 71
     0
 42
0.2
  3
txt
  4

  0
ENDTAB
  0
TABLE
  2
VIEW
 70
     0
  0
ENDTAB
  0
TABLE
  2
UCS
 70
     0
  0
ENDTAB
  0
TABLE
  2
APPID
 70
    11
  0
APPID
  2
ACAD
 70
     0
  0
APPID
  2
ACAD_MLEADERVER
 70
     0
  0
APPID
  2
ACAD_EXEMPT_FROM_CAD_STANDARDS
 70
     0
  0
APPID
  2
ACAD_NAV_VCDISPLAY
 70
     0
  0
APPID
  2
ACAECLAYERSTANDARD
 70
     0
  0
APPID
  2
ACCMTRANSPARENCY
 70
     0
  0
APPID
  2
ACAD_DSTYLE_DIMJAG
 70
     0
  0
APPID
  2
ACAD_DSTYLE_DIMTALN
 70
     0
  0
APPID
  2
ACDBATTR
 70
     0
  0
APPID
  2
ACADANNOTATIVE
 70
     0
  0
APPID
  2
DCO15
 70
     0
  0
ENDTAB
  0
TABLE
  2
DIMSTYLE
 70
     1
  0
DIMSTYLE
  2
STANDARD
 70
     0
  3

  4

  5

  6

  7

 40
1.0
 41
0.1875
 42
0.0625
 43
0.38
 44
0.125
 45
0.0
 46
0.0
 47
0.01
 48
0.01
140
0.15625
141
0.09
142
0.0
143
25.3999999999999986
144
1.0
145
0.0
146
1.0
147
0.09
 71
     1
 72
     0
 73
     1
 74
     1
 75
     0
 76
     0
 77
     0
 78
     4
170
     0
171
     2
172
     0
173
     0
174
     0
175
     0
176
     0
177
     0
178
     0
  0
ENDTAB
  0
ENDSEC
  0
SECTION
  2
BLOCKS
  0
BLOCK
  8
0
  2
$MODEL_SPACE
 70
     0
 10
0.0
 20
0.0
 30
0.0
  3
$MODEL_SPACE
  1

  0
ENDBLK
  5
21
  8
0
  0
BLOCK
 67
     1
  8
0
  2
$PAPER_SPACE
 70
     0
 10
0.0
 20
0.0
 30
0.0
  3
$PAPER_SPACE
  1

  0
ENDBLK
  5
1D
 67
     1
  8
0
  0
ENDSEC
  0
SECTION
  2
ENTITIES
  0
ATTDEF
  5
159BF
  8
0
 10
4315.1521000256207117
 20
452.0200365166488723
 30
0.0
 40
0.001
  1
K-97329T-2KD
  3

  2
MODELNUMBER
 70
     0
1001
ACDBATTR
1070
     0
1070
     1
  0
ATTDEF
  5
159C0
  8
0
 10
4315.1519742159653106
 20
452.0183696762697991
 30
0.0
 40
0.001
  1
ALEO
  3

  2
TRADENAME
 70
     0
1001
ACDBATTR
1070
     0
1070
     1
  0
ATTDEF
  5
159C1
  8
0
 10
4315.1521000256207117
 20
452.0167031833155988
 30
0.0
 40
0.001
  1
KITCHEN SINK
  3

  2
PRODUCT
 70
     0
1001
ACDBATTR
1070
     0
1070
     1
  0
LINE
  5
17096
  8
0
 10
4299.0095736333541936
 20
452.0155565368527277
 30
0.0
 11
4299.0095736333541936
 21
452.2124069307940886
 31
0.0
  0
LINE
  5
17097
  8
0
 10
4331.2930382003542036
 20
452.0155565368527277
 30
0.0
 11
4331.2930382003542036
 21
452.2124069306233878
 31
0.0
  0
LINE
  5
17098
  8
0
 10
4299.0095736333541936
 20
452.0155565368527277
 30
0.0
 11
4331.2930382003542036
 21
452.0155565368527277
 31
0.0
  0
LINE
  5
17099
  8
0
 10
4306.3809052942542621
 20
444.1809108675527114
 30
0.0
 11
4310.2209191377542084
 21
444.1809108675527114
 31
0.0
  0
LINE
  5
1709A
  8
0
 10
4325.2799742558536309
 20
444.9683124423527261
 30
0.0
 11
4321.4399604123536847
 21
444.9683124423527261
 31
0.0
  0
ARC
  5
1709B
  8
0
 10
4300.5342401531797805
 20
450.9357589975763858
 30
0.0
 40
0.118109559200975
 50
2.999674461377527
 51
88.0001124170400288
  0
LINE
  5
1709C
  8
0
 10
4300.6521878824542
 20
450.9419397041526736
 30
0.0
 11
4300.8733043251531853
 21
446.7228814729526789
 31
0.0
  0
ARC
  5
1709D
  8
0
 10
4302.3520164196352198
 20
445.9409103204959024
 30
0.0
 40
1.363872937006112
 50
196.6264372009609076
 51
255.2915395819636899
  0
ARC
  5
1709E
  8
0
 10
4303.1097639827203238
 20
448.8877547841747173
 30
0.0
 40
4.4065693245580171
 50
255.4903420771393883
 51
269.2002815442859855
  0
ARC
  5
1709F
  8
0
 10
4305.7603458127332487
 20
446.8406765280111017
 30
0.0
 40
4.8884609210171677
 50
181.3807644011289995
 51
195.3009574119942897
  0
LINE
  5
170A0
  8
0
 10
4305.9546052682544541
 20
444.3799317677526801
 30
0.0
 11
4303.0482603183536412
 21
444.4816146920526876
 31
0.0
  0
LINE
  5
170A1
  8
0
 10
4305.9917393797541081
 20
444.3487788865526795
 30
0.0
 11
4306.0119192012543863
 21
444.2539337251528195
 31
0.0
  0
LINE
  5
170A2
  8
0
 10
4306.0860740289554087
 20
444.1916320044526856
 30
0.0
 11
4306.3809052942542621
 21
444.1809108675527114
 31
0.0
  0
ARC
  5
170A3
  8
0
 10
4305.9532312721576091
 20
444.3405856720145266
 30
0.0
 40
0.0393700789320177
 50
12.0114786084775993
 51
87.9999997722923837
  0
ARC
  5
170A4
  8
0
 10
4306.0889354160117364
 20
444.2703201537665905
 30
0.0
 40
0.0787401573426438
 50
192.0114783451151084
 51
267.9174348583869119
  0
LINE
  5
170A5
  8
0
 10
4299.9688445824540395
 20
452.0155565368527277
 30
0.0
 11
4299.9965836585543002
 21
451.4862634353526119
 31
0.0
  0
ARC
  5
170A6
  8
0
 10
4300.3268407635259791
 20
451.3866998720941979
 30
0.0
 40
0.3166842814322841
 50
191.5728909316939905
 51
256.8765721504598787
  0
ARC
  5
170A7
  8
0
 10
4300.8999301448284314
 20
451.5143243380956051
 30
0.0
 40
0.9037822129947256
 50
181.7792225825639036
 51
192.2106572429943014
  0
ARC
  5
170A8
  8
0
 10
4300.5466071334358276
 20
452.8015235319275007
 30
0.0
 40
1.7477463654008989
 50
260.3933529548647243
 51
269.7296978241332113
  0
LINE
  5
170A9
  8
0
 10
4299.5213846569540692
 20
452.0155565368527277
 30
0.0
 11
4299.5213846569540692
 21
451.503745513152694
 31
0.0
  0
LINE
  5
170AA
  8
0
 10
4299.5213846569540692
 20
451.503745513152694
 30
0.0
 11
4299.5528807199543735
 21
451.503745513152694
 31
0.0
  0
LINE
  5
170AB
  8
0
 10
4299.5528807199543735
 20
451.503745513152694
 30
0.0
 11
4299.5528807199543735
 21
452.0155565368527277
 31
0.0
  0
LINE
  5
170AC
  8
0
 10
4299.0883137905120748
 20
452.2911470879527087
 30
0.0
 11
4331.2142980430253374
 21
452.2911470879527087
 31
0.0
  0
ARC
  5
170AD
  8
0
 10
4299.0883137905120748
 20
452.2124069307940886
 30
0.0
 40
0.078740157158574
 50
89.9999997515385246
 51
180.000000175673307
  0
ARC
  5
170AE
  8
0
 10
4302.8087862318543557
 20
451.8383911824527104
 30
0.0
 40
0.1771653543000013
 50
90.0
 51
270.0
  0
ARC
  5
170AF
  8
0
 10
4303.0843767829537683
 20
451.8383911824527104
 30
0.0
 40
0.1771653543000013
 50
270.0
 51
90.0
  0
LINE
  5
170B0
  8
0
 10
4302.8087862318543557
 20
451.6612258281526806
 30
0.0
 11
4303.0843767829537683
 21
451.6612258281526806
 31
0.0
  0
LINE
  5
170B1
  8
0
 10
4302.1591799325542524
 20
452.0155565368527277
 30
0.0
 11
4302.1591799325542524
 21
451.6612258288527073
 31
0.0
  0
LINE
  5
170B2
  8
0
 10
4302.3166602475539548
 20
451.503745513152694
 30
0.0
 11
4303.5765027672541692
 21
451.503745513152694
 31
0.0
  0
LINE
  5
170B3
  8
0
 10
4303.7339830821547366
 20
451.6612258281526806
 30
0.0
 11
4303.7339830821547366
 21
452.0155565368527277
 31
0.0
  0
ARC
  5
170B4
  8
0
 10
4302.3166602475539548
 20
451.6612258281526806
 30
0.0
 40
0.1574803149999973
 50
179.9999997453211051
 51
270.0
  0
ARC
  5
170B5
  8
0
 10
4303.5765027673251097
 20
451.6612258279819798
 30
0.0
 40
0.1574803148292858
 50
269.9999999742574914
 51
0.000000062108854
  0
ARC
  5
170B6
  8
0
 10
4310.6828019799540925
 20
451.8383911824527104
 30
0.0
 40
0.1771653543000013
 50
90.0
 51
270.0
  0
ARC
  5
170B7
  8
0
 10
4310.9583925310553241
 20
451.8383911824527104
 30
0.0
 40
0.1771653543000013
 50
270.0
 51
90.0
  0
LINE
  5
170B8
  8
0
 10
4310.6828019799540925
 20
451.6612258281526806
 30
0.0
 11
4310.9583925310553241
 21
451.6612258281526806
 31
0.0
  0
LINE
  5
170B9
  8
0
 10
4310.0331956806539893
 20
452.0155565368527277
 30
0.0
 11
4310.0331956806539893
 21
451.6612258288527073
 31
0.0
  0
LINE
  5
170BA
  8
0
 10
4310.1906759956546011
 20
451.503745513152694
 30
0.0
 11
4311.4505185153529965
 21
451.503745513152694
 31
0.0
  0
LINE
  5
170BB
  8
0
 10
4311.6079988302535639
 20
451.6612258281526806
 30
0.0
 11
4311.6079988302535639
 21
452.0155565368527277
 31
0.0
  0
ARC
  5
170BC
  8
0
 10
4310.1906759956546011
 20
451.6612258281526806
 30
0.0
 40
0.1574803149999973
 50
179.9999997453211051
 51
270.0
  0
ARC
  5
170BD
  8
0
 10
4311.4505185154248466
 20
451.6612258279819798
 30
0.0
 40
0.1574803148292858
 50
269.9999999742574914
 51
0.000000062108854
  0
ARC
  5
170BE
  8
0
 10
4319.344219302754027
 20
451.8383911824527104
 30
0.0
 40
0.1771653543000013
 50
90.0
 51
270.0
  0
ARC
  5
170BF
  8
0
 10
4319.6198098538543491
 20
451.8383911824527104
 30
0.0
 40
0.1771653543000013
 50
270.0
 51
90.0
  0
LINE
  5
170C0
  8
0
 10
4319.344219302754027
 20
451.6612258281526806
 30
0.0
 11
4319.6198098538543491
 21
451.6612258281526806
 31
0.0
  0
LINE
  5
170C1
  8
0
 10
4318.6946130034539237
 20
452.0155565368527277
 30
0.0
 11
4318.6946130034539237
 21
451.6612258288527073
 31
0.0
  0
LINE
  5
170C2
  8
0
 10
4318.8520933184536261
 20
451.503745513152694
 30
0.0
 11
4320.1119358381547499
 21
451.503745513152694
 31
0.0
  0
LINE
  5
170C3
  8
0
 10
4320.2694161530544079
 20
451.6612258281526806
 30
0.0
 11
4320.2694161530544079
 21
452.0155565368527277
 31
0.0
  0
ARC
  5
170C4
  8
0
 10
4318.8520933184536261
 20
451.6612258281526806
 30
0.0
 40
0.1574803149999973
 50
179.9999997453211051
 51
270.0
  0
ARC
  5
170C5
  8
0
 10
4320.111935838224781
 20
451.6612258279819798
 30
0.0
 40
0.1574803148292858
 50
269.9999999742574914
 51
0.000000062108854
  0
ARC
  5
170C6
  8
0
 10
4327.2182350507546289
 20
451.8383911824527104
 30
0.0
 40
0.1771653543000013
 50
90.0
 51
270.0
  0
ARC
  5
170C7
  8
0
 10
4327.4938256018540415
 20
451.8383911824527104
 30
0.0
 40
0.1771653543000013
 50
270.0
 51
90.0
  0
LINE
  5
170C8
  8
0
 10
4327.2182350507546289
 20
451.6612258281526806
 30
0.0
 11
4327.4938256018540415
 21
451.6612258281526806
 31
0.0
  0
LINE
  5
170C9
  8
0
 10
4326.5686287514554351
 20
452.0155565368527277
 30
0.0
 11
4326.5686287514554351
 21
451.6612258288527073
 31
0.0
  0
LINE
  5
170CA
  8
0
 10
4326.726109066454228
 20
451.503745513152694
 30
0.0
 11
4327.9859515861544423
 21
451.503745513152694
 31
0.0
  0
LINE
  5
170CB
  8
0
 10
4328.1434319010541003
 20
451.6612258281526806
 30
0.0
 11
4328.1434319010541003
 21
452.0155565368527277
 31
0.0
  0
ARC
  5
170CC
  8
0
 10
4326.726109066454228
 20
451.6612258281526806
 30
0.0
 40
0.1574803149999973
 50
179.9999997453211051
 51
270.0
  0
ARC
  5
170CD
  8
0
 10
4327.9859515862253829
 20
451.6612258279819798
 30
0.0
 40
0.1574803148292858
 50
269.9999999742574914
 51
0.000000062108854
  0
ARC
  5
170CE
  8
0
 10
4316.0709424946753643
 20
450.9300846793948949
 30
0.0
 40
0.1237501402979627
 50
91.4237386036542148
 51
166.7109643550346902
  0
LINE
  5
170CF
  8
0
 10
4315.9505060269530077
 20
450.958530319952672
 30
0.0
 11
4315.7293895842540223
 21
446.7394720887526773
 31
0.0
  0
ARC
  5
170D0
  8
0
 10
4314.2433792947776965
 20
445.9464329110908807
 30
0.0
 40
1.372268976646172
 50
283.5338356280436187
 51
343.9564609126553023
  0
ARC
  5
170D1
  8
0
 10
4313.4743516337794063
 20
448.9764402560492158
 30
0.0
 40
4.4982718064330891
 50
269.8267427938019978
 51
284.0254023995098009
  0
ARC
  5
170D2
  8
0
 10
4311.1859546706964466
 20
446.7893761866607178
 30
0.0
 40
4.543708973155697
 50
344.3960625046918267
 51
359.370700963434615
  0
LINE
  5
170D3
  8
0
 10
4310.6472191637540163
 20
444.3799317677526801
 30
0.0
 11
4313.4607492912537055
 21
444.4781890157527187
 31
0.0
  0
LINE
  5
170D4
  8
0
 10
4310.6100850522543624
 20
444.3487788865526795
 30
0.0
 11
4310.5899052307540842
 21
444.2539337251528195
 31
0.0
  0
LINE
  5
170D5
  8
0
 10
4310.5157504031076314
 20
444.1916320043885094
 30
0.0
 11
4310.2209191377542084
 21
444.1809108675527114
 31
0.0
  0
ARC
  5
170D6
  8
0
 10
4310.6485931600445838
 20
444.3405856717822076
 30
0.0
 40
0.0393700791710158
 50
92.0000004994194569
 51
167.9885211198348998
  0
ARC
  5
170D7
  8
0
 10
4310.5127116395269695
 20
444.270531276607187
 30
0.0
 40
0.0789577687169244
 50
272.2056263771123099
 51
347.8654605184967181
  0
LINE
  5
170D8
  8
0
 10
4321.0507944978544401
 20
445.1361804613526942
 30
0.0
 11
4321.0709743193538088
 21
445.0413352999527206
 31
0.0
  0
LINE
  5
170D9
  8
0
 10
4321.1451291470539218
 20
444.9790335792527003
 30
0.0
 11
4321.4399604123536847
 21
444.9683124423527261
 31
0.0
  0
ARC
  5
170DA
  8
0
 10
4321.0122863902579411
 20
445.1279872468144845
 30
0.0
 40
0.0393700789320177
 50
12.0114786084775993
 51
87.9999997722923837
  0
ARC
  5
170DB
  8
0
 10
4321.1479905341120684
 20
445.0577217285666052
 30
0.0
 40
0.0787401573426438
 50
192.0114783451151084
 51
267.9174348583869119
  0
LINE
  5
170DC
  8
0
 10
4325.6691401703537849
 20
445.1361804613526942
 30
0.0
 11
4325.6489603488544162
 21
445.0413352999527206
 31
0.0
  0
LINE
  5
170DD
  8
0
 10
4325.5748055212079635
 20
444.9790335791885241
 30
0.0
 11
4325.2799742558536309
 21
444.9683124423527261
 31
0.0
  0
ARC
  5
170DE
  8
0
 10
4325.7076482781458253
 20
445.1279872465822223
 30
0.0
 40
0.0393700791710158
 50
92.0000004994194569
 51
167.9885211198348998
  0
ARC
  5
170DF
  8
0
 10
4325.5717667576273016
 20
445.0579328514073154
 30
0.0
 40
0.0789577687169244
 50
272.2056263771123099
 51
347.8654605184967181
  0
ARC
  5
170E0
  8
0
 10
4329.7683716501551316
 20
450.9357590282735941
 30
0.0
 40
0.1181095274380884
 50
91.9998730380625318
 51
177.0003315306593095
  0
LINE
  5
170E1
  8
0
 10
4329.6504239519535986
 20
450.9419397208527016
 30
0.0
 11
4329.4643925366535768
 21
447.3935748531526997
 31
0.0
  0
LINE
  5
170E2
  8
0
 10
4329.8554305697989548
 20
451.0537966157124856
 30
0.0
 11
4300.5383618857567853
 21
451.0537966157124856
 31
0.0
  0
ARC
  5
170E3
  8
0
 10
4329.9715472603984381
 20
451.3863593871611783
 30
0.0
 40
0.3200399432066115
 50
278.0346623399595956
 51
342.902187881830173
  0
ARC
  5
170E4
  8
0
 10
4329.6619394019953688
 20
451.477467466750511
 30
0.0
 40
0.642762674629804
 50
343.2537939494342254
 51
358.0127494541662827
  0
ARC
  5
170E5
  8
0
 10
4329.7481480295818983
 20
452.9890893411147772
 30
0.0
 40
1.93826403682022
 50
273.1729318420096888
 51
277.9515754669089915
  0
LINE
  5
170E6
  8
0
 10
4330.3337672511543133
 20
452.0155565368527277
 30
0.0
 11
4330.3043154986544323
 21
451.4551783138526844
 31
0.0
  0
ARC
  5
170E7
  8
0
 10
4316.9482025970337418
 20
450.9301242585949012
 30
0.0
 40
0.1237501402979627
 50
13.2890356449684397
 51
88.5762613963457852
  0
LINE
  5
170E8
  8
0
 10
4317.0686390647542794
 20
450.9585698991526783
 30
0.0
 11
4317.2555421315546482
 21
447.3935748531526997
 31
0.0
  0
ARC
  5
170E9
  8
0
 10
4318.7270757757032698
 20
446.6848718553004005
 30
0.0
 40
1.363849846801056
 50
194.6612153968872008
 51
252.6174125199368063
  0
ARC
  5
170EA
  8
0
 10
4321.4033679877120449
 20
447.4542389936498239
 30
0.0
 40
4.1482694549597161
 50
180.8379212481706872
 51
195.5858024930246017
  0
ARC
  5
170EB
  8
0
 10
4319.4805504073501652
 20
449.436155987317477
 30
0.0
 40
4.2158427537028969
 50
254.0158047422829952
 51
270.1896193083761091
  0
LINE
  5
170EC
  8
0
 10
4319.4945026344539656
 20
445.220336320952697
 30
0.0
 11
4321.0136603863538767
 21
445.1673333425526948
 31
0.0
  0
ARC
  5
170ED
  8
0
 10
4327.9928588925058648
 20
446.6848718553004005
 30
0.0
 40
1.363849846801056
 50
287.3825874800631937
 51
345.3387846031127992
  0
ARC
  5
170EE
  8
0
 10
4325.3165666804979992
 20
447.4542389936498239
 30
0.0
 40
4.1482694549597161
 50
344.4141975069754267
 51
359.1620787518293128
  0
ARC
  5
170EF
  8
0
 10
4327.2393842608580599
 20
449.436155987317477
 30
0.0
 40
4.2158427537028969
 50
269.8103806916238909
 51
285.9841952577169764
  0
LINE
  5
170F0
  8
0
 10
4327.2254320337542595
 20
445.220336320952697
 30
0.0
 11
4325.7062742818552579
 21
445.1673333425526948
 31
0.0
  0
LINE
  5
170F1
  8
0
 10
4328.3324082188537432
 20
453.1021708046026788
 30
0.0
 11
4328.3324082188537432
 21
452.4334570886086908
 31
0.0
  0
LINE
  5
170F2
  8
0
 10
4328.11193596715475
 20
453.1021708046026788
 30
0.0
 11
4328.11193596715475
 21
452.4330820066710999
 31
0.0
  0
ARC
  5
170F3
  8
0
 10
4328.2221720930037918
 20
453.1021708046026788
 30
0.0
 40
0.1102361258499975
 50
0.0
 51
180.0
  0
ARC
  5
170F4
  8
0
 10
4328.2221720930037918
 20
453.1021708046026788
 30
0.0
 40
0.1139952194499987
 50
345.2450888358081897
 51
194.7549111641982051
  0
ARC
  5
170F5
  8
0
 10
4328.2221705981928608
 20
452.5236266857509122
 30
0.0
 40
0.1636711812199197
 50
244.8316063791455974
 51
295.1683936208543741
  0
ARC
  5
170F6
  8
0
 10
4328.1681257052860019
 20
452.4334570886086908
 30
0.0
 40
0.0561909900058928
 50
180.3824593869958051
 51
217.2236261724279984
  0
ARC
  5
170F7
  8
0
 10
4328.1899901567712732
 20
452.4508047423740891
 30
0.0
 40
0.084097350358743
 50
217.6236842928337865
 51
243.5748865392781113
  0
ARC
  5
170F8
  8
0
 10
4328.2762240200472661
 20
452.4334570886086908
 30
0.0
 40
0.056184198806734
 50
322.7711123552078902
 51
0.0
  0
ARC
  5
170F9
  8
0
 10
4328.2543510396117199
 20
452.4508047423740891
 30
0.0
 40
0.084097350358743
 50
296.4251134607218887
 51
322.3763157071662135
  0
ARC
  5
170FA
  8
0
 10
4328.1815449256218926
 20
452.4297428762757249
 30
0.0
 40
0.0381150506793471
 50
141.3916712044247959
 51
218.608328795572703
  0
ARC
  5
170FB
  8
0
 10
4328.2221720589159304
 20
452.3807093873506915
 30
0.0
 40
0.1036633120019265
 50
60.7896145814138507
 51
119.2103854185860996
  0
ARC
  5
170FC
  8
0
 10
4328.2221720579746034
 20
452.494858172171007
 30
0.0
 40
0.1165866883183702
 50
244.2832704740879137
 51
295.7167305531976922
  0
ARC
  5
170FD
  8
0
 10
4328.262799190523765
 20
452.4297428758579827
 30
0.0
 40
0.0381150515370465
 50
321.3916714304814946
 51
38.6083285695159972
  0
ARC
  5
170FE
  8
0
 10
4328.2400602008392525
 20
452.4145399811637844
 30
0.0
 40
0.0654112435170094
 50
36.5853994610231865
 51
60.0042623740090377
  0
ARC
  5
170FF
  8
0
 10
4328.2452926636251505
 20
452.4437962371994786
 30
0.0
 40
0.0605644022940393
 50
296.971635020760516
 51
321.3370273706264015
  0
ARC
  5
17100
  8
0
 10
4328.204479650428766
 20
452.4143203319209761
 30
0.0
 40
0.0656993547483964
 50
120.0478074827399979
 51
143.3625280359624981
  0
ARC
  5
17101
  8
0
 10
4328.1990160131435914
 20
452.4437527090876188
 30
0.0
 40
0.0605095363811736
 50
218.6517538133367111
 51
243.0395803466986138
  0
LINE
  5
17102
  8
0
 10
4328.7941389034540407
 20
452.2911470879527087
 30
0.0
 11
4328.7871570809538753
 21
453.4250295971526725
 31
0.0
  0
LINE
  5
17103
  8
0
 10
4328.7832200678540175
 20
453.4289423635526077
 30
0.0
 11
4327.6611240493530204
 21
453.4289423635526077
 31
0.0
  0
LINE
  5
17104
  8
0
 10
4327.6584047346541411
 20
453.4683124423527261
 30
0.0
 11
4328.7859393825538064
 21
453.4683124423527261
 31
0.0
  0
LINE
  5
17105
  8
0
 10
4328.793827828853864
 20
453.4762551709526974
 30
0.0
 11
4328.7931239221543365
 21
453.5569148885526829
 31
0.0
  0
LINE
  5
17106
  8
0
 10
4328.6873584011536877
 20
453.5853718390526979
 30
0.0
 11
4328.7833643110543562
 21
453.5684434068526798
 31
0.0
  0
LINE
  5
17107
  8
0
 10
4328.7749780874537464
 20
453.4683124423527261
 30
0.0
 11
4328.7752876069544072
 21
453.4328450149527043
 31
0.0
  0
ARC
  5
17108
  8
0
 10
4328.7832201478004208
 20
453.4250053557685192
 30
0.0
 40
0.003937007784963
 50
0.3527902036396242
 51
90.0011634734706263
  0
ARC
  5
17109
  8
0
 10
4328.779224464960862
 20
453.4328793714694825
 30
0.0
 40
0.0039370079167913
 50
180.5000011271974927
 51
269.9999998994794055
  0
ARC
  5
1710A
  8
0
 10
4328.7859540896561157
 20
453.4761864675513152
 30
0.0
 40
0.0078740389334689
 50
269.8929830886874015
 51
0.4999295691884388
  0
ARC
  5
1710B
  8
0
 10
4328.7813133482195553
 20
453.5568118191972076
 30
0.0
 40
0.0118110236615376
 50
0.5000001857292653
 51
79.999999515248021
  0
LINE
  5
1710C
  8
0
 10
4327.6502052136538623
 20
452.2911470879527087
 30
0.0
 11
4327.6571870361540277
 21
453.4250295971526725
 31
0.0
  0
LINE
  5
1710D
  8
0
 10
4327.650516288254039
 20
453.4762551709526974
 30
0.0
 11
4327.6512201949535665
 21
453.5569148885526829
 31
0.0
  0
LINE
  5
1710E
  8
0
 10
4327.7569857159542153
 20
453.5853718390526979
 30
0.0
 11
4327.6609798060535468
 21
453.5684434068526798
 31
0.0
  0
LINE
  5
1710F
  8
0
 10
4327.6693660296541566
 20
453.4683124423527261
 30
0.0
 11
4327.6690565101544053
 21
453.4328450149527043
 31
0.0
  0
ARC
  5
17110
  8
0
 10
4327.6611239693065727
 20
453.4250053557685192
 30
0.0
 40
0.003937007784963
 50
89.9988365265293737
 51
179.6472097963604142
  0
ARC
  5
17111
  8
0
 10
4327.6651196521470411
 20
453.4328793714694825
 30
0.0
 40
0.0039370079167913
 50
270.0000001005205945
 51
359.4999988728023936
  0
ARC
  5
17112
  8
0
 10
4327.6583900274526968
 20
453.4761864675513152
 30
0.0
 40
0.0078740389334689
 50
179.5000704308114905
 51
270.1070169113124848
  0
ARC
  5
17113
  8
0
 10
4327.6630307688883477
 20
453.5568118191972076
 30
0.0
 40
0.0118110236615376
 50
100.0000004847518937
 51
179.4999998142706943
  0
ARC
  5
17114
  8
0
 10
4328.2221720585539515
 20
443.9874912796886974
 30
0.0
 40
9.6107428238639923
 50
87.3758650180594145
 51
92.6241349819405855
  0
ARC
  5
17115
  8
0
 10
4327.7911684283717477
 20
453.391512042389877
 30
0.0
 40
0.1968503964700352
 50
92.6241350164214765
 51
99.9999999404230238
  0
ARC
  5
17116
  8
0
 10
4328.6531756887361553
 20
453.3915120423902749
 30
0.0
 40
0.1968503964697264
 50
80.0000000595769762
 51
87.3758649835785235
  0
ARC
  5
17117
  8
0
 10
4331.2142980430253374
 20
452.2124069306233878
 30
0.0
 40
0.0787401573292872
 50
359.9999999485444278
 51
90.0000001242307235
  0
LINE
  5
17118
  8
0
 10
4330.7497311136539793
 20
452.0155565368527277
 30
0.0
 11
4330.7497311136539793
 21
451.503745513152694
 31
0.0
  0
LINE
  5
17119
  8
0
 10
4330.7497311136539793
 20
451.503745513152694
 30
0.0
 11
4330.7812271766542835
 21
451.503745513152694
 31
0.0
  0
LINE
  5
1711A
  8
0
 10
4330.7812271766542835
 20
451.503745513152694
 30
0.0
 11
4330.7812271766542835
 21
452.0155565368527277
 31
0.0
  0
LINE
  5
1711C
  8
0
 10
4305.9546052682544541
 20
444.3799317677526801
 30
0.0
 11
4310.6472191637540163
 21
444.3799317677526801
 31
0.0
  0
LINE
  5
1711D
  8
0
 10
4321.0136603863538767
 20
445.1673333425526948
 30
0.0
 11
4325.7062742818552579
 21
445.1673333425526948
 31
0.0
  0
ENDSEC
  0
EOF
