  0
SECTION
  2
HEADER
  9
$ACADVER
  1
AC1009
  9
$INSBASE
 10
512.8013796851970483
 20
67.174917881744264
 30
0.0
  9
$EXTMIN
 10
511.780688822275124
 20
67.1708671870492964
 30
-0.0015258207003583
  9
$EXTMAX
 10
513.842084422126959
 20
72.5962491814666606
 30
0.0000000349246037
  9
$LIMMIN
 10
0.0
 20
0.0
  9
$LIMMAX
 10
11.6929133858000007
 20
8.2677165353999982
  9
$ORTHOMODE
 70
     0
  9
$REGENMODE
 70
     1
  9
$FILLMODE
 70
     1
  9
$QTEXTMODE
 70
     0
  9
$MIRRTEXT
 70
     0
  9
$DRAGMODE
 70
     2
  9
$LTSCALE
 40
0.6431102362
  9
$OSMODE
 70
  4095
  9
$ATTMODE
 70
     1
  9
$TEXTSIZE
 40
0.2
  9
$TRACEWID
 40
0.05
  9
$TEXTSTYLE
  7
STANDARD
  9
$CLAYER
  8
0
  9
$CELTYPE
  6
BYLAYER
  9
$CECOLOR
 62
   256
  9
$DIMSCALE
 40
1.0
  9
$DIMASZ
 40
0.1875
  9
$DIMEXO
 40
0.0625
  9
$DIMDLI
 40
0.4443307087
  9
$DIMRND
 40
0.0
  9
$DIMDLE
 40
0.0
  9
$DIMEXE
 40
0.125
  9
$DIMTP
 40
0.01
  9
$DIMTM
 40
0.01
  9
$DIMTXT
 40
1.0
  9
$DIMCEN
 40
0.1052362205
  9
$DIMTSZ
 40
0.0
  9
$DIMTOL
 70
     1
  9
$DIMLIM
 70
     0
  9
$DIMTIH
 70
     0
  9
$DIMTOH
 70
     1
  9
$DIMSE1
 70
     0
  9
$DIMSE2
 70
     0
  9
$DIMTAD
 70
     0
  9
$DIMZIN
 70
     0
  9
$DIMBLK
  1

  9
$DIMASO
 70
     1
  9
$DIMSHO
 70
     1
  9
$DIMPOST
  1
\X
  9
$DIMAPOST
  1

  9
$DIMALT
 70
     1
  9
$DIMALTD
 70
     2
  9
$DIMALTF
 40
25.3999999999999986
  9
$DIMLFAC
 40
1.0
  9
$DIMTOFL
 70
     0
  9
$DIMTVP
 40
0.0
  9
$DIMTIX
 70
     0
  9
$DIMSOXD
 70
     0
  9
$DIMSAH
 70
     0
  9
$DIMBLK1
  1

  9
$DIMBLK2
  1

  9
$DIMSTYLE
  2
STANDARD
  9
$DIMCLRD
 70
     0
  9
$DIMCLRE
 70
     0
  9
$DIMCLRT
 70
     0
  9
$DIMTFAC
 40
1.0
  9
$DIMGAP
 40
0.09
  9
$LUNITS
 70
     2
  9
$LUPREC
 70
     4
  9
$SKETCHINC
 40
0.1
  9
$FILLETRAD
 40
0.0
  9
$AUNITS
 70
     0
  9
$AUPREC
 70
     0
  9
$MENU
  1
.
  9
$ELEVATION
 40
0.0
  9
$PELEVATION
 40
0.0
  9
$THICKNESS
 40
0.0
  9
$LIMCHECK
 70
     0
  9
$BLIPMODE
 70
     0
  9
$CHAMFERA
 40
0.0
  9
$CHAMFERB
 40
0.0
  9
$SKPOLY
 70
     0
  9
$TDCREATE
 40
2458172.5207638889551163
  9
$TDUPDATE
 40
2460634.6476736110635102
  9
$TDINDWG
 40
0.2750203472
  9
$TDUSRTIMER
 40
0.2750203472
  9
$USRTIMER
 70
     1
  9
$ANGBASE
 50
0.0
  9
$ANGDIR
 70
     0
  9
$PDMODE
 70
     0
  9
$PDSIZE
 40
0.3125
  9
$PLINEWID
 40
0.0
  9
$COORDS
 70
     1
  9
$SPLFRAME
 70
     0
  9
$SPLINETYPE
 70
     6
  9
$SPLINESEGS
 70
     8
  9
$ATTDIA
 70
     1
  9
$ATTREQ
 70
     1
  9
$HANDLING
 70
     1
  9
$HANDSEED
  5
EF57
  9
$SURFTAB1
 70
     6
  9
$SURFTAB2
 70
     6
  9
$SURFTYPE
 70
     6
  9
$SURFU
 70
     6
  9
$SURFV
 70
     6
  9
$UCSNAME
  2

  9
$UCSORG
 10
0.0
 20
0.0
 30
0.0
  9
$UCSXDIR
 10
1.0
 20
0.0
 30
0.0
  9
$UCSYDIR
 10
0.0
 20
1.0
 30
0.0
  9
$PUCSNAME
  2

  9
$PUCSORG
 10
0.0
 20
0.0
 30
0.0
  9
$PUCSXDIR
 10
1.0
 20
0.0
 30
0.0
  9
$PUCSYDIR
 10
0.0
 20
1.0
 30
0.0
  9
$USERI1
 70
     0
  9
$USERI2
 70
     0
  9
$USERI3
 70
     0
  9
$USERI4
 70
     0
  9
$USERI5
 70
     0
  9
$USERR1
 40
0.0
  9
$USERR2
 40
0.0
  9
$USERR3
 40
0.0
  9
$USERR4
 40
0.0
  9
$USERR5
 40
0.0
  9
$WORLDVIEW
 70
     1
  9
$SHADEDGE
 70
     3
  9
$SHADEDIF
 70
    70
  9
$TILEMODE
 70
     1
  9
$MAXACTVP
 70
    64
  9
$PLIMCHECK
 70
     0
  9
$PEXTMIN
 10
1.0000000000000000E+20
 20
1.0000000000000000E+20
 30
1.0000000000000000E+20
  9
$PEXTMAX
 10
-1.0000000000000000E+20
 20
-1.0000000000000000E+20
 30
-1.0000000000000000E+20
  9
$PLIMMIN
 10
0.0
 20
0.0
  9
$PLIMMAX
 10
12.0
 20
9.0
  9
$UNITMODE
 70
     0
  9
$VISRETAIN
 70
     1
  9
$PLINEGEN
 70
     0
  9
$PSLTSCALE
 70
     1
  0
ENDSEC
  0
SECTION
  2
TABLES
  0
TABLE
  2
VPORT
 70
     1
  0
VPORT
  2
*ACTIVE
 70
     0
 10
0.0
 20
0.0
 11
1.0
 21
1.0
 12
83.1820975141473582
 22
0.1810166720392914
 13
0.0
 23
0.0
 14
1.0
 24
1.0
 15
0.0
 25
0.0
 16
0.0
 26
0.0
 36
14.6338572656650907
 17
429.6292891080536833
 27
69.7025415122186871
 37
0.0
 40
5.457390147776759
 41
2.3631889763779519
 42
50.0
 43
0.0
 44
0.0
 50
0.0
 51
0.0
 71
     0
 72
   100
 73
     1
 74
     1
 75
     0
 76
     0
 77
     0
 78
     0
  0
ENDTAB
  0
TABLE
  2
LTYPE
 70
     2
  0
LTYPE
  2
CONTINUOUS
 70
     0
  3
Solid line
 72
    65
 73
     0
 40
0.0
  0
LTYPE
  2
PHANTOM2
 70
     0
  3
___ _ _ ___ _ _ ___ _ _ ___ _ _
 72
    65
 73
     6
 40
1.25
 49
0.625
 49
-0.125
 49
0.125
 49
-0.125
 49
0.125
 49
-0.125
  0
ENDTAB
  0
TABLE
  2
LAYER
 70
     2
  0
LAYER
  2
0
 70
     0
 62
   255
  6
CONTINUOUS
  0
LAYER
  2
DEFPOINTS
 70
     0
 62
     7
  6
CONTINUOUS
  0
ENDTAB
  0
TABLE
  2
STYLE
 70
     1
  0
STYLE
  2
STANDARD
 70
     0
 40
0.0
 41
0.8
 50
0.0
 71
     0
 42
0.2
  3
txt
  4

  0
ENDTAB
  0
TABLE
  2
VIEW
 70
     0
  0
ENDTAB
  0
TABLE
  2
UCS
 70
     0
  0
ENDTAB
  0
TABLE
  2
APPID
 70
    10
  0
APPID
  2
ACAD
 70
     0
  0
APPID
  2
ACAD_MLEADERVER
 70
     0
  0
APPID
  2
ACAD_EXEMPT_FROM_CAD_STANDARDS
 70
     0
  0
APPID
  2
ACAD_DSTYLE_DIMJAG
 70
     0
  0
APPID
  2
ACAD_DSTYLE_DIMTALN
 70
     0
  0
APPID
  2
ACAD_NAV_VCDISPLAY
 70
     0
  0
APPID
  2
ACAECLAYERSTANDARD
 70
     0
  0
APPID
  2
ACCMTRANSPARENCY
 70
     0
  0
APPID
  2
DCO15
 70
     0
  0
APPID
  2
ACDBATTR
 70
     0
  0
ENDTAB
  0
TABLE
  2
DIMSTYLE
 70
     1
  0
DIMSTYLE
  2
STANDARD
 70
     0
  3

  4

  5

  6

  7

 40
1.0
 41
0.1875
 42
0.0625
 43
0.38
 44
0.125
 45
0.0
 46
0.0
 47
0.01
 48
0.01
140
0.15625
141
0.09
142
0.0
143
25.3999999999999986
144
1.0
145
0.0
146
1.0
147
0.09
 71
     1
 72
     0
 73
     1
 74
     1
 75
     0
 76
     0
 77
     0
 78
     4
170
     0
171
     2
172
     0
173
     0
174
     0
175
     0
176
     0
177
     0
178
     0
  0
ENDTAB
  0
ENDSEC
  0
SECTION
  2
BLOCKS
  0
BLOCK
  8
0
  2
$MODEL_SPACE
 70
     0
 10
0.0
 20
0.0
 30
0.0
  3
$MODEL_SPACE
  1

  0
ENDBLK
  5
21
  8
0
  0
BLOCK
 67
     1
  8
0
  2
$PAPER_SPACE
 70
     0
 10
0.0
 20
0.0
 30
0.0
  3
$PAPER_SPACE
  1

  0
ENDBLK
  5
1D
 67
     1
  8
0
  0
BLOCK
  8
0
  2
_FILLED
 70
     0
 10
0.0
 20
0.0
 30
0.0
  3
_FILLED
  1

  0
SOLID
  5
87E2
  8
0
  6
BYBLOCK
 62
     0
 10
0.0
 20
0.0
 30
0.0
 11
-1.0
 21
0.1666666667
 31
0.0
 12
-1.0
 22
-0.1666666667
 32
0.0
 13
-1.0
 23
-0.1666666667
 33
0.0
  0
ENDBLK
  5
87E3
  8
0
  6
BYBLOCK
 62
     0
  0
ENDSEC
  0
SECTION
  2
ENTITIES
  0
ATTDEF
  5
C848
  8
DEFPOINTS
 10
512.7977066293465214
 20
67.1787539537708511
 30
0.0
 40
0.001
  1
K-97345IN-4
  3

  2
MODELNUMBER
 70
     0
1001
ACDBATTR
1070
     0
1070
     1
  0
ATTDEF
  5
C849
  8
DEFPOINTS
 10
512.7977066293465214
 20
67.177087287104186
 30
0.0
 40
0.001
  1
AVID
  3

  2
TRADENAME
 70
     0
1001
ACDBATTR
1070
     0
1070
     1
  0
ATTDEF
  5
C84A
  8
DEFPOINTS
 10
512.7977066293465214
 20
67.1754206204375208
 30
0.0
 40
0.001
  1
BATHROOM SINK FAUCET
  3

  2
PRODUCT
 70
     0
1001
ACDBATTR
1070
     0
1070
     1
  0
ARC
  5
EC9C
  8
0
 10
542.2666244405440921
 20
69.0349627983848109
 30
0.0
 40
30.4732448381703307
 50
177.8409501572031104
 51
179.353855857679207
  0
ARC
  5
EC9D
  8
0
 10
516.6746583400819191
 20
69.9820813539287059
 30
0.0
 40
4.863797351815716
 50
164.6417863317005015
 51
177.6324948226285869
  0
ARC
  5
EC9E
  8
0
 10
512.1424213548591524
 20
71.22925047264998
 30
0.0
 40
0.1631110975987712
 50
139.0424681786500969
 51
165.4339300041353056
  0
LINE
  5
EC9F
  8
0
 10
513.3814399299897104
 20
71.4463924723105634
 30
0.0
 11
512.2213194404530441
 21
71.4463924723105634
 31
0.0
  0
ARC
  5
ECA0
  8
0
 10
512.2212906515909481
 20
71.4109599262269938
 30
0.0
 40
0.035432557779008
 50
89.9534473213036563
 51
122.4490037716172992
  0
LINE
  5
ECA1
  8
0
 10
512.2022793575970354
 20
71.4408603752442843
 30
0.0
 11
512.0706069493470523
 21
71.3691434605942732
 31
0.0
  0
ARC
  5
ECA2
  8
0
 10
512.1572840247420118
 20
71.2138043165192585
 30
0.0
 40
0.177885258189055
 50
119.1609077107523973
 51
124.6921006567605019
  0
ARC
  5
ECA3
  8
0
 10
511.9659742347635074
 20
71.5194756148666357
 30
0.0
 40
0.1830928620337631
 50
292.9917757425678815
 51
299.4655901135026852
  0
ARC
  5
ECA4
  8
0
 10
512.0682739278951203
 20
71.294197371768476
 30
0.0
 40
0.0645441538653055
 50
118.4858562384013965
 51
139.4366256489375075
  0
ARC
  5
ECA5
  8
0
 10
512.8019052769625432
 20
59.505759370309022
 30
0.0
 40
11.3332955824050607
 50
90.002657143254865
 51
91.0976880582305739
  0
ARC
  5
ECA6
  8
0
 10
512.7364963812851784
 20
62.9194752374864095
 30
0.0
 40
7.9189531353953351
 50
91.0976880582305739
 51
92.7364702903537648
  0
ARC
  5
ECA7
  8
0
 10
512.3868740843325895
 20
70.2342443771689346
 30
0.0
 40
0.5958333550436447
 50
92.7364702903537648
 51
99.8752791709899412
  0
ARC
  5
ECA8
  8
0
 10
512.2926762018691988
 20
70.7753522517856908
 30
0.0
 40
0.0465875329995855
 50
99.8752791709866727
 51
114.8850804602891031
  0
ARC
  5
ECA9
  8
0
 10
512.2772354297779884
 20
70.8086392415463308
 30
0.0
 40
0.009893648902999
 50
114.8850804602891031
 51
136.396550119734087
  0
ARC
  5
ECAA
  8
0
 10
512.2717963884623487
 20
70.813809021133082
 30
0.0
 40
0.0023896794353093
 50
136.2164368329243871
 51
179.1776145956987136
  0
ARC
  5
ECAB
  8
0
 10
513.0986186863028706
 20
70.8670301007067991
 30
0.0
 40
0.8309157169595554
 50
183.6700026702748971
 51
183.6840805788953901
  0
ARC
  5
ECAC
  8
0
 10
512.2786051764111335
 20
70.8142216330222283
 30
0.0
 40
0.0092035515458894
 50
183.6259367003783893
 51
199.5057906229407081
  0
ARC
  5
ECAD
  8
0
 10
512.2783162945141839
 20
70.8137799100720002
 30
0.0
 40
0.0087895808471719
 50
197.4199431067563069
 51
225.8055718640206919
  0
ARC
  5
ECAE
  8
0
 10
512.2865742009840915
 20
70.8208454968184782
 30
0.0
 40
0.0196372443402238
 50
222.9001766177511001
 51
251.4435616418342079
  0
ARC
  5
ECAF
  8
0
 10
512.3500606273528319
 20
71.0260811775490595
 30
0.0
 40
0.2344627739747923
 50
252.6968215143702992
 51
264.101217430060899
  0
ARC
  5
ECB0
  8
0
 10
512.492431435700837
 20
72.1423196247860119
 30
0.0
 40
1.359688498745049
 50
262.9676253250460718
 51
265.9998996918653802
  0
ARC
  5
ECB1
  8
0
 10
512.5921570413894415
 20
73.4370334794472654
 30
0.0
 40
2.6582208202651771
 50
265.8023394132479211
 51
266.7087640856661892
  0
ARC
  5
ECB2
  8
0
 10
512.7967592445484115
 20
65.5538962633770836
 30
0.0
 40
5.2749024656568224
 50
89.9498129521395242
 51
92.2017042151397845
  0
ARC
  5
ECB3
  8
0
 10
512.6699878716284502
 20
68.8512915589613499
 30
0.0
 40
1.975071149311513
 50
92.2017042151397845
 51
95.6548920690975137
  0
ARC
  5
ECB4
  8
0
 10
512.4980231063752854
 20
70.5879900052290878
 30
0.0
 40
0.2298796487141276
 50
95.6548920690975137
 51
104.5049546607102968
  0
ARC
  5
ECB5
  8
0
 10
512.4441552565983784
 20
70.7962072445762658
 30
0.0
 40
0.0148071865044103
 50
104.5049546607069999
 51
125.4587917163180038
  0
ARC
  5
ECB6
  8
0
 10
512.4374078920818647
 20
70.8056811061812965
 30
0.0
 40
0.0031761512267553
 50
125.4587917163220965
 51
152.6656785116418007
  0
ARC
  5
ECB7
  8
0
 10
512.4357182281779615
 20
70.8065544889322354
 30
0.0
 40
0.0012741098134895
 50
152.6656785116335016
 51
193.3327946476227055
  0
ARC
  5
ECB8
  8
0
 10
512.9930266258268148
 20
70.9168746390307234
 30
0.0
 40
0.5693957360432654
 50
191.2018215053097947
 51
196.5065778360014122
  0
ARC
  5
ECB9
  8
0
 10
512.7978743452357548
 20
65.6907664394908437
 30
0.0
 40
5.0861799563487224
 50
89.9605123681903933
 51
92.3542336058603155
  0
ARC
  5
ECBA
  8
0
 10
512.6631256858333927
 20
68.9682763043699367
 30
0.0
 40
1.8059012920324671
 50
92.3541449087254591
 51
94.9279630041814642
  0
ARC
  5
ECBB
  8
0
 10
512.5585696820048724
 20
70.1809149593409813
 30
0.0
 40
0.5887634750755928
 50
94.9279630041814642
 51
99.1779913009916925
  0
ARC
  5
ECBC
  8
0
 10
512.4765669779255859
 20
70.6884501425219867
 30
0.0
 40
0.0746463623056485
 50
99.177991300995032
 51
110.9209622238832935
  0
ARC
  5
ECBD
  8
0
 10
512.4520806273034168
 20
70.752503228880812
 30
0.0
 40
0.006072466114135
 50
110.9209622238868036
 51
142.2857797586333106
  0
ARC
  5
ECBE
  8
0
 10
512.4484689346504638
 20
70.7554514398694181
 30
0.0
 40
0.001417206589
 50
147.260285678410014
 51
194.5736205347344878
  0
ARC
  5
ECBF
  8
0
 10
512.4494848210548525
 20
70.7559425506993023
 30
0.0
 40
0.0025335249673184
 50
199.548126454543393
 51
223.6154507131327875
  0
ARC
  5
ECC0
  8
0
 10
512.4570594180346461
 20
70.7663005860439682
 30
0.0
 40
0.0153321256268104
 50
232.1448092167800894
 51
255.2663673168572132
  0
ARC
  5
ECC1
  8
0
 10
512.4902673730110791
 20
70.8817078935329334
 30
0.0
 40
0.1354185495793275
 50
254.0964152488861885
 51
262.0878188771432065
  0
ARC
  5
ECC2
  8
0
 10
512.526648846845319
 20
71.1064650917436438
 30
0.0
 40
0.3630799713377701
 50
261.2835953298481968
 51
262.6233257133915231
  0
ARC
  5
ECC3
  8
0
 10
512.8006265339760148
 20
65.7107119147070335
 30
0.0
 40
5.0643227205404528
 50
89.9914791396900142
 51
91.3585675914263078
  0
ARC
  5
ECC4
  8
0
 10
512.7523173701013093
 20
67.7477047458059758
 30
0.0
 40
3.0267571217773859
 50
91.3585675914263078
 51
93.9232889398604556
  0
ARC
  5
ECC5
  8
0
 10
512.5839599798540576
 20
70.2025550635619453
 30
0.0
 40
0.5661404727567803
 50
93.9232889398604556
 51
98.8224167548583097
  0
ARC
  5
ECC6
  8
0
 10
512.5105633002243621
 20
70.675444921119464
 30
0.0
 40
0.0875886051797822
 50
98.8224167548583097
 51
109.5276341349365055
  0
ARC
  5
ECC7
  8
0
 10
512.4831811453410637
 20
70.752651379951331
 30
0.0
 40
0.0056702330559816
 50
109.5276341349294995
 51
138.5649144752063933
  0
ARC
  5
ECC8
  8
0
 10
512.4801322510279533
 20
70.7553426618108858
 30
0.0
 40
0.0016034462924397
 50
138.5649144752113102
 51
199.7496938576177001
  0
ARC
  5
ECC9
  8
0
 10
512.6352968189752346
 20
70.7767280652772115
 30
0.0
 40
0.1582006646646773
 50
187.967067135420109
 51
201.5927644935497085
  0
ARC
  5
ECCA
  8
0
 10
512.6355887809387468
 20
70.7768653214347978
 30
0.0
 40
0.1585226501334899
 50
201.6000582132867862
 51
223.349249200238205
  0
ARC
  5
ECCB
  8
0
 10
512.8013203604032242
 20
66.0859871913194041
 30
0.0
 40
4.6000846755926101
 50
89.999261087449284
 51
90.5702862169461156
  0
ARC
  5
ECCC
  8
0
 10
512.7972611934917495
 20
66.4937955221467547
 30
0.0
 40
4.1922561435743102
 50
90.5702866983542805
 51
91.4326447479276965
  0
ARC
  5
ECCD
  8
0
 10
512.7676132494635795
 20
67.6792590027547476
 30
0.0
 40
3.0064219796035281
 50
91.4326447479276965
 51
92.8027350473634556
  0
ARC
  5
ECCE
  8
0
 10
512.6858300709443483
 20
69.3498032258592758
 30
0.0
 40
1.33387706551702
 50
92.8027350473634556
 51
95.6464303089711336
  0
ARC
  5
ECCF
  8
0
 10
512.5788134472854836
 20
70.4322106785760411
 30
0.0
 40
0.2461921610358885
 50
95.6464303089711336
 51
101.6097454283751063
  0
ARC
  5
ECD0
  8
0
 10
512.5365041340518246
 20
70.6381477423707764
 30
0.0
 40
0.0359538385760982
 50
101.6097454283751063
 51
114.6697774095171951
  0
ARC
  5
ECD1
  8
0
 10
512.5229245195469048
 20
70.6677130112295657
 30
0.0
 40
0.0034190717443749
 50
114.6697774095280948
 51
148.7636842373937895
  0
ARC
  5
ECD2
  8
0
 10
512.5210302497381463
 20
70.6689818955553193
 30
0.0
 40
0.0011460040947253
 50
153.9017589065595928
 51
180.3701505605307034
  0
ARC
  5
ECD3
  8
0
 10
512.5209879907936283
 20
70.6690003761023746
 30
0.0
 40
0.00110402470572
 50
181.3434340279058006
 51
204.582191430725203
  0
ARC
  5
ECD4
  8
0
 10
512.5217229058326893
 20
70.669348396805205
 30
0.0
 40
0.0019171371927271
 50
204.9036091872200984
 51
224.0219307914157127
  0
ARC
  5
ECD5
  8
0
 10
512.5253708766233558
 20
70.6736992035005045
 30
0.0
 40
0.007587064955138
 50
228.508139749708306
 51
244.6860005922528103
  0
ARC
  5
ECD6
  8
0
 10
512.5420087773469504
 20
70.7175378404965898
 30
0.0
 40
0.0544563723164477
 50
248.5863229601278874
 51
260.8283054609880764
  0
ARC
  5
ECD7
  8
0
 10
512.6247253713293048
 20
71.2483206480415134
 30
0.0
 40
0.5916450038215318
 50
261.1134327761635063
 51
266.7972573489524279
  0
ARC
  5
ECD8
  8
0
 10
512.7567476605336196
 20
73.2923544488689345
 30
0.0
 40
2.6399209872570562
 50
266.414894708267127
 51
268.9221126261134032
  0
ARC
  5
ECD9
  8
0
 10
512.7991513924999936
 20
74.9773173609052463
 30
0.0
 40
4.3253966536827058
 50
268.7803840138695932
 51
269.7399895544231185
  0
ARC
  5
ECDA
  8
0
 10
512.8013378317599518
 20
75.2822917197416217
 30
0.0
 40
4.630377863876741
 50
269.7300602988339051
 51
270.0005178897648079
  0
ARC
  5
ECDB
  8
0
 10
512.7821697350967725
 20
71.4239468936889352
 30
0.0
 40
0.7641114074048142
 50
236.1365271739119009
 51
247.3681053517549913
  0
ARC
  5
ECDC
  8
0
 10
510.5711924213001112
 20
70.689538713343353
 30
0.0
 40
1.702757666104352
 50
4.1858018267291532
 51
5.8088800616769722
  0
ARC
  5
ECDD
  8
0
 10
510.1647198584815897
 20
70.6481870873801228
 30
0.0
 40
2.111328224629943
 50
5.8088800616769722
 51
12.8851558479945005
  0
ARC
  5
ECDE
  8
0
 10
506.6785641639888809
 20
69.1529293506166312
 30
0.0
 40
5.8825958712653668
 50
19.5250887756799507
 51
20.3013974305409484
  0
ARC
  5
ECDF
  8
0
 10
512.5840773718955461
 20
71.3243358897428266
 30
0.0
 40
0.4096468448862917
 50
183.7452008552116069
 51
198.5600223447283099
  0
ARC
  5
ECE0
  8
0
 10
512.261296129014454
 20
71.3019830191817192
 30
0.0
 40
0.0861035155555152
 50
172.2587666204306061
 51
182.9325456709266859
  0
ARC
  5
ECE1
  8
0
 10
512.1877184605450566
 20
71.3121112193714595
 30
0.0
 40
0.0118327947350108
 50
148.926214724460209
 51
172.8642126327401911
  0
ARC
  5
ECE2
  8
0
 10
512.1790988270787466
 20
71.3170332399025568
 30
0.0
 40
0.001923780326276
 50
69.8108562278348472
 51
141.9630079075699882
  0
ARC
  5
ECE3
  8
0
 10
512.1690299164969247
 20
71.3053060568610988
 30
0.0
 40
0.0172722225898126
 50
24.7511212882886404
 51
51.5820352794476307
  0
ARC
  5
ECE4
  8
0
 10
509.4104372028443777
 20
70.0474714533745981
 30
0.0
 40
3.0491001760150049
 50
23.2985217250788708
 51
24.5129041644661392
  0
ARC
  5
ECE5
  8
0
 10
512.7943265006200591
 20
71.5114328034587743
 30
0.0
 40
0.6379138386161494
 50
203.8538660479709108
 51
223.4734766206350116
  0
ARC
  5
ECE6
  8
0
 10
512.7917292473786119
 20
71.5115587946420987
 30
0.0
 40
0.6361184878978026
 50
223.6426651647894062
 51
248.2377313537749899
  0
ARC
  5
ECE7
  8
0
 10
512.8010906095257724
 20
71.5328982226742909
 30
0.0
 40
0.6594083071824937
 50
248.1697443368545066
 51
270.0251155223235742
  0
ARC
  5
ECE8
  8
0
 10
512.2209656640843605
 20
71.4439234577817786
 30
0.0
 40
0.002494231437201
 50
37.5812876546945915
 51
81.8457926073255351
  0
ARC
  5
ECE9
  8
0
 10
512.1957710254296217
 20
71.4310767748144144
 30
0.0
 40
0.0307362157650125
 50
9.0603067386014509
 51
27.869396511909919
  0
ARC
  5
ECEA
  8
0
 10
509.7658796881329977
 20
71.0147631741316303
 30
0.0
 40
2.4960311150719918
 50
8.7336285243118859
 51
9.7139500962040515
  0
ARC
  5
ECEB
  8
0
 10
512.8602355091852587
 20
71.4995444129143891
 30
0.0
 40
0.6361232440627822
 50
189.5722289266059022
 51
218.1914492684248899
  0
ARC
  5
ECEC
  8
0
 10
512.7972959162595998
 20
71.4951717176524397
 30
0.0
 40
0.5850290805301734
 50
221.6682053540054085
 51
270.3999538358871746
  0
ARC
  5
ECED
  8
0
 10
512.501545998282154
 20
71.2580715950427361
 30
0.0
 40
1.337502781657449
 50
90.0002756607785841
 51
95.816901141861365
  0
ARC
  5
ECEE
  8
0
 10
512.4032213147390848
 20
72.2232282231698264
 30
0.0
 40
0.367350700686908
 50
95.8169011721041954
 51
105.7331858168788017
  0
ARC
  5
ECEF
  8
0
 10
512.3224623375208466
 20
72.5098999501939545
 30
0.0
 40
0.0695207299379357
 50
105.7331858168788017
 51
129.2046948317058082
  0
ARC
  5
ECF0
  8
0
 10
512.3007653872424498
 20
72.5364985894058236
 30
0.0
 40
0.0351951526039388
 50
129.2046948317058082
 51
164.5979830600479943
  0
ARC
  5
ECF1
  8
0
 10
468.7267299144431263
 20
82.2239539820366048
 30
0.0
 40
44.6027628813577266
 50
347.1580576358937833
 51
347.4680207343449183
  0
ARC
  5
ECF2
  8
0
 10
467.2852052051180749
 20
84.2062096941735376
 30
0.0
 40
46.4767845891872327
 50
344.0507368606075147
 51
345.1700716988883073
  0
ARC
  5
ECF3
  8
0
 10
512.125435566005649
 20
71.390831664484125
 30
0.0
 40
0.1588270559664298
 50
163.8391624936425899
 51
172.3315356261277032
  0
ARC
  5
ECF4
  8
0
 10
512.0245141840265433
 20
71.4128998281124723
 30
0.0
 40
0.0564920150623599
 50
180.8866386900081977
 51
196.2072601053538108
  0
ARC
  5
ECF5
  8
0
 10
512.055130654024083
 20
71.4165798850189333
 30
0.0
 40
0.0870632491261816
 50
192.9073051212031089
 51
212.6089196784251101
  0
ARC
  5
ECF6
  8
0
 10
512.0725530603224342
 20
71.4334650942585938
 30
0.0
 40
0.1109441958538142
 50
215.1064809908135942
 51
241.2796930430336033
  0
LINE
  5
ECF7
  8
0
 10
513.1054530413970269
 20
72.5004776914442743
 30
0.0
 11
512.4973063289969559
 21
72.5004776914442743
 31
0.0
  0
ARC
  5
ECF8
  8
0
 10
512.4973054146021241
 20
71.3511491093816943
 30
0.0
 40
1.1493285820629331
 50
89.999954416022419
 51
97.5144971931549946
  0
ARC
  5
ECF9
  8
0
 10
512.3825990570884414
 20
72.2207301196081062
 30
0.0
 40
0.2722147457791623
 50
97.5144971931549946
 51
110.5801227744660054
  0
ARC
  5
ECFA
  8
0
 10
512.3435820254010196
 20
72.3246426946645187
 30
0.0
 40
0.1612185655901501
 50
110.5801227744660054
 51
127.2021159323282973
  0
ARC
  5
ECFB
  8
0
 10
512.8249647257525794
 20
65.1301129945928636
 30
0.0
 40
6.3940320291155119
 50
90.2113418171269643
 51
91.5273851145377222
  0
ARC
  5
ECFC
  8
0
 10
512.7440900165663606
 20
68.1631933486392825
 30
0.0
 40
3.3598736363007449
 50
91.5273851102208056
 51
96.5183645454663832
  0
ARC
  5
ECFD
  8
0
 10
512.5623961137105198
 20
69.7533685755670234
 30
0.0
 40
1.759351869291701
 50
96.5183645454663832
 51
103.5793882046382066
  0
LINE
  5
ECFE
  8
0
 10
512.7974426772968854
 20
70.6846368394442806
 30
0.0
 11
512.7974682513309972
 21
70.6811729352575924
 31
0.0
  0
LINE
  5
ECFF
  8
0
 10
512.7974682513309972
 20
70.6811729352575924
 30
0.0
 11
512.7570577718970526
 21
70.6808745843442807
 31
0.0
  0
LINE
  5
ED00
  8
0
 10
512.7570577718970526
 20
70.6808745843442807
 30
0.0
 11
512.7422738147970449
 21
70.6842221451442754
 31
0.0
  0
LINE
  5
ED01
  8
0
 10
512.7422738147970449
 20
70.6842221451442754
 30
0.0
 11
512.7974426772968854
 21
70.6846368394442806
 31
0.0
  0
LINE
  5
ED02
  8
0
 10
512.7974426772968854
 20
70.680814374644271
 30
0.0
 11
512.7974426772968854
 21
70.6775838997911592
 31
0.0
  0
LINE
  5
ED03
  8
0
 10
512.7974426772968854
 20
70.6775838997911592
 30
0.0
 11
512.7359158605611356
 21
70.676583653091086
 31
0.0
  0
LINE
  5
ED04
  8
0
 10
512.7359197234968633
 20
70.6763496162442806
 30
0.0
 11
512.7073681750970309
 21
70.6793500257442844
 31
0.0
  0
ARC
  5
ED05
  8
0
 10
512.7987207633209437
 20
67.8311498619611655
 30
0.0
 40
2.8496647992964701
 50
90.0256973864082966
 51
91.8370633138711412
  0
LINE
  5
ED06
  8
0
 10
512.7418463415970109
 20
70.6806272907442832
 30
0.0
 11
512.7270623844970032
 21
70.6839748516442796
 31
0.0
  0
LINE
  5
ED07
  8
0
 10
512.6758672537970369
 20
70.682660377344277
 30
0.0
 11
512.7044148341969958
 21
70.6796603848442828
 31
0.0
  0
LINE
  5
ED08
  8
0
 10
512.7044148341969958
 20
70.6796603848442828
 30
0.0
 11
512.7418463415970109
 21
70.6806272907442832
 31
0.0
  0
LINE
  5
ED09
  8
0
 10
512.7270623844970032
 20
70.6839748516442796
 30
0.0
 11
512.6758672537970369
 21
70.682660377344277
 31
0.0
  0
ARC
  5
ED0A
  8
0
 10
512.8003667011620337
 20
68.6987758249335769
 30
0.0
 40
1.9782193468693829
 50
89.9706606284349704
 51
91.7813266479336392
  0
LINE
  5
ED0B
  8
0
 10
512.7388737393970359
 20
70.6760391862442816
 30
0.0
 11
512.7703967040970383
 21
70.6727265181442732
 31
0.0
  0
LINE
  5
ED0C
  8
0
 10
512.7703967040970383
 20
70.6727265181442732
 30
0.0
 11
512.8013796851970483
 21
70.6731730372442826
 31
0.0
  0
LINE
  5
ED0D
  8
0
 10
512.5435357246969943
 20
70.6692317283442719
 30
0.0
 11
512.6006308854970257
 21
70.6692317283442719
 31
0.0
  0
ARC
  5
ED0E
  8
0
 10
512.6070627308160965
 20
70.6624850498029673
 30
0.0
 40
0.0093212823982749
 50
99.3696659939058264
 51
133.6314715860357865
  0
LINE
  5
ED0F
  8
0
 10
512.6055451922969723
 20
70.6716819722442722
 30
0.0
 11
512.5503707130968678
 21
70.6725789484442828
 31
0.0
  0
ARC
  5
ED10
  8
0
 10
512.5543665243799296
 20
70.6532956759543822
 30
0.0
 40
0.0196929201930083
 50
101.7069445375929035
 51
120.7265619868803981
  0
ARC
  5
ED11
  8
0
 10
512.5451794831149073
 20
70.6687520897399395
 30
0.0
 40
0.0017123069021664
 50
120.7265619868842066
 51
163.7330795307059077
  0
ARC
  5
ED12
  8
0
 10
512.6016469987469009
 20
70.4213901392076593
 30
0.0
 40
0.2564920998533635
 50
95.7135833505243454
 51
100.6041650198878017
  0
LINE
  5
ED13
  8
0
 10
512.6255576207333888
 20
70.6748759387500058
 30
0.0
 11
512.6096210826970037
 21
70.6726048842442793
 31
0.0
  0
LINE
  5
ED14
  8
0
 10
512.6096210826970037
 20
70.6726048842442793
 30
0.0
 11
512.5544466035969435
 21
70.6735018604442757
 31
0.0
  0
LINE
  5
ED15
  8
0
 10
512.625557620003292
 20
70.674875938645954
 30
0.0
 11
512.5761117612970565
 21
70.6766079852442743
 31
0.0
  0
LINE
  5
ED16
  8
0
 10
512.580048769196992
 20
70.6770217153442815
 30
0.0
 11
512.6135524739970606
 21
70.6797131458442749
 31
0.0
  0
LINE
  5
ED17
  8
0
 10
512.6135524739970606
 20
70.6797131458442749
 30
0.0
 11
512.6539429959888139
 21
70.677262561244774
 31
0.0
  0
LINE
  5
ED18
  8
0
 10
512.6539429959888139
 20
70.677262561244774
 30
0.0
 11
512.6294946287970333
 21
70.6752896688442718
 31
0.0
  0
LINE
  5
ED19
  8
0
 10
512.6294946287970333
 20
70.6752896688442718
 30
0.0
 11
512.580048769196992
 21
70.6770217153442815
 31
0.0
  0
LINE
  5
ED1A
  8
0
 10
512.6246880138969573
 20
70.6803887643442721
 30
0.0
 11
512.6690481560968919
 21
70.6824215101442803
 31
0.0
  0
LINE
  5
ED1B
  8
0
 10
512.6690481560968919
 20
70.6824215101442803
 30
0.0
 11
512.6975957364968508
 21
70.6794215176442719
 31
0.0
  0
LINE
  5
ED1C
  8
0
 10
512.6975957364968508
 20
70.6794215176442719
 30
0.0
 11
512.6650785358970097
 21
70.6779381797442738
 31
0.0
  0
LINE
  5
ED1D
  8
0
 10
512.6650785358970097
 20
70.6779381797442738
 30
0.0
 11
512.6246880138969573
 21
70.6803887643442721
 31
0.0
  0
LINE
  5
ED1E
  8
0
 10
512.6346099652970452
 20
70.6751104829442767
 30
0.0
 11
512.6840626977970032
 21
70.6784322744442761
 31
0.0
  0
LINE
  5
ED1F
  8
0
 10
512.6840626977970032
 20
70.6784322744442761
 30
0.0
 11
512.7005490773969996
 21
70.6791111585442735
 31
0.0
  0
LINE
  5
ED20
  8
0
 10
512.7005490773969996
 20
70.6791111585442735
 30
0.0
 11
512.7291006257250956
 21
70.6761107490518299
 31
0.0
  0
LINE
  5
ED21
  8
0
 10
512.7291006257250956
 20
70.6761107490518299
 30
0.0
 11
512.6840626977970032
 21
70.6733781957442773
 31
0.0
  0
LINE
  5
ED22
  8
0
 10
512.6840626977970032
 20
70.6733781957442773
 30
0.0
 11
512.6346099652970452
 21
70.6751104829442767
 31
0.0
  0
ARC
  5
ED23
  8
0
 10
512.6588193288299635
 20
70.414722846700414
 30
0.0
 40
0.2614931167364627
 50
96.1791249276989646
 51
98.4902172699010237
  0
ARC
  5
ED24
  8
0
 10
512.6338896968965173
 20
70.5817259587638119
 30
0.0
 40
0.0926395529979352
 50
98.4902172699010237
 51
104.8318754243351947
  0
ARC
  5
ED25
  8
0
 10
512.6129347749216549
 20
70.6608588727128932
 30
0.0
 40
0.0107791423890896
 50
104.8318754243317983
 51
122.7122295291215011
  0
ARC
  5
ED26
  8
0
 10
512.6079018268048912
 20
70.668694815569296
 30
0.0
 40
0.001466110273024
 50
122.7122295291060965
 51
158.5175745251054877
  0
LINE
  5
ED27
  8
0
 10
512.6065375672968685
 20
70.6692317283442719
 30
0.0
 11
512.6636406640969881
 21
70.6692317283488478
 31
0.0
  0
ARC
  5
ED28
  8
0
 10
512.6659337060353892
 20
70.6674345071390064
 30
0.0
 40
0.0029134250305996
 50
107.2285919468239968
 51
141.9116586105419913
  0
ARC
  5
ED29
  8
0
 10
512.6811618337676464
 20
70.6183271393441885
 30
0.0
 40
0.0543277172649784
 50
100.5628998995034067
 51
107.2285919468239968
  0
ARC
  5
ED2A
  8
0
 10
512.6886458941348792
 20
70.5781927057439731
 30
0.0
 40
0.0951539823401795
 50
95.1372147255111571
 51
100.5628998995034067
  0
LINE
  5
ED2B
  8
0
 10
512.6801256898969541
 20
70.6729644656442844
 30
0.0
 11
512.6306729573968823
 21
70.6746967528442838
 31
0.0
  0
ARC
  5
ED2C
  8
0
 10
512.6710103080523595
 20
70.6683838000761995
 30
0.0
 40
0.0016897610602344
 50
105.3138126652447966
 51
149.8805995444477048
  0
ARC
  5
ED2D
  8
0
 10
512.6783451005875349
 20
70.6509319805839624
 30
0.0
 40
0.0206070824352748
 50
100.7879356309788932
 51
112.1846002688587021
  0
ARC
  5
ED2E
  8
0
 10
512.7026323526988563
 20
70.5216097243648363
 30
0.0
 40
0.1521901367724951
 50
94.8806363742581738
 51
100.6569938105778022
  0
ARC
  5
ED2F
  8
0
 10
512.7577862011951311
 20
69.8956531897333093
 30
0.0
 40
0.7805713654281444
 50
91.8890994160434502
 51
95.0052269122040087
  0
LINE
  5
ED30
  8
0
 10
512.7320546416970046
 20
70.6758003190442849
 30
0.0
 11
512.763577606394847
 21
70.6724876509445039
 31
0.0
  0
ARC
  5
ED31
  8
0
 10
512.7848891089926155
 20
70.1303079034993289
 30
0.0
 40
0.5425984322520212
 50
92.2509709694876676
 51
93.4287306996826032
  0
ARC
  5
ED32
  8
0
 10
512.7689099094927769
 20
70.3970093790061071
 30
0.0
 40
0.2754186952693167
 50
93.4287306996793347
 51
95.6998063880920284
  0
ARC
  5
ED33
  8
0
 10
512.7491585198279154
 20
70.5948995506734605
 30
0.0
 40
0.0765452746313953
 50
95.6998063880920284
 51
100.2883011421472048
  0
ARC
  5
ED34
  8
0
 10
512.7379903045260789
 20
70.6564256779798541
 30
0.0
 40
0.0140137355942572
 50
100.2883011421472048
 51
109.9387470871532031
  0
ARC
  5
ED35
  8
0
 10
512.7338611757925264
 20
70.6678082134053653
 30
0.0
 40
0.0019053989285387
 50
109.9387470871774042
 51
131.660595366664495
  0
LINE
  5
ED36
  8
0
 10
512.732594625296997
 20
70.6692317283926741
 30
0.0
 11
512.6695486958968786
 21
70.6692317283442719
 31
0.0
  0
LINE
  5
ED37
  8
0
 10
512.7911510386969667
 20
70.6705454980442767
 30
0.0
 11
512.773354746997029
 21
70.6724156649442818
 31
0.0
  0
LINE
  5
ED38
  8
0
 10
512.773354746997029
 20
70.6724156649442818
 30
0.0
 11
512.7911510386969667
 21
70.6727632408442759
 31
0.0
  0
LINE
  5
ED39
  8
0
 10
512.7911510386969667
 20
70.6727632408442759
 30
0.0
 11
512.8013796851970483
 21
70.6728147364442805
 31
0.0
  0
LINE
  5
ED3A
  8
0
 10
512.784331941096525
 20
70.6703066308443226
 30
0.0
 11
512.7741032945968982
 21
70.6713815332442721
 31
0.0
  0
LINE
  5
ED3B
  8
0
 10
512.7741032945968982
 20
70.6713815332442721
 30
0.0
 11
512.766535649296884
 21
70.6721767977442852
 31
0.0
  0
ARC
  5
ED3C
  8
0
 10
512.7818520997236647
 20
70.2682402896058136
 30
0.0
 40
0.4042267881533398
 50
92.1714990609700209
 51
94.3453594516753924
  0
ARC
  5
ED3D
  8
0
 10
512.758991037608439
 20
70.5612471404598409
 30
0.0
 40
0.1103316592656987
 50
94.036495551790324
 51
99.0408919815464088
  0
ARC
  5
ED3E
  8
0
 10
512.7443682068543467
 20
70.6538174180923448
 30
0.0
 40
0.0166139454230578
 50
99.4039308996724884
 51
107.8959279792601933
  0
ARC
  5
ED3F
  8
0
 10
512.7399625168984585
 20
70.6673852185964222
 30
0.0
 40
0.0023489015165665
 50
107.3278041361417934
 51
128.175960291267387
  0
LINE
  5
ED40
  8
0
 10
512.7385107110969784
 20
70.6692317283442719
 30
0.0
 11
512.7741032945968982
 21
70.6692317283442719
 31
0.0
  0
ARC
  5
ED41
  8
0
 10
512.7766258678317399
 20
70.6619375972915833
 30
0.0
 40
0.007718012926795
 50
97.0244790214481867
 51
109.0772286846924004
  0
ARC
  5
ED42
  8
0
 10
512.7886854602669473
 20
70.5640658044601565
 30
0.0
 40
0.1063299878676972
 50
92.3465442235768847
 51
97.0244790214481867
  0
LINE
  5
ED43
  8
0
 10
512.7741032945968982
 20
70.6692317283442719
 30
0.0
 11
512.7741032945968982
 21
70.6713815332442721
 31
0.0
  0
LINE
  5
ED44
  8
0
 10
512.7703967040970383
 20
70.676768136244263
 30
0.0
 11
512.7703967040970383
 21
70.6727265181442732
 31
0.0
  0
LINE
  5
ED45
  8
0
 10
512.7570577718970526
 20
70.6843332734594725
 30
0.0
 11
512.7570577718970526
 21
70.6808745843442807
 31
0.0
  0
LINE
  5
ED46
  8
0
 10
512.7044148341969958
 20
70.6833933583963727
 30
0.0
 11
512.7044148341969958
 21
70.6796603848442828
 31
0.0
  0
LINE
  5
ED47
  8
0
 10
512.6650785358970097
 20
70.6822396074634298
 30
0.0
 11
512.6650785358970097
 21
70.6779381797442738
 31
0.0
  0
LINE
  5
ED48
  8
0
 10
512.6294946287970333
 20
70.6787458991460653
 30
0.0
 11
512.6294946287970333
 21
70.6752896688442718
 31
0.0
  0
LINE
  5
ED49
  8
0
 10
512.6096210826970037
 20
70.6726048842442793
 30
0.0
 11
512.6096210826970037
 21
70.6754341820651746
 31
0.0
  0
LINE
  5
ED4A
  8
0
 10
512.6006308854970257
 20
70.6692317283442719
 30
0.0
 11
512.6006308854970257
 21
70.6717618645478041
 31
0.0
  0
LINE
  5
ED4B
  8
0
 10
512.6636406640969881
 20
70.6692317283488478
 30
0.0
 11
512.6636406640969881
 21
70.6735419220908909
 31
0.0
  0
LINE
  5
ED4C
  8
0
 10
512.6840626977970032
 20
70.6784322744442761
 30
0.0
 11
512.6840626977970032
 21
70.6733781957442773
 31
0.0
  0
LINE
  5
ED4D
  8
0
 10
512.7359197234968633
 20
70.6801225711576535
 30
0.0
 11
512.7359197234968633
 21
70.6763496162442806
 31
0.0
  0
LINE
  5
ED4E
  8
0
 10
512.732594625296997
 20
70.682722175323164
 30
0.0
 11
512.732594625296997
 21
70.6803883065382763
 31
0.0
  0
LINE
  5
ED4F
  8
0
 10
512.7911510386969667
 20
70.6727632408442759
 30
0.0
 11
512.7911510386969667
 21
70.6705454980442767
 31
0.0
  0
LINE
  5
ED50
  8
0
 10
512.7974426772968854
 20
70.6533488828442842
 30
0.0
 11
512.7974682513309972
 21
70.6568127870309723
 31
0.0
  0
LINE
  5
ED51
  8
0
 10
512.7974682513309972
 20
70.6568127870309723
 30
0.0
 11
512.7570577718970526
 21
70.657111137944284
 31
0.0
  0
LINE
  5
ED52
  8
0
 10
512.7570577718970526
 20
70.657111137944284
 30
0.0
 11
512.7422738147970449
 21
70.6537635771442751
 31
0.0
  0
LINE
  5
ED53
  8
0
 10
512.7422738147970449
 20
70.6537635771442751
 30
0.0
 11
512.7974426772968854
 21
70.6533488828442842
 31
0.0
  0
LINE
  5
ED54
  8
0
 10
512.7974426772968854
 20
70.6571713476442795
 30
0.0
 11
512.7974426772968854
 21
70.6604018224973913
 31
0.0
  0
LINE
  5
ED55
  8
0
 10
512.7974426772968854
 20
70.6604018224973913
 30
0.0
 11
512.7359158605611356
 21
70.6614020691974645
 31
0.0
  0
LINE
  5
ED56
  8
0
 10
512.7359197234968633
 20
70.6616361060442841
 30
0.0
 11
512.7073681750970309
 21
70.6586356965442803
 31
0.0
  0
ARC
  5
ED57
  8
0
 10
512.7987207633209437
 20
73.5068358603273992
 30
0.0
 40
2.8496647992964701
 50
268.1629366861288872
 51
269.9743026135917034
  0
LINE
  5
ED58
  8
0
 10
512.7418463415970109
 20
70.6573584315442815
 30
0.0
 11
512.7270623844970032
 21
70.6540108706442851
 31
0.0
  0
LINE
  5
ED59
  8
0
 10
512.6758672537970369
 20
70.6553253449442735
 30
0.0
 11
512.7044148341969958
 21
70.6583253374442819
 31
0.0
  0
LINE
  5
ED5A
  8
0
 10
512.7044148341969958
 20
70.6583253374442819
 30
0.0
 11
512.7418463415970109
 21
70.6573584315442815
 31
0.0
  0
LINE
  5
ED5B
  8
0
 10
512.7270623844970032
 20
70.6540108706442851
 30
0.0
 11
512.6758672537970369
 21
70.6553253449442735
 31
0.0
  0
ARC
  5
ED5C
  8
0
 10
512.8003667011620337
 20
72.6392098973549736
 30
0.0
 40
1.9782193468693829
 50
268.2186733520663893
 51
270.0293393715650154
  0
LINE
  5
ED5D
  8
0
 10
512.7388737393970359
 20
70.6619465360442831
 30
0.0
 11
512.7703967040970383
 21
70.6652592041442631
 31
0.0
  0
LINE
  5
ED5E
  8
0
 10
512.7703967040970383
 20
70.6652592041442631
 30
0.0
 11
512.8013796851970483
 21
70.6648126850442821
 31
0.0
  0
LINE
  5
ED5F
  8
0
 10
512.5435357246969943
 20
70.6687539939442786
 30
0.0
 11
512.6006308854970257
 21
70.6687539939442786
 31
0.0
  0
ARC
  5
ED60
  8
0
 10
512.6070627308160965
 20
70.6755006724855832
 30
0.0
 40
0.0093212823982749
 50
226.3685284139642135
 51
260.6303340060941878
  0
LINE
  5
ED61
  8
0
 10
512.6055451922969723
 20
70.6663037500442783
 30
0.0
 11
512.5503707130968678
 21
70.6654067738442819
 31
0.0
  0
ARC
  5
ED62
  8
0
 10
512.5543665243799296
 20
70.6846900463341825
 30
0.0
 40
0.0196929201930083
 50
239.2734380131157934
 51
258.2930554624069828
  0
ARC
  5
ED63
  8
0
 10
512.5451794831149073
 20
70.6692336325486252
 30
0.0
 40
0.0017123069021664
 50
196.2669204692936944
 51
239.2734380131157934
  0
ARC
  5
ED64
  8
0
 10
512.6016469987469009
 20
70.9165955830808912
 30
0.0
 40
0.2564920998533635
 50
259.3958349801122267
 51
264.2864166494755978
  0
LINE
  5
ED65
  8
0
 10
512.6255576207333888
 20
70.6631097835385447
 30
0.0
 11
512.6096210826970037
 21
70.6653808380442712
 31
0.0
  0
LINE
  5
ED66
  8
0
 10
512.6096210826970037
 20
70.6653808380442712
 30
0.0
 11
512.5544466035969435
 21
70.6644838618442748
 31
0.0
  0
LINE
  5
ED67
  8
0
 10
512.625557620003292
 20
70.6631097836425965
 30
0.0
 11
512.5761117612970565
 21
70.6613777370442762
 31
0.0
  0
LINE
  5
ED68
  8
0
 10
512.580048769196992
 20
70.6609640069442833
 30
0.0
 11
512.6135524739970606
 21
70.6582725764442756
 31
0.0
  0
LINE
  5
ED69
  8
0
 10
512.6135524739970606
 20
70.6582725764442756
 30
0.0
 11
512.6539429959888139
 21
70.6607231610437765
 31
0.0
  0
LINE
  5
ED6A
  8
0
 10
512.6539429959888139
 20
70.6607231610437765
 30
0.0
 11
512.6294946287970333
 21
70.6626960534442787
 31
0.0
  0
LINE
  5
ED6B
  8
0
 10
512.6294946287970333
 20
70.6626960534442787
 30
0.0
 11
512.580048769196992
 21
70.6609640069442833
 31
0.0
  0
LINE
  5
ED6C
  8
0
 10
512.6246880138969573
 20
70.6575969579442784
 30
0.0
 11
512.6690481560968919
 21
70.6555642121442844
 31
0.0
  0
LINE
  5
ED6D
  8
0
 10
512.6690481560968919
 20
70.6555642121442844
 30
0.0
 11
512.6975957364968508
 21
70.6585642046442644
 31
0.0
  0
LINE
  5
ED6E
  8
0
 10
512.6975957364968508
 20
70.6585642046442644
 30
0.0
 11
512.6650785358970097
 21
70.6600475425442767
 31
0.0
  0
LINE
  5
ED6F
  8
0
 10
512.6650785358970097
 20
70.6600475425442767
 30
0.0
 11
512.6246880138969573
 21
70.6575969579442784
 31
0.0
  0
LINE
  5
ED70
  8
0
 10
512.6346099652970452
 20
70.6628752393442738
 30
0.0
 11
512.6840626977970032
 21
70.6595534478442744
 31
0.0
  0
LINE
  5
ED71
  8
0
 10
512.6840626977970032
 20
70.6595534478442744
 30
0.0
 11
512.7005490773969996
 21
70.658874563744277
 31
0.0
  0
LINE
  5
ED72
  8
0
 10
512.7005490773969996
 20
70.658874563744277
 30
0.0
 11
512.7291006257250956
 21
70.6618749732367206
 31
0.0
  0
LINE
  5
ED73
  8
0
 10
512.7291006257250956
 20
70.6618749732367206
 30
0.0
 11
512.6840626977970032
 21
70.6646075265442732
 31
0.0
  0
LINE
  5
ED74
  8
0
 10
512.6840626977970032
 20
70.6646075265442732
 30
0.0
 11
512.6346099652970452
 21
70.6628752393442738
 31
0.0
  0
ARC
  5
ED75
  8
0
 10
512.6588193288299635
 20
70.9232628755881507
 30
0.0
 40
0.2614931167364627
 50
261.5097827300990048
 51
263.8208750723010212
  0
ARC
  5
ED76
  8
0
 10
512.6338896968965173
 20
70.7562597635247528
 30
0.0
 40
0.0926395529979352
 50
255.1681245756647058
 51
261.5097827300990048
  0
ARC
  5
ED77
  8
0
 10
512.6129347749216549
 20
70.6771268495756573
 30
0.0
 40
0.0107791423890896
 50
237.2877704708785132
 51
255.168124575668088
  0
ARC
  5
ED78
  8
0
 10
512.6079018268048912
 20
70.6692909067192545
 30
0.0
 40
0.001466110273024
 50
201.4824254748945123
 51
237.287770470893804
  0
LINE
  5
ED79
  8
0
 10
512.6065375672968685
 20
70.6687539939442786
 30
0.0
 11
512.6636406640969881
 21
70.6687539939397169
 31
0.0
  0
ARC
  5
ED7A
  8
0
 10
512.6659337060353892
 20
70.6705512151495441
 30
0.0
 40
0.0029134250305996
 50
218.0883413894576108
 51
252.7714080531760032
  0
ARC
  5
ED7B
  8
0
 10
512.6811618337676464
 20
70.719658582944362
 30
0.0
 40
0.0543277172649784
 50
252.7714080531760032
 51
259.4371001004965933
  0
ARC
  5
ED7C
  8
0
 10
512.6886458941348792
 20
70.7597930165445774
 30
0.0
 40
0.0951539823401795
 50
259.4371001004965933
 51
264.8627852744887718
  0
LINE
  5
ED7D
  8
0
 10
512.6801256898969541
 20
70.6650212566442804
 30
0.0
 11
512.6306729573968823
 21
70.663288969444281
 31
0.0
  0
ARC
  5
ED7E
  8
0
 10
512.6710103080523595
 20
70.6696019222123653
 30
0.0
 40
0.0016897610602344
 50
210.1194004555522952
 51
254.6861873347550898
  0
ARC
  5
ED7F
  8
0
 10
512.6783451005875349
 20
70.6870537417045881
 30
0.0
 40
0.0206070824352748
 50
247.8153997311412979
 51
259.2120643690211068
  0
ARC
  5
ED80
  8
0
 10
512.7026323526988563
 20
70.8163759979237142
 30
0.0
 40
0.1521901367724951
 50
259.3430061894188157
 51
265.119363625741812
  0
ARC
  5
ED81
  8
0
 10
512.7577862011951311
 20
71.4423325325552554
 30
0.0
 40
0.7805713654281444
 50
264.9947730877959771
 51
268.1109005839564929
  0
LINE
  5
ED82
  8
0
 10
512.7320546416970046
 20
70.6621854032442656
 30
0.0
 11
512.763577606394847
 21
70.6654980713440466
 31
0.0
  0
ARC
  5
ED83
  8
0
 10
512.7848891089926155
 20
71.2076778187892216
 30
0.0
 40
0.5425984322520212
 50
266.5712693003173968
 51
267.7490290305124176
  0
ARC
  5
ED84
  8
0
 10
512.7689099094927769
 20
70.9409763432824434
 30
0.0
 40
0.2754186952693167
 50
264.3001936119079005
 51
266.57126930032058
  0
ARC
  5
ED85
  8
0
 10
512.7491585198279154
 20
70.7430861716151043
 30
0.0
 40
0.0765452746313953
 50
259.7116988578528094
 51
264.3001936119079005
  0
ARC
  5
ED86
  8
0
 10
512.7379903045260789
 20
70.6815600443086964
 30
0.0
 40
0.0140137355942572
 50
250.0612529128466974
 51
259.7116988578528094
  0
ARC
  5
ED87
  8
0
 10
512.7338611757925264
 20
70.6701775088831994
 30
0.0
 40
0.0019053989285387
 50
228.339404633335505
 51
250.0612529128225106
  0
LINE
  5
ED88
  8
0
 10
512.732594625296997
 20
70.6687539938958906
 30
0.0
 11
512.6695486958968786
 21
70.6687539939442786
 31
0.0
  0
LINE
  5
ED89
  8
0
 10
512.7911510386969667
 20
70.6674402242442738
 30
0.0
 11
512.773354746997029
 21
70.6655700573442829
 31
0.0
  0
LINE
  5
ED8A
  8
0
 10
512.773354746997029
 20
70.6655700573442829
 30
0.0
 11
512.7911510386969667
 21
70.6652224814442746
 31
0.0
  0
LINE
  5
ED8B
  8
0
 10
512.7911510386969667
 20
70.6652224814442746
 30
0.0
 11
512.8013796851970483
 21
70.6651709858442842
 31
0.0
  0
LINE
  5
ED8C
  8
0
 10
512.784331941096525
 20
70.6676790914442279
 30
0.0
 11
512.7741032945968982
 21
70.6666041890442784
 31
0.0
  0
LINE
  5
ED8D
  8
0
 10
512.7741032945968982
 20
70.6666041890442784
 30
0.0
 11
512.766535649296884
 21
70.6658089245442795
 31
0.0
  0
ARC
  5
ED8E
  8
0
 10
512.7818520997236647
 20
71.0697454326827369
 30
0.0
 40
0.4042267881533398
 50
265.6546405483246076
 51
267.8285009390299933
  0
ARC
  5
ED8F
  8
0
 10
512.758991037608439
 20
70.7767385818287238
 30
0.0
 40
0.1103316592656987
 50
260.9591080184536054
 51
265.963504448209676
  0
ARC
  5
ED90
  8
0
 10
512.7443682068543467
 20
70.6841683041962057
 30
0.0
 40
0.0166139454230578
 50
252.1040720207398067
 51
260.5960691003274974
  0
ARC
  5
ED91
  8
0
 10
512.7399625168984585
 20
70.6706005036921425
 30
0.0
 40
0.0023489015165665
 50
231.8240397087324993
 51
252.6721958638582066
  0
LINE
  5
ED92
  8
0
 10
512.7385107110969784
 20
70.6687539939442786
 30
0.0
 11
512.7741032945968982
 21
70.6687539939442786
 31
0.0
  0
ARC
  5
ED93
  8
0
 10
512.7766258678317399
 20
70.6760481249969672
 30
0.0
 40
0.007718012926795
 50
250.9227713153076138
 51
262.9755209785517991
  0
ARC
  5
ED94
  8
0
 10
512.7886854602669473
 20
70.773919917828394
 30
0.0
 40
0.1063299878676972
 50
262.9755209785517991
 51
267.6534557764230726
  0
LINE
  5
ED95
  8
0
 10
512.7741032945968982
 20
70.6687539939442786
 30
0.0
 11
512.7741032945968982
 21
70.6666041890442784
 31
0.0
  0
LINE
  5
ED96
  8
0
 10
512.7703967040970383
 20
70.6612175860442733
 30
0.0
 11
512.7703967040970383
 21
70.6652592041442631
 31
0.0
  0
LINE
  5
ED97
  8
0
 10
512.7570577718970526
 20
70.653652448829078
 30
0.0
 11
512.7570577718970526
 21
70.657111137944284
 31
0.0
  0
LINE
  5
ED98
  8
0
 10
512.7044148341969958
 20
70.6545923638921778
 30
0.0
 11
512.7044148341969958
 21
70.6583253374442819
 31
0.0
  0
LINE
  5
ED99
  8
0
 10
512.6650785358970097
 20
70.6557461148251349
 30
0.0
 11
512.6650785358970097
 21
70.6600475425442767
 31
0.0
  0
LINE
  5
ED9A
  8
0
 10
512.6294946287970333
 20
70.6592398231424994
 30
0.0
 11
512.6294946287970333
 21
70.6626960534442787
 31
0.0
  0
LINE
  5
ED9B
  8
0
 10
512.6096210826970037
 20
70.6653808380442712
 30
0.0
 11
512.6096210826970037
 21
70.6625515402233759
 31
0.0
  0
LINE
  5
ED9C
  8
0
 10
512.6006308854970257
 20
70.6687539939442786
 30
0.0
 11
512.6006308854970257
 21
70.6662238577407464
 31
0.0
  0
LINE
  5
ED9D
  8
0
 10
512.6636406640969881
 20
70.6687539939397169
 30
0.0
 11
512.6636406640969881
 21
70.6644438001976596
 31
0.0
  0
LINE
  5
ED9E
  8
0
 10
512.6840626977970032
 20
70.6595534478442744
 30
0.0
 11
512.6840626977970032
 21
70.6646075265442732
 31
0.0
  0
LINE
  5
ED9F
  8
0
 10
512.7359197234968633
 20
70.657863151130897
 30
0.0
 11
512.7359197234968633
 21
70.6616361060442841
 31
0.0
  0
LINE
  5
EDA0
  8
0
 10
512.732594625296997
 20
70.6552635469653865
 30
0.0
 11
512.732594625296997
 21
70.6575974157502742
 31
0.0
  0
LINE
  5
EDA1
  8
0
 10
512.7911510386969667
 20
70.6652224814442746
 30
0.0
 11
512.7911510386969667
 21
70.6674402242442738
 31
0.0
  0
ARC
  5
EDA2
  8
0
 10
483.336134929838579
 20
69.0349627983844698
 30
0.0
 40
30.4732448381815715
 50
0.6461441423216272
 51
2.1590498427961111
  0
ARC
  5
EDA3
  8
0
 10
508.9281010303121207
 20
69.9820813539287059
 30
0.0
 40
4.863797351815716
 50
2.3675051773713709
 51
15.3582136682994701
  0
ARC
  5
EDA4
  8
0
 10
513.4603380155348304
 20
71.22925047264998
 30
0.0
 40
0.1631110975987712
 50
14.5660699958646607
 51
40.9575318213498534
  0
ARC
  5
EDA5
  8
0
 10
513.3814687188030348
 20
71.4109599262269938
 30
0.0
 40
0.0354325577790067
 50
57.5509962283827079
 51
90.0465526786995838
  0
LINE
  5
EDA6
  8
0
 10
513.4004800127970611
 20
71.4408603752442843
 30
0.0
 11
513.5321524210470443
 21
71.3691434605942732
 31
0.0
  0
ARC
  5
EDA7
  8
0
 10
513.4454753456520848
 20
71.2138043165192585
 30
0.0
 40
0.177885258189055
 50
55.3078993432395194
 51
60.8390922892475388
  0
ARC
  5
EDA8
  8
0
 10
513.6367851356305891
 20
71.5194756148666357
 30
0.0
 40
0.1830928620337631
 50
240.5344098864972864
 51
247.0082242574320901
  0
ARC
  5
EDA9
  8
0
 10
513.5344854424987489
 20
71.294197371768476
 30
0.0
 40
0.0645441538653055
 50
40.5633743510624214
 51
61.5141437615985893
  0
ARC
  5
EDAA
  8
0
 10
512.8008540934314397
 20
59.505759370309022
 30
0.0
 40
11.3332955824050607
 50
88.9023119417694545
 51
89.997342856745135
  0
ARC
  5
EDAB
  8
0
 10
512.8662629891088045
 20
62.9194752374864095
 30
0.0
 40
7.9189531353953351
 50
87.2635297096462352
 51
88.9023119417694545
  0
ARC
  5
EDAC
  8
0
 10
513.2158852860612797
 20
70.2342443771689346
 30
0.0
 40
0.5958333550436447
 50
80.1247208290100446
 51
87.2635297096462352
  0
ARC
  5
EDAD
  8
0
 10
513.3100831685248977
 20
70.7753522517856908
 30
0.0
 40
0.0465875329995855
 50
65.1149195397108542
 51
80.1247208290133415
  0
ARC
  5
EDAE
  8
0
 10
513.3255239406158807
 20
70.8086392415463308
 30
0.0
 40
0.009893648902999
 50
43.6034498802658987
 51
65.1149195397108542
  0
ARC
  5
EDAF
  8
0
 10
513.3309629819316342
 20
70.813809021133082
 30
0.0
 40
0.0023896794353093
 50
0.8223854043012399
 51
43.783563167075549
  0
ARC
  5
EDB0
  8
0
 10
512.5041406840911122
 20
70.8670301007067991
 30
0.0
 40
0.8309157169595554
 50
356.3159194211045246
 51
356.3299973297250176
  0
ARC
  5
EDB1
  8
0
 10
513.3241541939828494
 20
70.8142216330222283
 30
0.0
 40
0.0092035515458894
 50
340.4942093770592919
 51
356.3740632996215254
  0
ARC
  5
EDB2
  8
0
 10
513.3244430758796852
 20
70.8137799100720002
 30
0.0
 40
0.0087895808471719
 50
314.1944281359794218
 51
342.5800568932435795
  0
ARC
  5
EDB3
  8
0
 10
513.3161851694100051
 20
70.8208454968184782
 30
0.0
 40
0.0196372443402238
 50
288.5564383581657921
 51
317.0998233822489283
  0
ARC
  5
EDB4
  8
0
 10
513.2526987430411509
 20
71.0260811775490595
 30
0.0
 40
0.2344627739747923
 50
275.898782569939101
 51
287.3031784856297008
  0
ARC
  5
EDB5
  8
0
 10
513.1103279346931458
 20
72.1423196247860119
 30
0.0
 40
1.359688498745049
 50
274.0001003081346198
 51
277.0323746749539282
  0
ARC
  5
EDB6
  8
0
 10
513.0106023290046551
 20
73.4370334794472654
 30
0.0
 40
2.6582208202651771
 50
273.2912359143338108
 51
274.1976605867520789
  0
ARC
  5
EDB7
  8
0
 10
512.8060001258455713
 20
65.5538962633770836
 30
0.0
 40
5.2749024656568224
 50
87.7982957848602155
 51
90.0501870478604616
  0
ARC
  5
EDB8
  8
0
 10
512.9327714987653053
 20
68.8512915589613499
 30
0.0
 40
1.975071149311513
 50
84.3451079309025431
 51
87.7982957848602155
  0
ARC
  5
EDB9
  8
0
 10
513.1047362640185838
 20
70.5879900052290878
 30
0.0
 40
0.2298796487141276
 50
75.4950453392896321
 51
84.3451079309025431
  0
ARC
  5
EDBA
  8
0
 10
513.1586041137956045
 20
70.7962072445762658
 30
0.0
 40
0.0148071865044103
 50
54.5412082836819607
 51
75.4950453392929859
  0
ARC
  5
EDBB
  8
0
 10
513.1653514783121182
 20
70.8056811061812965
 30
0.0
 40
0.0031761512267553
 50
27.3343214883578192
 51
54.5412082836778893
  0
ARC
  5
EDBC
  8
0
 10
513.1670411422159077
 20
70.8065544889322354
 30
0.0
 40
0.0012741098134895
 50
346.6672053523773229
 51
27.3343214883665517
  0
ARC
  5
EDBD
  8
0
 10
512.6097327519720466
 20
70.9168746373853054
 30
0.0
 40
0.5693957284598578
 50
343.4934221749094831
 51
348.7981785123564009
  0
ARC
  5
EDBE
  8
0
 10
512.804885025158228
 20
65.6907664394892947
 30
0.0
 40
5.0861799563502821
 50
87.6457663941396987
 51
90.0394876318096351
  0
ARC
  5
EDBF
  8
0
 10
512.9396336845605902
 20
68.9682763043699367
 30
0.0
 40
1.8059012920324671
 50
85.0720369958185643
 51
87.6458550912745551
  0
ARC
  5
EDC0
  8
0
 10
513.0441896883889967
 20
70.1809149593409813
 30
0.0
 40
0.5887634750755928
 50
80.822008699008336
 51
85.0720369958185643
  0
ARC
  5
EDC1
  8
0
 10
513.1261923924685107
 20
70.6884501425219867
 30
0.0
 40
0.0746463623056485
 50
69.0790377761167065
 51
80.8220086990049964
  0
ARC
  5
EDC2
  8
0
 10
513.1506787430906797
 20
70.752503228880812
 30
0.0
 40
0.006072466114135
 50
37.7142202413666894
 51
69.0790377761132248
  0
ARC
  5
EDC3
  8
0
 10
513.1542904357432917
 20
70.7554514398694181
 30
0.0
 40
0.001417206589
 50
345.4263794652654838
 51
32.7397143215899433
  0
ARC
  5
EDC4
  8
0
 10
513.1532745493391303
 20
70.7559425506993023
 30
0.0
 40
0.0025335249673184
 50
316.384549286867184
 51
340.4518735454561806
  0
ARC
  5
EDC5
  8
0
 10
513.1456999523593367
 20
70.7663005860439682
 30
0.0
 40
0.0153321256268104
 50
284.7336326831427868
 51
307.8551907832198822
  0
ARC
  5
EDC6
  8
0
 10
513.1124919973829037
 20
70.8817078935329334
 30
0.0
 40
0.1354185495793275
 50
277.9121811228566798
 51
285.9035847511137831
  0
ARC
  5
EDC7
  8
0
 10
513.0761105235485502
 20
71.1064650917436438
 30
0.0
 40
0.3630799713377701
 50
277.3766742866085906
 51
278.7164046701516895
  0
ARC
  5
EDC8
  8
0
 10
512.8021328364179681
 20
65.7107119147070335
 30
0.0
 40
5.0643227205404528
 50
88.6414324085736922
 51
90.0085208603099716
  0
ARC
  5
EDC9
  8
0
 10
512.8504420002926736
 20
67.7477047458059758
 30
0.0
 40
3.0267571217773859
 50
86.0767110601395871
 51
88.6414324085736922
  0
ARC
  5
EDCA
  8
0
 10
513.0187993905399253
 20
70.2025550635619453
 30
0.0
 40
0.5661404727567803
 50
81.1775832451416761
 51
86.0767110601395871
  0
ARC
  5
EDCB
  8
0
 10
513.0921960701693934
 20
70.675444921119464
 30
0.0
 40
0.0875886051797822
 50
70.4723658650634803
 51
81.1775832451416761
  0
ARC
  5
EDCC
  8
0
 10
513.1195782250529192
 20
70.752651379951331
 30
0.0
 40
0.0056702330559816
 50
41.4350855247935499
 51
70.4723658650704294
  0
ARC
  5
EDCD
  8
0
 10
513.1226271193660295
 20
70.7553426618108858
 30
0.0
 40
0.0016034462924397
 50
340.2503061423818735
 51
41.4350855247886471
  0
ARC
  5
EDCE
  8
0
 10
512.9674625514187483
 20
70.7767280652772115
 30
0.0
 40
0.1582006646646773
 50
338.407235506449922
 51
352.032932864579891
  0
ARC
  5
EDCF
  8
0
 10
512.967170589455236
 20
70.7768653214347978
 30
0.0
 40
0.1585226501334899
 50
316.6346750575125952
 51
338.3999417867128159
  0
ARC
  5
EDD0
  8
0
 10
512.8014390099908724
 20
66.0859871913197878
 30
0.0
 40
4.6000846755922256
 50
89.4297137830538986
 51
90.0007389125507444
  0
ARC
  5
EDD1
  8
0
 10
512.805498176902347
 20
66.4937955221467547
 30
0.0
 40
4.1922561435743102
 50
88.5673552520723177
 51
89.4297133016457337
  0
ARC
  5
EDD2
  8
0
 10
512.8351461209302897
 20
67.6792590027547476
 30
0.0
 40
3.0064219796035281
 50
87.1972649526333186
 51
88.5673552520723177
  0
ARC
  5
EDD3
  8
0
 10
512.9169292994496345
 20
69.3498032258592758
 30
0.0
 40
1.33387706551702
 50
84.3535696910288664
 51
87.1972649526365728
  0
ARC
  5
EDD4
  8
0
 10
513.0239459231082719
 20
70.4322106785760411
 30
0.0
 40
0.2461921610358885
 50
78.3902545716248511
 51
84.3535696910288664
  0
ARC
  5
EDD5
  8
0
 10
513.0662552363420446
 20
70.6381477423707764
 30
0.0
 40
0.0359538385760982
 50
65.3302225904827907
 51
78.3902545716248511
  0
ARC
  5
EDD6
  8
0
 10
513.0798348508469644
 20
70.6677130112295657
 30
0.0
 40
0.0034190717443749
 50
31.2363157626061998
 51
65.3302225904718625
  0
ARC
  5
EDD7
  8
0
 10
513.0817291206558366
 20
70.6689818955553193
 30
0.0
 40
0.0011460040947253
 50
359.6298494394691829
 51
26.0982410934407199
  0
ARC
  5
EDD8
  8
0
 10
513.0817713796003545
 20
70.6690003761023746
 30
0.0
 40
0.00110402470572
 50
335.4178085692748255
 51
358.6565659720941994
  0
ARC
  5
EDD9
  8
0
 10
513.0810364645611799
 20
70.669348396805205
 30
0.0
 40
0.0019171371927271
 50
317.3073566584366745
 51
335.0963908127798732
  0
ARC
  5
EDDA
  8
0
 10
513.0773884937703997
 20
70.6736992035005045
 30
0.0
 40
0.007587064955138
 50
295.3139994077470192
 51
311.4918602502917224
  0
ARC
  5
EDDB
  8
0
 10
513.0607505930471461
 20
70.7175378404965898
 30
0.0
 40
0.0544563723164477
 50
279.1716945390119236
 51
291.4136770398720842
  0
ARC
  5
EDDC
  8
0
 10
512.9780339990647917
 20
71.2483206480415134
 30
0.0
 40
0.5916450038215318
 50
273.2027426510475721
 51
278.8865672238364937
  0
ARC
  5
EDDD
  8
0
 10
512.8460117098603632
 20
73.2923544488689345
 30
0.0
 40
2.6399209872570562
 50
271.0778873738865968
 51
273.585105291732873
  0
ARC
  5
EDDE
  8
0
 10
512.8036079778938756
 20
74.9773173609052463
 30
0.0
 40
4.3253966536827058
 50
270.2600104455735845
 51
271.2196159861302931
  0
ARC
  5
EDDF
  8
0
 10
512.8014215386340311
 20
75.2822917197444355
 30
0.0
 40
4.6303778638795787
 50
269.9994821102351921
 51
270.2699397011660949
  0
ARC
  5
EDE0
  8
0
 10
512.8205896352972104
 20
71.4239468936889352
 30
0.0
 40
0.7641114074048142
 50
292.6318946482451224
 51
303.8634728260880138
  0
ARC
  5
EDE1
  8
0
 10
515.0323896100799175
 20
70.6894608498960366
 30
0.0
 40
1.703583983361963
 50
174.1913149495964035
 51
175.8129815725961009
  0
ARC
  5
EDE2
  8
0
 10
515.4380395119121658
 20
70.6481870873801228
 30
0.0
 40
2.111328224629943
 50
167.114844152005503
 51
174.1911199383229985
  0
ARC
  5
EDE3
  8
0
 10
518.9241952064049883
 20
69.1529293506166312
 30
0.0
 40
5.8825958712653668
 50
159.6986025694590126
 51
160.4749112243200102
  0
ARC
  5
EDE4
  8
0
 10
513.0186819984985505
 20
71.3243358897428266
 30
0.0
 40
0.4096468448862917
 50
341.4399776552717185
 51
356.2547991447884215
  0
ARC
  5
EDE5
  8
0
 10
513.3414632413795289
 20
71.3019830191817192
 30
0.0
 40
0.0861035155555152
 50
357.0674543290733141
 51
7.7412333795693531
  0
ARC
  5
EDE6
  8
0
 10
513.4150409098489263
 20
71.3121112193714595
 30
0.0
 40
0.0118327947350108
 50
7.135787367259729
 51
31.0737852755391195
  0
ARC
  5
EDE7
  8
0
 10
513.4236605433152363
 20
71.3170332399025568
 30
0.0
 40
0.001923780326276
 50
38.0369920924300118
 51
110.1891437721650959
  0
ARC
  5
EDE8
  8
0
 10
513.4337294538969445
 20
71.3053060568610988
 30
0.0
 40
0.0172722225898126
 50
128.4179647205523054
 51
155.2488787117113986
  0
ARC
  5
EDE9
  8
0
 10
516.1923221675496052
 20
70.0474714533745981
 30
0.0
 40
3.0491001760150049
 50
155.4870958355338075
 51
156.7014782749211008
  0
ARC
  5
EDEA
  8
0
 10
512.8084328697739238
 20
71.5114328034587743
 30
0.0
 40
0.6379138386161494
 50
316.5265233793649031
 51
336.1461339520290039
  0
ARC
  5
EDEB
  8
0
 10
512.8110301230153709
 20
71.5115587946420987
 30
0.0
 40
0.6361184878978026
 50
291.7622686462249817
 51
316.3573348352102812
  0
ARC
  5
EDEC
  8
0
 10
512.8016687608683242
 20
71.5328982226742909
 30
0.0
 40
0.6594083071824937
 50
269.9748844776764258
 51
291.8302556631455218
  0
ARC
  5
EDED
  8
0
 10
513.3817937063095087
 20
71.4439234577817786
 30
0.0
 40
0.002494231437208
 50
98.1542073927797531
 51
142.4187123452832111
  0
ARC
  5
EDEE
  8
0
 10
513.4069883449644749
 20
71.4310767748144144
 30
0.0
 40
0.0307362157650125
 50
152.1306034880900881
 51
170.939693261398503
  0
ARC
  5
EDEF
  8
0
 10
515.836879682261042
 20
71.0147631741316303
 30
0.0
 40
2.4960311150719918
 50
170.286049903795913
 51
171.2663714756880893
  0
ARC
  5
EDF0
  8
0
 10
512.7425238612087242
 20
71.4995444129143891
 30
0.0
 40
0.6361232440627822
 50
321.8085507315744849
 51
350.4277710733941262
  0
ARC
  5
EDF1
  8
0
 10
512.8054634541342693
 20
71.4951717176524397
 30
0.0
 40
0.5850290805301734
 50
269.6000461641127117
 51
318.3317946459940231
  0
ARC
  5
EDF2
  8
0
 10
513.1012133721116015
 20
71.2580715950427646
 30
0.0
 40
1.3375027816574221
 50
84.1830988581386492
 51
89.9997243392181474
  0
ARC
  5
EDF3
  8
0
 10
513.1995380556546706
 20
72.2232282231698264
 30
0.0
 40
0.367350700686908
 50
74.2668141831212409
 51
84.1830988278957761
  0
ARC
  5
EDF4
  8
0
 10
513.2802970328730225
 20
72.5098999501939545
 30
0.0
 40
0.0695207299379357
 50
50.7953051682941208
 51
74.2668141831212409
  0
ARC
  5
EDF5
  8
0
 10
513.301993983151533
 20
72.5364985894058236
 30
0.0
 40
0.0351951526039388
 50
15.4020169399519702
 51
50.7953051682941208
  0
ARC
  5
EDF6
  8
0
 10
556.8760294559508566
 20
82.2239539820366048
 30
0.0
 40
44.6027628813577266
 50
192.5319792656551101
 51
192.8419423641057051
  0
ARC
  5
EDF7
  8
0
 10
558.3175541652758511
 20
84.2062096941735376
 30
0.0
 40
46.4767845891872327
 50
194.8299283011116927
 51
195.9492631393922011
  0
ARC
  5
EDF8
  8
0
 10
513.5023346122843577
 20
71.4235584012520377
 30
0.0
 40
0.1328131026627283
 50
348.5230927559339875
 51
355.4569933039613829
  0
ARC
  5
EDF9
  8
0
 10
513.5572518681453857
 20
71.4074738461148115
 30
0.0
 40
0.0776781531631586
 50
4.1081266668126206
 51
20.7848837268883813
  0
ARC
  5
EDFA
  8
0
 10
513.5476287163697862
 20
71.4165798850189333
 30
0.0
 40
0.0870632491261816
 50
327.3910803215749183
 51
347.0926948787969195
  0
ARC
  5
EDFB
  8
0
 10
513.5302063100715486
 20
71.4334650942585938
 30
0.0
 40
0.1109441958538142
 50
298.7203069569663967
 51
324.8935190091859795
  0
ARC
  5
EDFC
  8
0
 10
513.1054539557918588
 20
71.3511491093816943
 30
0.0
 40
1.1493285820629331
 50
82.4855028068450338
 51
90.0000455839775668
  0
ARC
  5
EDFD
  8
0
 10
513.2201603133056551
 20
72.2207301196081062
 30
0.0
 40
0.2722147457791623
 50
69.419877225533952
 51
82.4855028068450338
  0
ARC
  5
EDFE
  8
0
 10
513.2591773449929633
 20
72.3246426946645187
 30
0.0
 40
0.1612185655901501
 50
52.7978840676419026
 51
69.419877225533952
  0
ARC
  5
EDFF
  8
0
 10
512.7777946446411761
 20
65.1301129945929631
 30
0.0
 40
6.3940320291154142
 50
88.4726148854622778
 51
89.7886581828730357
  0
ARC
  5
EE00
  8
0
 10
512.8586693538275085
 20
68.1631933486392825
 30
0.0
 40
3.3598736363007449
 50
83.4816354545336168
 51
88.4726148897791944
  0
ARC
  5
EE01
  8
0
 10
513.0403632566834631
 20
69.7533685755670234
 30
0.0
 40
1.759351869291701
 50
76.6025626632444556
 51
83.4816354545336168
  0
LINE
  5
EE02
  8
0
 10
512.80531669309687
 20
70.6846368394442806
 30
0.0
 11
512.805291119062872
 21
70.6811729352575924
 31
0.0
  0
LINE
  5
EE03
  8
0
 10
512.805291119062872
 20
70.6811729352575924
 30
0.0
 11
512.845701598497044
 21
70.6808745843442807
 31
0.0
  0
LINE
  5
EE04
  8
0
 10
512.845701598497044
 20
70.6808745843442807
 30
0.0
 11
512.8604855555970516
 21
70.6842221451442754
 31
0.0
  0
LINE
  5
EE05
  8
0
 10
512.8604855555970516
 20
70.6842221451442754
 30
0.0
 11
512.80531669309687
 21
70.6846368394442806
 31
0.0
  0
LINE
  5
EE06
  8
0
 10
512.80531669309687
 20
70.680814374644271
 30
0.0
 11
512.80531669309687
 21
70.6775838997911592
 31
0.0
  0
LINE
  5
EE07
  8
0
 10
512.80531669309687
 20
70.6775838997911592
 30
0.0
 11
512.866843509832961
 21
70.676583653091086
 31
0.0
  0
LINE
  5
EE08
  8
0
 10
512.8668396468968922
 20
70.6763496162442806
 30
0.0
 11
512.8953911952970657
 21
70.6793500257442844
 31
0.0
  0
ARC
  5
EE09
  8
0
 10
512.8040386070730392
 20
67.8311498619611655
 30
0.0
 40
2.8496647992964701
 50
88.1629366861288446
 51
89.9743026135917319
  0
LINE
  5
EE0A
  8
0
 10
512.8609130287968583
 20
70.6806272907442832
 30
0.0
 11
512.8756969858969796
 21
70.6839748516442796
 31
0.0
  0
LINE
  5
EE0B
  8
0
 10
512.9268921165969459
 20
70.682660377344277
 30
0.0
 11
512.8983445361969871
 21
70.6796603848442828
 31
0.0
  0
LINE
  5
EE0C
  8
0
 10
512.8983445361969871
 20
70.6796603848442828
 30
0.0
 11
512.8609130287968583
 21
70.6806272907442832
 31
0.0
  0
LINE
  5
EE0D
  8
0
 10
512.8756969858969796
 20
70.6839748516442796
 30
0.0
 11
512.9268921165969459
 21
70.682660377344277
 31
0.0
  0
ARC
  5
EE0E
  8
0
 10
512.8023926692319492
 20
68.6987758249335769
 30
0.0
 40
1.9782193468693829
 50
88.2186733520663608
 51
90.0293393715650438
  0
LINE
  5
EE0F
  8
0
 10
512.8638856309969469
 20
70.6760391862442816
 30
0.0
 11
512.8323626662969446
 21
70.6727265181442732
 31
0.0
  0
LINE
  5
EE10
  8
0
 10
512.8323626662969446
 20
70.6727265181442732
 30
0.0
 11
512.8013796851970483
 21
70.6731730372442826
 31
0.0
  0
LINE
  5
EE11
  8
0
 10
513.0592236456968749
 20
70.6692317283442719
 30
0.0
 11
513.0021284848970708
 21
70.6692317283442719
 31
0.0
  0
ARC
  5
EE12
  8
0
 10
512.9956966395778863
 20
70.6624850498029673
 30
0.0
 40
0.0093212823982749
 50
46.368528413964242
 51
80.6303340060974563
  0
LINE
  5
EE13
  8
0
 10
512.9972141780970105
 20
70.6716819722442722
 30
0.0
 11
513.0523886572968877
 21
70.6725789484442828
 31
0.0
  0
ARC
  5
EE14
  8
0
 10
513.0483928460140532
 20
70.6532956759543822
 30
0.0
 40
0.0196929201930083
 50
59.2734380131195806
 51
78.2930554624070254
  0
ARC
  5
EE15
  8
0
 10
513.0575798872789619
 20
70.6687520897399395
 30
0.0
 40
0.0017123069021664
 50
16.2669204692940816
 51
59.2734380131157508
  0
ARC
  5
EE16
  8
0
 10
513.0011123716471957
 20
70.4213901392076593
 30
0.0
 40
0.2564920998533635
 50
79.3958349801121841
 51
84.2864166494756546
  0
LINE
  5
EE17
  8
0
 10
512.9772017496604803
 20
70.6748759387500058
 30
0.0
 11
512.9931382876969792
 21
70.6726048842442793
 31
0.0
  0
LINE
  5
EE18
  8
0
 10
512.9931382876969792
 20
70.6726048842442793
 30
0.0
 11
513.0483127667970393
 21
70.6735018604442757
 31
0.0
  0
LINE
  5
EE19
  8
0
 10
512.9772017503905772
 20
70.674875938645954
 30
0.0
 11
513.02664760909704
 21
70.6766079852442743
 31
0.0
  0
LINE
  5
EE1A
  8
0
 10
513.0227106011969909
 20
70.6770217153442815
 30
0.0
 11
512.989206896397036
 21
70.6797131458442749
 31
0.0
  0
LINE
  5
EE1B
  8
0
 10
512.989206896397036
 20
70.6797131458442749
 30
0.0
 11
512.9488163744050553
 21
70.677262561244774
 31
0.0
  0
LINE
  5
EE1C
  8
0
 10
512.9488163744050553
 20
70.677262561244774
 30
0.0
 11
512.9732647415969495
 21
70.6752896688442718
 31
0.0
  0
LINE
  5
EE1D
  8
0
 10
512.9732647415969495
 20
70.6752896688442718
 30
0.0
 11
513.0227106011969909
 21
70.6770217153442815
 31
0.0
  0
LINE
  5
EE1E
  8
0
 10
512.9780713564970256
 20
70.6803887643442721
 30
0.0
 11
512.9337112142969772
 21
70.6824215101442803
 31
0.0
  0
LINE
  5
EE1F
  8
0
 10
512.9337112142969772
 20
70.6824215101442803
 30
0.0
 11
512.9051636338970184
 21
70.6794215176442719
 31
0.0
  0
LINE
  5
EE20
  8
0
 10
512.9051636338970184
 20
70.6794215176442719
 30
0.0
 11
512.9376808344969731
 21
70.6779381797442738
 31
0.0
  0
LINE
  5
EE21
  8
0
 10
512.9376808344969731
 20
70.6779381797442738
 30
0.0
 11
512.9780713564970256
 21
70.6803887643442721
 31
0.0
  0
LINE
  5
EE22
  8
0
 10
512.9681494050970514
 20
70.6751104829442767
 30
0.0
 11
512.9186966725969796
 21
70.6784322744442761
 31
0.0
  0
LINE
  5
EE23
  8
0
 10
512.9186966725969796
 20
70.6784322744442761
 30
0.0
 11
512.9022102929969833
 21
70.6791111585442735
 31
0.0
  0
LINE
  5
EE24
  8
0
 10
512.9022102929969833
 20
70.6791111585442735
 30
0.0
 11
512.8736587446687736
 21
70.6761107490518299
 31
0.0
  0
LINE
  5
EE25
  8
0
 10
512.8736587446687736
 20
70.6761107490518299
 30
0.0
 11
512.9186966725969796
 21
70.6733781957442773
 31
0.0
  0
LINE
  5
EE26
  8
0
 10
512.9186966725969796
 20
70.6733781957442773
 30
0.0
 11
512.9681494050970514
 21
70.6751104829442767
 31
0.0
  0
ARC
  5
EE27
  8
0
 10
512.943940041563792
 20
70.414722846700414
 30
0.0
 40
0.2614931167364627
 50
81.5097827300989479
 51
83.8208750723010638
  0
ARC
  5
EE28
  8
0
 10
512.9688696734973519
 20
70.5817259587638119
 30
0.0
 40
0.0926395529979352
 50
75.1681245756647485
 51
81.5097827300989479
  0
ARC
  5
EE29
  8
0
 10
512.9898245954724416
 20
70.6608588727128932
 30
0.0
 40
0.0107791423890896
 50
57.2877704708784989
 51
75.1681245756681164
  0
ARC
  5
EE2A
  8
0
 10
512.9948575435892053
 20
70.668694815569296
 30
0.0
 40
0.001466110273024
 50
21.4824254748945194
 51
57.287770470893868
  0
LINE
  5
EE2B
  8
0
 10
512.9962218030970007
 20
70.6692317283442719
 30
0.0
 11
512.9391187062969948
 21
70.6692317283488478
 31
0.0
  0
ARC
  5
EE2C
  8
0
 10
512.9368256643583663
 20
70.6674345071390064
 30
0.0
 40
0.0029134250305996
 50
38.088341389457689
 51
72.7714080531760459
  0
ARC
  5
EE2D
  8
0
 10
512.9215975366263365
 20
70.6183271393441885
 30
0.0
 40
0.0543277172649784
 50
72.7714080531760459
 51
79.4371001004965933
  0
ARC
  5
EE2E
  8
0
 10
512.9141134762591037
 20
70.5781927057439731
 30
0.0
 40
0.0951539823401795
 50
79.4371001004965933
 51
84.8627852744888429
  0
LINE
  5
EE2F
  8
0
 10
512.9226336804970288
 20
70.6729644656442844
 30
0.0
 11
512.9720864129969868
 21
70.6746967528442838
 31
0.0
  0
ARC
  5
EE30
  8
0
 10
512.9317490623416234
 20
70.6683838000761995
 30
0.0
 40
0.0016897610602344
 50
30.11940045555232
 51
74.6861873347551466
  0
ARC
  5
EE31
  8
0
 10
512.9244142698064479
 20
70.6509319805839624
 30
0.0
 40
0.0206070824352748
 50
67.8153997311412837
 51
79.2120643690210926
  0
ARC
  5
EE32
  8
0
 10
512.9001270176951266
 20
70.5216097243648363
 30
0.0
 40
0.1521901367724951
 50
79.3430061894188015
 51
85.1193636257418262
  0
ARC
  5
EE33
  8
0
 10
512.8449731691988518
 20
69.8956531897333093
 30
0.0
 40
0.7805713654281444
 50
84.9947730877959913
 51
88.1109005839565356
  0
LINE
  5
EE34
  8
0
 10
512.8707047286969782
 20
70.6758003190442849
 30
0.0
 11
512.8391817639991359
 21
70.6724876509445039
 31
0.0
  0
ARC
  5
EE35
  8
0
 10
512.8178702614013673
 20
70.1303079034993289
 30
0.0
 40
0.5425984322520212
 50
86.5712693003206653
 51
87.7490290305123466
  0
ARC
  5
EE36
  8
0
 10
512.8338494609009786
 20
70.3970093790061071
 30
0.0
 40
0.2754186952693167
 50
84.3001936119079858
 51
86.5712693003206653
  0
ARC
  5
EE37
  8
0
 10
512.8536008505659538
 20
70.5948995506734605
 30
0.0
 40
0.0765452746313953
 50
79.7116988578528236
 51
84.3001936119079858
  0
ARC
  5
EE38
  8
0
 10
512.8647690658680176
 20
70.6564256779798541
 30
0.0
 40
0.0140137355942572
 50
70.0612529128467685
 51
79.7116988578528236
  0
ARC
  5
EE39
  8
0
 10
512.8688981946014565
 20
70.6678082134053653
 30
0.0
 40
0.0019053989285387
 50
48.3394046333355405
 51
70.0612529128225532
  0
LINE
  5
EE3A
  8
0
 10
512.8701647450968721
 20
70.6692317283926741
 30
0.0
 11
512.9332106744968769
 21
70.6692317283442719
 31
0.0
  0
LINE
  5
EE3B
  8
0
 10
512.7911510386969667
 20
70.6705454980442767
 30
0.0
 11
512.8116083316970162
 21
70.6705454980442767
 31
0.0
  0
LINE
  5
EE3C
  8
0
 10
512.8116083316970162
 20
70.6705454980442767
 30
0.0
 11
512.8294046233969539
 21
70.6724156649442818
 31
0.0
  0
LINE
  5
EE3D
  8
0
 10
512.8294046233969539
 20
70.6724156649442818
 30
0.0
 11
512.8116083316970162
 21
70.6727632408442759
 31
0.0
  0
LINE
  5
EE3E
  8
0
 10
512.8116083316970162
 20
70.6727632408442759
 30
0.0
 11
512.8013796851970483
 21
70.6728147364442805
 31
0.0
  0
LINE
  5
EE3F
  8
0
 10
512.8184274292974578
 20
70.6703066308443226
 30
0.0
 11
512.8286560757968573
 21
70.6713815332442721
 31
0.0
  0
LINE
  5
EE40
  8
0
 10
512.8286560757968573
 20
70.6713815332442721
 30
0.0
 11
512.8362237210969852
 21
70.6721767977442852
 31
0.0
  0
ARC
  5
EE41
  8
0
 10
512.8209072706702045
 20
70.2682402896058136
 30
0.0
 40
0.4042267881533398
 50
85.6546405483246218
 51
87.8285009390299791
  0
ARC
  5
EE42
  8
0
 10
512.8437683327855439
 20
70.5612471404598409
 30
0.0
 40
0.1103316592656987
 50
80.9591080184535912
 51
85.963504448209676
  0
ARC
  5
EE43
  8
0
 10
512.8583911635397499
 20
70.6538174180923448
 30
0.0
 40
0.0166139454230578
 50
72.1040720207398351
 51
80.5960691003275116
  0
ARC
  5
EE44
  8
0
 10
512.8627968534954107
 20
70.6673852185964222
 30
0.0
 40
0.0023489015165665
 50
51.8240397087328617
 51
72.6721958638581924
  0
LINE
  5
EE45
  8
0
 10
512.8642486592970045
 20
70.6692317283442719
 30
0.0
 11
512.8286560757968573
 21
70.6692317283442719
 31
0.0
  0
ARC
  5
EE46
  8
0
 10
512.8261335025623566
 20
70.6619375972915833
 30
0.0
 40
0.007718012926795
 50
70.9227713153075712
 51
82.9755209785518275
  0
ARC
  5
EE47
  8
0
 10
512.8140739101270356
 20
70.5640658044601565
 30
0.0
 40
0.1063299878676972
 50
82.9755209785518275
 51
87.653455776423101
  0
LINE
  5
EE48
  8
0
 10
512.8286560757968573
 20
70.6692317283442719
 30
0.0
 11
512.8286560757968573
 21
70.6713815332442721
 31
0.0
  0
LINE
  5
EE49
  8
0
 10
512.8323626662969446
 20
70.676768136244263
 30
0.0
 11
512.8323626662969446
 21
70.6727265181442732
 31
0.0
  0
LINE
  5
EE4A
  8
0
 10
512.845701598497044
 20
70.6843332734594725
 30
0.0
 11
512.845701598497044
 21
70.6808745843442807
 31
0.0
  0
LINE
  5
EE4B
  8
0
 10
512.8983445361969871
 20
70.6833933583963727
 30
0.0
 11
512.8983445361969871
 21
70.6796603848442828
 31
0.0
  0
LINE
  5
EE4C
  8
0
 10
512.9376808344969731
 20
70.6822396074634298
 30
0.0
 11
512.9376808344969731
 21
70.6779381797442738
 31
0.0
  0
LINE
  5
EE4D
  8
0
 10
512.9732647415969495
 20
70.6787458991460653
 30
0.0
 11
512.9732647415969495
 21
70.6752896688442718
 31
0.0
  0
LINE
  5
EE4E
  8
0
 10
512.9931382876969792
 20
70.6726048842442793
 30
0.0
 11
512.9931382876969792
 21
70.6754341820651746
 31
0.0
  0
LINE
  5
EE4F
  8
0
 10
513.0021284848970708
 20
70.6692317283442719
 30
0.0
 11
513.0021284848970708
 21
70.6717618645478041
 31
0.0
  0
LINE
  5
EE50
  8
0
 10
512.9391187062969948
 20
70.6692317283488478
 30
0.0
 11
512.9391187062969948
 21
70.6735419220908909
 31
0.0
  0
LINE
  5
EE51
  8
0
 10
512.9186966725969796
 20
70.6784322744442761
 30
0.0
 11
512.9186966725969796
 21
70.6733781957442773
 31
0.0
  0
LINE
  5
EE52
  8
0
 10
512.8668396468968922
 20
70.6801225711576535
 30
0.0
 11
512.8668396468968922
 21
70.6763496162442806
 31
0.0
  0
LINE
  5
EE53
  8
0
 10
512.8701647450968721
 20
70.682722175323164
 30
0.0
 11
512.8701647450968721
 21
70.6803883065382763
 31
0.0
  0
LINE
  5
EE54
  8
0
 10
512.8116083316970162
 20
70.6727632408442759
 30
0.0
 11
512.8116083316970162
 21
70.6705454980442767
 31
0.0
  0
LINE
  5
EE55
  8
0
 10
512.80531669309687
 20
70.6533488828442842
 30
0.0
 11
512.805291119062872
 21
70.6568127870309723
 31
0.0
  0
LINE
  5
EE56
  8
0
 10
512.805291119062872
 20
70.6568127870309723
 30
0.0
 11
512.845701598497044
 21
70.657111137944284
 31
0.0
  0
LINE
  5
EE57
  8
0
 10
512.845701598497044
 20
70.657111137944284
 30
0.0
 11
512.8604855555970516
 21
70.6537635771442751
 31
0.0
  0
LINE
  5
EE58
  8
0
 10
512.8604855555970516
 20
70.6537635771442751
 30
0.0
 11
512.80531669309687
 21
70.6533488828442842
 31
0.0
  0
LINE
  5
EE59
  8
0
 10
512.80531669309687
 20
70.6571713476442795
 30
0.0
 11
512.80531669309687
 21
70.6604018224973913
 31
0.0
  0
LINE
  5
EE5A
  8
0
 10
512.80531669309687
 20
70.6604018224973913
 30
0.0
 11
512.866843509832961
 21
70.6614020691974645
 31
0.0
  0
LINE
  5
EE5B
  8
0
 10
512.8668396468968922
 20
70.6616361060442841
 30
0.0
 11
512.8953911952970657
 21
70.6586356965442803
 31
0.0
  0
ARC
  5
EE5C
  8
0
 10
512.8040386070730392
 20
73.5068358603273992
 30
0.0
 40
2.8496647992964701
 50
270.0256973864082966
 51
271.8370633138711128
  0
LINE
  5
EE5D
  8
0
 10
512.8609130287968583
 20
70.6573584315442815
 30
0.0
 11
512.8756969858969796
 21
70.6540108706442851
 31
0.0
  0
LINE
  5
EE5E
  8
0
 10
512.9268921165969459
 20
70.6553253449442735
 30
0.0
 11
512.8983445361969871
 21
70.6583253374442819
 31
0.0
  0
LINE
  5
EE5F
  8
0
 10
512.8983445361969871
 20
70.6583253374442819
 30
0.0
 11
512.8609130287968583
 21
70.6573584315442815
 31
0.0
  0
LINE
  5
EE60
  8
0
 10
512.8756969858969796
 20
70.6540108706442851
 30
0.0
 11
512.9268921165969459
 21
70.6553253449442735
 31
0.0
  0
ARC
  5
EE61
  8
0
 10
512.8023926692319492
 20
72.6392098973549736
 30
0.0
 40
1.9782193468693829
 50
269.9706606284349846
 51
271.7813266479336107
  0
LINE
  5
EE62
  8
0
 10
512.8638856309969469
 20
70.6619465360442831
 30
0.0
 11
512.8323626662969446
 21
70.6652592041442631
 31
0.0
  0
LINE
  5
EE63
  8
0
 10
512.8323626662969446
 20
70.6652592041442631
 30
0.0
 11
512.8013796851970483
 21
70.6648126850442821
 31
0.0
  0
LINE
  5
EE64
  8
0
 10
513.0592236456968749
 20
70.6687539939442786
 30
0.0
 11
513.0021284848970708
 21
70.6687539939442786
 31
0.0
  0
ARC
  5
EE65
  8
0
 10
512.9956966395778863
 20
70.6755006724855832
 30
0.0
 40
0.0093212823982749
 50
279.3696659939058122
 51
313.6314715860356728
  0
LINE
  5
EE66
  8
0
 10
512.9972141780970105
 20
70.6663037500442783
 30
0.0
 11
513.0523886572968877
 21
70.6654067738442819
 31
0.0
  0
ARC
  5
EE67
  8
0
 10
513.0483928460140532
 20
70.6846900463341825
 30
0.0
 40
0.0196929201930083
 50
281.7069445375929035
 51
300.7265619868804265
  0
ARC
  5
EE68
  8
0
 10
513.0575798872789619
 20
70.6692336325486252
 30
0.0
 40
0.0017123069021664
 50
300.7265619868842919
 51
343.7330795307058793
  0
ARC
  5
EE69
  8
0
 10
513.0011123716471957
 20
70.9165955830808912
 30
0.0
 40
0.2564920998533635
 50
275.7135833505242886
 51
280.6041650198877733
  0
LINE
  5
EE6A
  8
0
 10
512.9772017496604803
 20
70.6631097835385447
 30
0.0
 11
512.9931382876969792
 21
70.6653808380442712
 31
0.0
  0
LINE
  5
EE6B
  8
0
 10
512.9931382876969792
 20
70.6653808380442712
 30
0.0
 11
513.0483127667970393
 21
70.6644838618442748
 31
0.0
  0
LINE
  5
EE6C
  8
0
 10
512.9772017503905772
 20
70.6631097836425965
 30
0.0
 11
513.02664760909704
 21
70.6613777370442762
 31
0.0
  0
LINE
  5
EE6D
  8
0
 10
513.0227106011969909
 20
70.6609640069442833
 30
0.0
 11
512.989206896397036
 21
70.6582725764442756
 31
0.0
  0
LINE
  5
EE6E
  8
0
 10
512.989206896397036
 20
70.6582725764442756
 30
0.0
 11
512.9488163744050553
 21
70.6607231610437765
 31
0.0
  0
LINE
  5
EE6F
  8
0
 10
512.9488163744050553
 20
70.6607231610437765
 30
0.0
 11
512.9732647415969495
 21
70.6626960534442787
 31
0.0
  0
LINE
  5
EE70
  8
0
 10
512.9732647415969495
 20
70.6626960534442787
 30
0.0
 11
513.0227106011969909
 21
70.6609640069442833
 31
0.0
  0
LINE
  5
EE71
  8
0
 10
512.9780713564970256
 20
70.6575969579442784
 30
0.0
 11
512.9337112142969772
 21
70.6555642121442844
 31
0.0
  0
LINE
  5
EE72
  8
0
 10
512.9337112142969772
 20
70.6555642121442844
 30
0.0
 11
512.9051636338970184
 21
70.6585642046442644
 31
0.0
  0
LINE
  5
EE73
  8
0
 10
512.9051636338970184
 20
70.6585642046442644
 30
0.0
 11
512.9376808344969731
 21
70.6600475425442767
 31
0.0
  0
LINE
  5
EE74
  8
0
 10
512.9376808344969731
 20
70.6600475425442767
 30
0.0
 11
512.9780713564970256
 21
70.6575969579442784
 31
0.0
  0
LINE
  5
EE75
  8
0
 10
512.9681494050970514
 20
70.6628752393442738
 30
0.0
 11
512.9186966725969796
 21
70.6595534478442744
 31
0.0
  0
LINE
  5
EE76
  8
0
 10
512.9186966725969796
 20
70.6595534478442744
 30
0.0
 11
512.9022102929969833
 21
70.658874563744277
 31
0.0
  0
LINE
  5
EE77
  8
0
 10
512.9022102929969833
 20
70.658874563744277
 30
0.0
 11
512.8736587446687736
 21
70.6618749732367206
 31
0.0
  0
LINE
  5
EE78
  8
0
 10
512.8736587446687736
 20
70.6618749732367206
 30
0.0
 11
512.9186966725969796
 21
70.6646075265442732
 31
0.0
  0
LINE
  5
EE79
  8
0
 10
512.9186966725969796
 20
70.6646075265442732
 30
0.0
 11
512.9681494050970514
 21
70.6628752393442738
 31
0.0
  0
ARC
  5
EE7A
  8
0
 10
512.943940041563792
 20
70.9232628755881507
 30
0.0
 40
0.2614931167364627
 50
276.179124927698922
 51
278.4902172699009952
  0
ARC
  5
EE7B
  8
0
 10
512.9688696734973519
 20
70.7562597635247528
 30
0.0
 40
0.0926395529979352
 50
278.4902172699009952
 51
284.8318754243352942
  0
ARC
  5
EE7C
  8
0
 10
512.9898245954724416
 20
70.6771268495756573
 30
0.0
 40
0.0107791423890896
 50
284.8318754243318836
 51
302.7122295291214868
  0
ARC
  5
EE7D
  8
0
 10
512.9948575435892053
 20
70.6692909067192545
 30
0.0
 40
0.001466110273024
 50
302.7122295291060823
 51
338.5175745251054877
  0
LINE
  5
EE7E
  8
0
 10
512.9962218030970007
 20
70.6687539939442786
 30
0.0
 11
512.9391187062969948
 21
70.6687539939397169
 31
0.0
  0
ARC
  5
EE7F
  8
0
 10
512.9368256643583663
 20
70.6705512151495441
 30
0.0
 40
0.0029134250305996
 50
287.2285919468238831
 51
321.9116586105423039
  0
ARC
  5
EE80
  8
0
 10
512.9215975366263365
 20
70.719658582944362
 30
0.0
 40
0.0543277172649784
 50
280.5628998995034067
 51
287.2285919468238831
  0
ARC
  5
EE81
  8
0
 10
512.9141134762591037
 20
70.7597930165445774
 30
0.0
 40
0.0951539823401795
 50
275.1372147255112282
 51
280.5628998995034067
  0
LINE
  5
EE82
  8
0
 10
512.9226336804970288
 20
70.6650212566442804
 30
0.0
 11
512.9720864129969868
 21
70.663288969444281
 31
0.0
  0
ARC
  5
EE83
  8
0
 10
512.9317490623416234
 20
70.6696019222123653
 30
0.0
 40
0.0016897610602344
 50
285.313812665244825
 51
329.8805995444477048
  0
ARC
  5
EE84
  8
0
 10
512.9244142698064479
 20
70.6870537417045881
 30
0.0
 40
0.0206070824352748
 50
280.7879356309788932
 51
292.1846002688586736
  0
ARC
  5
EE85
  8
0
 10
512.9001270176951266
 20
70.8163759979237142
 30
0.0
 40
0.1521901367724951
 50
274.880636374258188
 51
280.6569938105778874
  0
ARC
  5
EE86
  8
0
 10
512.8449731691988518
 20
71.4423325325552554
 30
0.0
 40
0.7805713654281444
 50
271.8890994160433934
 51
275.0052269122040229
  0
LINE
  5
EE87
  8
0
 10
512.8707047286969782
 20
70.6621854032442656
 30
0.0
 11
512.8391817639991359
 21
70.6654980713440466
 31
0.0
  0
ARC
  5
EE88
  8
0
 10
512.8178702614013673
 20
71.2076778187892216
 30
0.0
 40
0.5425984322520212
 50
272.2509709694875824
 51
273.42873069967942
  0
ARC
  5
EE89
  8
0
 10
512.8338494609009786
 20
70.9409763432824434
 30
0.0
 40
0.2754186952693167
 50
273.42873069967942
 51
275.6998063880919858
  0
ARC
  5
EE8A
  8
0
 10
512.8536008505659538
 20
70.7430861716151043
 30
0.0
 40
0.0765452746313953
 50
275.6998063880919858
 51
280.2883011421471906
  0
ARC
  5
EE8B
  8
0
 10
512.8647690658680176
 20
70.6815600443086964
 30
0.0
 40
0.0140137355942572
 50
280.2883011421471906
 51
289.9387470871532173
  0
ARC
  5
EE8C
  8
0
 10
512.8688981946014565
 20
70.6701775088831994
 30
0.0
 40
0.0019053989285387
 50
289.9387470871774894
 51
311.660595366664495
  0
LINE
  5
EE8D
  8
0
 10
512.8701647450968721
 20
70.6687539938958906
 30
0.0
 11
512.9332106744968769
 21
70.6687539939442786
 31
0.0
  0
LINE
  5
EE8E
  8
0
 10
512.7911510386969667
 20
70.6674402242442738
 30
0.0
 11
512.8116083316970162
 21
70.6674402242442738
 31
0.0
  0
LINE
  5
EE8F
  8
0
 10
512.8116083316970162
 20
70.6674402242442738
 30
0.0
 11
512.8294046233969539
 21
70.6655700573442829
 31
0.0
  0
LINE
  5
EE90
  8
0
 10
512.8294046233969539
 20
70.6655700573442829
 30
0.0
 11
512.8116083316970162
 21
70.6652224814442746
 31
0.0
  0
LINE
  5
EE91
  8
0
 10
512.8116083316970162
 20
70.6652224814442746
 30
0.0
 11
512.8013796851970483
 21
70.6651709858442842
 31
0.0
  0
LINE
  5
EE92
  8
0
 10
512.8184274292974578
 20
70.6676790914442279
 30
0.0
 11
512.8286560757968573
 21
70.6666041890442784
 31
0.0
  0
LINE
  5
EE93
  8
0
 10
512.8286560757968573
 20
70.6666041890442784
 30
0.0
 11
512.8362237210969852
 21
70.6658089245442795
 31
0.0
  0
ARC
  5
EE94
  8
0
 10
512.8209072706702045
 20
71.0697454326827369
 30
0.0
 40
0.4042267881533398
 50
272.1714990609700067
 51
274.3453594516753924
  0
ARC
  5
EE95
  8
0
 10
512.8437683327855439
 20
70.7767385818287238
 30
0.0
 40
0.1103316592656987
 50
274.036495551790324
 51
279.0408919815463946
  0
ARC
  5
EE96
  8
0
 10
512.8583911635397499
 20
70.6841683041962057
 30
0.0
 40
0.0166139454230578
 50
279.4039308996725026
 51
287.8959279792601933
  0
ARC
  5
EE97
  8
0
 10
512.8627968534954107
 20
70.6706005036921425
 30
0.0
 40
0.0023489015165665
 50
287.3278041361418218
 51
308.1759602912670744
  0
LINE
  5
EE98
  8
0
 10
512.8642486592970045
 20
70.6687539939442786
 30
0.0
 11
512.8286560757968573
 21
70.6687539939442786
 31
0.0
  0
ARC
  5
EE99
  8
0
 10
512.8261335025623566
 20
70.6760481249969672
 30
0.0
 40
0.007718012926795
 50
277.0244790214482009
 51
289.0772286846923862
  0
ARC
  5
EE9A
  8
0
 10
512.8140739101270356
 20
70.773919917828394
 30
0.0
 40
0.1063299878676972
 50
272.3465442235769274
 51
277.0244790214482009
  0
LINE
  5
EE9B
  8
0
 10
512.8286560757968573
 20
70.6687539939442786
 30
0.0
 11
512.8286560757968573
 21
70.6666041890442784
 31
0.0
  0
LINE
  5
EE9C
  8
0
 10
512.8323626662969446
 20
70.6612175860442733
 30
0.0
 11
512.8323626662969446
 21
70.6652592041442631
 31
0.0
  0
LINE
  5
EE9D
  8
0
 10
512.845701598497044
 20
70.653652448829078
 30
0.0
 11
512.845701598497044
 21
70.657111137944284
 31
0.0
  0
LINE
  5
EE9E
  8
0
 10
512.8983445361969871
 20
70.6545923638921778
 30
0.0
 11
512.8983445361969871
 21
70.6583253374442819
 31
0.0
  0
LINE
  5
EE9F
  8
0
 10
512.9376808344969731
 20
70.6557461148251349
 30
0.0
 11
512.9376808344969731
 21
70.6600475425442767
 31
0.0
  0
LINE
  5
EEA0
  8
0
 10
512.9732647415969495
 20
70.6592398231424994
 30
0.0
 11
512.9732647415969495
 21
70.6626960534442787
 31
0.0
  0
LINE
  5
EEA1
  8
0
 10
512.9931382876969792
 20
70.6653808380442712
 30
0.0
 11
512.9931382876969792
 21
70.6625515402233759
 31
0.0
  0
LINE
  5
EEA2
  8
0
 10
513.0021284848970708
 20
70.6687539939442786
 30
0.0
 11
513.0021284848970708
 21
70.6662238577407464
 31
0.0
  0
LINE
  5
EEA3
  8
0
 10
512.9391187062969948
 20
70.6687539939397169
 30
0.0
 11
512.9391187062969948
 21
70.6644438001976596
 31
0.0
  0
LINE
  5
EEA4
  8
0
 10
512.9186966725969796
 20
70.6595534478442744
 30
0.0
 11
512.9186966725969796
 21
70.6646075265442732
 31
0.0
  0
LINE
  5
EEA5
  8
0
 10
512.8668396468968922
 20
70.657863151130897
 30
0.0
 11
512.8668396468968922
 21
70.6616361060442841
 31
0.0
  0
LINE
  5
EEA6
  8
0
 10
512.8701647450968721
 20
70.6552635469653865
 30
0.0
 11
512.8701647450968721
 21
70.6575974157502742
 31
0.0
  0
LINE
  5
EEA7
  8
0
 10
512.8116083316970162
 20
70.6652224814442746
 30
0.0
 11
512.8116083316970162
 21
70.6674402242442738
 31
0.0
  0
LINE
  5
EEA8
  8
0
 10
513.8074420183980919
 20
67.174917881744264
 30
0.0
 11
511.7953173519960046
 21
67.174917881744264
 31
0.0
  0
LINE
  5
EEA9
  8
0
 10
513.1012198070826571
 20
72.5955743766847093
 30
0.0
 11
512.5015395633113258
 21
72.5955743766847093
 31
0.0
  0
LINE
  5
EEAA
  8
0
 10
513.8074420183980919
 20
69.3786127401412216
 30
0.0
 11
513.8074420183980919
 21
67.174917881744264
 31
0.0
  0
LINE
  5
EEAB
  8
0
 10
511.7953173519960046
 20
69.3786127401474317
 30
0.0
 11
511.7953173519960046
 21
67.174917881744264
 31
0.0
  0
ARC
  5
EEAC
  8
0
 10
512.4342784799166566
 20
71.2166642921494457
 30
0.0
 40
0.3770304448608317
 50
139.096545656008999
 51
153.8369249312991087
  0
ARC
  5
EEAD
  8
0
 10
513.1805934900486363
 20
71.2302901206732741
 30
0.0
 40
0.3557072091484251
 50
26.0658972098816299
 51
41.2537899414988232
  0
LINE
  5
EEAF
  8
0
 10
512.3289387403468709
 20
70.8108701366442688
 30
0.0
 11
512.3289387362872276
 21
70.8065342821442698
 31
0.0
  0
LINE
  5
EEB0
  8
0
 10
512.3289387362872276
 20
70.8065342821442698
 30
0.0
 11
512.3372692016470182
 21
70.8065342743442727
 31
0.0
  0
LINE
  5
EEB1
  8
0
 10
512.3372692016470182
 20
70.8065342743442727
 30
0.0
 11
512.3289387403468709
 21
70.8108701366442688
 31
0.0
  0
ARC
  5
EEB2
  8
0
 10
512.3425931546604488
 20
70.8032599301962762
 30
0.0
 40
0.006250264417636
 50
114.3839010486394017
 51
148.4076015968103945
  0
ARC
  5
EEB3
  8
0
 10
512.3642326933994582
 20
70.7555201807750507
 30
0.0
 40
0.0586654655680207
 50
100.9933565946228953
 51
114.3839010486394017
  0
ARC
  5
EEB4
  8
0
 10
512.4504454237070377
 20
70.3117194060806838
 30
0.0
 40
0.5107625375408272
 50
94.7931145899837873
 51
100.9933565946228953
  0
ARC
  5
EEB5
  8
0
 10
512.6711854053426123
 20
67.6792031453108365
 30
0.0
 40
3.1525172579322152
 50
92.7739808608822329
 51
94.7931145899837873
  0
ARC
  5
EEB6
  8
0
 10
512.6974916977602561
 20
67.1362788231294587
 30
0.0
 40
3.6960785154155551
 50
91.1565730637661744
 51
92.7739808608822329
  0
ARC
  5
EEB7
  8
0
 10
512.904807510275532
 20
54.3689180187339005
 30
0.0
 40
16.4651000456428385
 50
90.3599138066376071
 51
90.9810814965460537
  0
ARC
  5
EEB8
  8
0
 10
512.4534209006853871
 20
70.1799503746652249
 30
0.0
 40
0.6452215519345962
 50
94.9769147042319162
 51
101.0217751688539067
  0
ARC
  5
EEB9
  8
0
 10
512.6161063863835352
 20
68.3117776581756146
 30
0.0
 40
2.5204644337749729
 50
92.3720033704850039
 51
94.9769147042319162
  0
ARC
  5
EEBA
  8
0
 10
512.8048013344680385
 20
63.7564523982398583
 30
0.0
 40
7.0796961680961576
 50
91.3109176646599678
 51
92.3720033704850039
  0
ARC
  5
EEBB
  8
0
 10
512.8007959563632312
 20
63.1308767737748013
 30
0.0
 40
7.7050381953809373
 50
89.9956593078807146
 51
91.1747160332170949
  0
ARC
  5
EEBC
  8
0
 10
512.3325718732875202
 20
70.810628748017507
 30
0.0
 40
0.0036411431491096
 50
133.4859529971047891
 51
176.1988035303349136
  0
ARC
  5
EEBD
  8
0
 10
512.3320252013888876
 20
70.8068989274171656
 30
0.0
 40
0.0031079306617437
 50
186.737881397508886
 51
242.5394950619038923
  0
ARC
  5
EEBE
  8
0
 10
512.3543333364948467
 20
70.8498248293795712
 30
0.0
 40
0.0514844327179656
 50
242.5395744799641022
 51
256.3534636034983123
  0
ARC
  5
EEBF
  8
0
 10
512.4004432931463953
 20
71.0397454767116869
 30
0.0
 40
0.2469223522357859
 50
256.3534636034983123
 51
264.5509190677609013
  0
ARC
  5
EEC0
  8
0
 10
494.7767244723564772
 20
-113.7103974689279937
 30
0.0
 40
185.3418994649969136
 50
84.5318532035757926
 51
84.5509190677609439
  0
ARC
  5
EEC1
  8
0
 10
512.8015928436853983
 20
62.9445918482178186
 30
0.0
 40
7.891323101705348
 50
89.4904051285042073
 51
90.0015476595740864
  0
ARC
  5
EEC2
  8
0
 10
512.8104850693326853
 20
63.9443538045209721
 30
0.0
 40
6.8915216009322773
 50
87.8641040885467248
 51
89.4904051285042073
  0
ARC
  5
EEC3
  8
0
 10
512.9537484838515411
 20
67.7856394536554347
 30
0.0
 40
3.0475653259226498
 50
85.4345265748581966
 51
87.8641040885467248
  0
ARC
  5
EEC4
  8
0
 10
513.1199316792549325
 20
69.8910161930679692
 30
0.0
 40
0.9356429891205934
 50
81.9725508592193108
 51
85.3164374271567851
  0
ARC
  5
EEC5
  8
0
 10
513.0890236937057125
 20
71.7769267092945142
 30
0.0
 40
0.9905646513848225
 50
274.6804076963919101
 51
277.0542813367296162
  0
ARC
  5
EEC6
  8
0
 10
513.1678381031572371
 20
71.1400237761427832
 30
0.0
 40
0.3488037477809376
 50
277.0542813367296162
 51
282.4342395078371055
  0
ARC
  5
EEC7
  8
0
 10
513.2333295994595801
 20
70.8429978238324338
 30
0.0
 40
0.0446433420181041
 50
282.4342395078371055
 51
294.3716455909391243
  0
ARC
  5
EEC8
  8
0
 10
513.2471752248648045
 20
70.8124351176988966
 30
0.0
 40
0.0110906916150772
 50
294.3716455909391811
 51
312.5830443699209127
  0
ARC
  5
EEC9
  8
0
 10
513.2532776042792193
 20
70.8057948870739153
 30
0.0
 40
0.0020722828159355
 50
312.583044369916081
 51
23.5308428955521194
  0
ARC
  5
EECA
  8
0
 10
513.2495881621060789
 20
70.8027727547395784
 30
0.0
 40
0.0067867454116917
 50
34.555552363273307
 51
66.6413312852042168
  0
ARC
  5
EECB
  8
0
 10
513.2251506772773837
 20
70.7458130310652109
 30
0.0
 40
0.0687673761891135
 50
66.7655661894428931
 51
80.1130503072281783
  0
ARC
  5
EECC
  8
0
 10
513.1871921193926482
 20
70.6172247722379751
 30
0.0
 40
0.2027409284190708
 50
74.843844884451471
 51
89.005013150940087
  0
ARC
  5
EECD
  8
0
 10
513.1377555809978048
 20
70.26493507695848
 30
0.0
 40
0.557520866429069
 50
79.7504658370333743
 51
84.5494403286788554
  0
ARC
  5
EECE
  8
0
 10
512.9749716788182923
 20
68.5589307480708072
 30
0.0
 40
2.2712738734263551
 50
84.5494403286788554
 51
86.9387476817812228
  0
ARC
  5
EECF
  8
0
 10
512.8850356760352724
 20
66.8772499772480842
 30
0.0
 40
3.9553578082560552
 50
86.9387476817812228
 51
88.7845038434484337
  0
ARC
  5
EED0
  8
0
 10
512.7803694534665055
 20
61.9442516534254608
 30
0.0
 40
8.8894663884338048
 50
88.7845046714868289
 51
89.8645814413463739
  0
LINE
  5
EED1
  8
0
 10
513.248962741547075
 20
70.8166500461442752
 30
0.0
 11
513.248962741547075
 21
70.8103261120887737
 31
0.0
  0
LINE
  5
EED2
  8
0
 10
513.248962741547075
 20
70.8166500461442752
 30
0.0
 11
513.2505918840470258
 21
70.8174910788442844
 31
0.0
  0
ENDSEC
  0
EOF
