  0
SECTION
  2
HEADER
  9
$ACADVER
  1
AC1009
  9
$INSBASE
 10
474.1467433926763988
 20
63.7023398273173882
 30
0.0
  9
$EXTMIN
 10
473.1198270430081152
 20
56.8971599054855801
 30
-0.0015258207003583
  9
$EXTMAX
 10
475.1755207038772824
 20
65.5537124851621229
 30
0.0000000349246037
  9
$LIMMIN
 10
0.0
 20
0.0
  9
$LIMMAX
 10
11.6929133858000007
 20
8.2677165353999982
  9
$ORTHOMODE
 70
     0
  9
$REGENMODE
 70
     1
  9
$FILLMODE
 70
     1
  9
$QTEXTMODE
 70
     0
  9
$MIRRTEXT
 70
     0
  9
$DRAGMODE
 70
     2
  9
$LTSCALE
 40
0.6431102362
  9
$OSMODE
 70
  4095
  9
$ATTMODE
 70
     1
  9
$TEXTSIZE
 40
0.2
  9
$TRACEWID
 40
0.05
  9
$TEXTSTYLE
  7
STANDARD
  9
$CLAYER
  8
0
  9
$CELTYPE
  6
BYLAYER
  9
$CECOLOR
 62
   256
  9
$DIMSCALE
 40
1.0
  9
$DIMASZ
 40
0.1875
  9
$DIMEXO
 40
0.0625
  9
$DIMDLI
 40
0.4443307087
  9
$DIMRND
 40
0.0
  9
$DIMDLE
 40
0.0
  9
$DIMEXE
 40
0.125
  9
$DIMTP
 40
0.01
  9
$DIMTM
 40
0.01
  9
$DIMTXT
 40
1.0
  9
$DIMCEN
 40
0.1052362205
  9
$DIMTSZ
 40
0.0
  9
$DIMTOL
 70
     1
  9
$DIMLIM
 70
     0
  9
$DIMTIH
 70
     0
  9
$DIMTOH
 70
     1
  9
$DIMSE1
 70
     0
  9
$DIMSE2
 70
     0
  9
$DIMTAD
 70
     0
  9
$DIMZIN
 70
     0
  9
$DIMBLK
  1

  9
$DIMASO
 70
     1
  9
$DIMSHO
 70
     1
  9
$DIMPOST
  1
\X
  9
$DIMAPOST
  1

  9
$DIMALT
 70
     1
  9
$DIMALTD
 70
     2
  9
$DIMALTF
 40
25.3999999999999986
  9
$DIMLFAC
 40
1.0
  9
$DIMTOFL
 70
     0
  9
$DIMTVP
 40
0.0
  9
$DIMTIX
 70
     0
  9
$DIMSOXD
 70
     0
  9
$DIMSAH
 70
     0
  9
$DIMBLK1
  1

  9
$DIMBLK2
  1

  9
$DIMSTYLE
  2
STANDARD
  9
$DIMCLRD
 70
     0
  9
$DIMCLRE
 70
     0
  9
$DIMCLRT
 70
     0
  9
$DIMTFAC
 40
1.0
  9
$DIMGAP
 40
0.09
  9
$LUNITS
 70
     2
  9
$LUPREC
 70
     4
  9
$SKETCHINC
 40
0.1
  9
$FILLETRAD
 40
0.0
  9
$AUNITS
 70
     0
  9
$AUPREC
 70
     0
  9
$MENU
  1
.
  9
$ELEVATION
 40
0.0
  9
$PELEVATION
 40
0.0
  9
$THICKNESS
 40
0.0
  9
$LIMCHECK
 70
     0
  9
$BLIPMODE
 70
     0
  9
$CHAMFERA
 40
0.0
  9
$CHAMFERB
 40
0.0
  9
$SKPOLY
 70
     0
  9
$TDCREATE
 40
2458172.5207638889551163
  9
$TDUPDATE
 40
2460634.6483101858757436
  9
$TDINDWG
 40
0.2763282176
  9
$TDUSRTIMER
 40
0.2763282176
  9
$USRTIMER
 70
     1
  9
$ANGBASE
 50
0.0
  9
$ANGDIR
 70
     0
  9
$PDMODE
 70
     0
  9
$PDSIZE
 40
0.3125
  9
$PLINEWID
 40
0.0
  9
$COORDS
 70
     1
  9
$SPLFRAME
 70
     0
  9
$SPLINETYPE
 70
     6
  9
$SPLINESEGS
 70
     8
  9
$ATTDIA
 70
     1
  9
$ATTREQ
 70
     1
  9
$HANDLING
 70
     1
  9
$HANDSEED
  5
EC52
  9
$SURFTAB1
 70
     6
  9
$SURFTAB2
 70
     6
  9
$SURFTYPE
 70
     6
  9
$SURFU
 70
     6
  9
$SURFV
 70
     6
  9
$UCSNAME
  2

  9
$UCSORG
 10
0.0
 20
0.0
 30
0.0
  9
$UCSXDIR
 10
1.0
 20
0.0
 30
0.0
  9
$UCSYDIR
 10
0.0
 20
1.0
 30
0.0
  9
$PUCSNAME
  2

  9
$PUCSORG
 10
0.0
 20
0.0
 30
0.0
  9
$PUCSXDIR
 10
1.0
 20
0.0
 30
0.0
  9
$PUCSYDIR
 10
0.0
 20
1.0
 30
0.0
  9
$USERI1
 70
     0
  9
$USERI2
 70
     0
  9
$USERI3
 70
     0
  9
$USERI4
 70
     0
  9
$USERI5
 70
     0
  9
$USERR1
 40
0.0
  9
$USERR2
 40
0.0
  9
$USERR3
 40
0.0
  9
$USERR4
 40
0.0
  9
$USERR5
 40
0.0
  9
$WORLDVIEW
 70
     1
  9
$SHADEDGE
 70
     3
  9
$SHADEDIF
 70
    70
  9
$TILEMODE
 70
     1
  9
$MAXACTVP
 70
    64
  9
$PLIMCHECK
 70
     0
  9
$PEXTMIN
 10
1.0000000000000000E+20
 20
1.0000000000000000E+20
 30
1.0000000000000000E+20
  9
$PEXTMAX
 10
-1.0000000000000000E+20
 20
-1.0000000000000000E+20
 30
-1.0000000000000000E+20
  9
$PLIMMIN
 10
0.0
 20
0.0
  9
$PLIMMAX
 10
12.0
 20
9.0
  9
$UNITMODE
 70
     0
  9
$VISRETAIN
 70
     1
  9
$PLINEGEN
 70
     0
  9
$PSLTSCALE
 70
     1
  0
ENDSEC
  0
SECTION
  2
TABLES
  0
TABLE
  2
VPORT
 70
     1
  0
VPORT
  2
*ACTIVE
 70
     0
 10
0.0
 20
0.0
 11
1.0
 21
1.0
 12
44.5183847653889799
 22
-8.4771053168948356
 13
0.0
 23
0.0
 14
1.0
 24
1.0
 15
0.0
 25
0.0
 16
0.0
 26
0.0
 36
14.6338572656650907
 17
429.6292891080536833
 27
69.7025415122186871
 37
0.0
 40
8.711908513812185
 41
2.3631889763779519
 42
50.0
 43
0.0
 44
0.0
 50
0.0
 51
0.0
 71
     0
 72
   100
 73
     1
 74
     1
 75
     0
 76
     0
 77
     0
 78
     0
  0
ENDTAB
  0
TABLE
  2
LTYPE
 70
     2
  0
LTYPE
  2
CONTINUOUS
 70
     0
  3
Solid line
 72
    65
 73
     0
 40
0.0
  0
LTYPE
  2
PHANTOM2
 70
     0
  3
___ _ _ ___ _ _ ___ _ _ ___ _ _
 72
    65
 73
     6
 40
1.25
 49
0.625
 49
-0.125
 49
0.125
 49
-0.125
 49
0.125
 49
-0.125
  0
ENDTAB
  0
TABLE
  2
LAYER
 70
     2
  0
LAYER
  2
0
 70
     0
 62
   255
  6
CONTINUOUS
  0
LAYER
  2
DEFPOINTS
 70
     0
 62
     7
  6
CONTINUOUS
  0
ENDTAB
  0
TABLE
  2
STYLE
 70
     1
  0
STYLE
  2
STANDARD
 70
     0
 40
0.0
 41
0.8
 50
0.0
 71
     0
 42
0.2
  3
txt
  4

  0
ENDTAB
  0
TABLE
  2
VIEW
 70
     0
  0
ENDTAB
  0
TABLE
  2
UCS
 70
     0
  0
ENDTAB
  0
TABLE
  2
APPID
 70
    10
  0
APPID
  2
ACAD
 70
     0
  0
APPID
  2
ACAD_MLEADERVER
 70
     0
  0
APPID
  2
ACAD_EXEMPT_FROM_CAD_STANDARDS
 70
     0
  0
APPID
  2
ACAD_DSTYLE_DIMJAG
 70
     0
  0
APPID
  2
ACAD_DSTYLE_DIMTALN
 70
     0
  0
APPID
  2
ACAD_NAV_VCDISPLAY
 70
     0
  0
APPID
  2
ACAECLAYERSTANDARD
 70
     0
  0
APPID
  2
ACCMTRANSPARENCY
 70
     0
  0
APPID
  2
DCO15
 70
     0
  0
APPID
  2
ACDBATTR
 70
     0
  0
ENDTAB
  0
TABLE
  2
DIMSTYLE
 70
     1
  0
DIMSTYLE
  2
STANDARD
 70
     0
  3

  4

  5

  6

  7

 40
1.0
 41
0.1875
 42
0.0625
 43
0.38
 44
0.125
 45
0.0
 46
0.0
 47
0.01
 48
0.01
140
0.15625
141
0.09
142
0.0
143
25.3999999999999986
144
1.0
145
0.0
146
1.0
147
0.09
 71
     1
 72
     0
 73
     1
 74
     1
 75
     0
 76
     0
 77
     0
 78
     4
170
     0
171
     2
172
     0
173
     0
174
     0
175
     0
176
     0
177
     0
178
     0
  0
ENDTAB
  0
ENDSEC
  0
SECTION
  2
BLOCKS
  0
BLOCK
  8
0
  2
$MODEL_SPACE
 70
     0
 10
0.0
 20
0.0
 30
0.0
  3
$MODEL_SPACE
  1

  0
ENDBLK
  5
21
  8
0
  0
BLOCK
 67
     1
  8
0
  2
$PAPER_SPACE
 70
     0
 10
0.0
 20
0.0
 30
0.0
  3
$PAPER_SPACE
  1

  0
ENDBLK
  5
1D
 67
     1
  8
0
  0
ENDSEC
  0
SECTION
  2
ENTITIES
  0
ATTDEF
  5
C848
  8
DEFPOINTS
 10
474.1420564642359068
 20
63.7008195267997195
 30
0.0
 40
0.001
  1
K-97345IN-4
  3

  2
MODELNUMBER
 70
     0
1001
ACDBATTR
1070
     0
1070
     1
  0
ATTDEF
  5
C849
  8
DEFPOINTS
 10
474.1420564642359068
 20
63.6991528601330614
 30
0.0
 40
0.001
  1
AVID
  3

  2
TRADENAME
 70
     0
1001
ACDBATTR
1070
     0
1070
     1
  0
ATTDEF
  5
C84A
  8
DEFPOINTS
 10
474.1420564642359068
 20
63.6974861934663892
 30
0.0
 40
0.001
  1
BATHROOM SINK FAUCET
  3

  2
PRODUCT
 70
     0
1001
ACDBATTR
1070
     0
1070
     1
  0
ARC
  5
EB4F
  8
0
 10
474.141162515556573
 20
63.7023398273173882
 30
0.0
 40
1.0004971799701481
 50
89.6803965372296545
 51
168.7164433533309875
  0
ARC
  5
EB50
  8
0
 10
474.1403647587014802
 20
63.7024989967904176
 30
0.0
 40
0.9996836992259833
 50
168.7164433533309875
 51
211.5360916163029117
  0
ARC
  5
EB51
  8
0
 10
472.177560601480991
 20
62.8932807804163119
 30
0.0
 40
1.147306364807587
 50
12.2674543150325501
 51
14.4188438372260102
  0
ARC
  5
EB52
  8
0
 10
470.7614093341259149
 20
62.6178578053048867
 30
0.0
 40
2.5898372188758292
 50
3.977194281524695
 51
11.5647301769657798
  0
ARC
  5
EB53
  8
0
 10
388.5042302968640797
 20
57.9435268858065129
 30
0.0
 40
84.9795196238017638
 50
2.867502166135349
 51
3.274470143458398
  0
ARC
  5
EB54
  8
0
 10
410.7330259336166023
 20
59.0569490578258609
 30
0.0
 40
62.7228562531692191
 50
0.8246332662294843
 51
2.867502166135349
  0
ARC
  5
EB55
  8
0
 10
546.3472771769564815
 20
61.0286560226698214
 30
0.0
 40
72.9057288742130964
 50
180.8401413065595875
 51
182.8445191631371074
  0
ARC
  5
EB56
  8
0
 10
478.739128226459286
 20
57.4812957054826512
 30
0.0
 40
5.2082304345948929
 50
180.7772145215814987
 51
184.5518018792992905
  0
ARC
  5
EB57
  8
0
 10
473.7656343978677
 20
57.0853484751492175
 30
0.0
 40
0.2190005268589429
 50
184.5518018792992905
 51
220.428003786303492
  0
ARC
  5
EB58
  8
0
 10
473.7437852634074034
 20
57.1200353400128975
 30
0.0
 40
0.2284937883627693
 50
230.656186788063394
 51
255.7469661759535882
  0
LINE
  5
EB59
  8
0
 10
474.4519714551104244
 20
57.2191447643816389
 30
0.0
 11
473.8426700902764992
 21
57.219141987524651
 31
0.0
  0
ARC
  5
EB5A
  8
0
 10
473.8426689980781248
 20
57.4587935069275986
 30
0.0
 40
0.23965151940544
 50
224.8808626681569933
 51
270.0002611223204099
  0
ARC
  5
EB5B
  8
0
 10
473.8357859981854858
 20
57.4519390718563727
 30
0.0
 40
0.2299376649867604
 50
182.611634556527207
 51
224.8808626681569933
  0
ARC
  5
EB5C
  8
0
 10
-692.7219268872288467
 20
3.4889649985983122
 30
0.0
 40
1167.5752259537450755
 50
2.6485244455734831
 51
2.866417858198242
  0
ARC
  5
EB5D
  8
0
 10
474.1469359682363915
 20
63.6086173689084475
 30
0.0
 40
0.8610378492215037
 50
90.0128144969697672
 51
134.8995279364607995
  0
ARC
  5
EB5E
  8
0
 10
474.0352819878689274
 20
63.7206636233218475
 30
0.0
 40
0.7028576530527394
 50
134.8995279364607995
 51
161.6990927914060876
  0
ARC
  5
EB5F
  8
0
 10
474.7559481256001845
 20
63.5483069114161125
 30
0.0
 40
1.442555485266924
 50
164.1884454044250958
 51
184.3088512862775872
  0
ARC
  5
EB60
  8
0
 10
572.7538952833757548
 20
68.0258368756407634
 30
0.0
 40
99.5421181162902542
 50
182.6405556778452137
 51
182.8474475731923121
  0
ARC
  5
EB61
  8
0
 10
447.3316434702729794
 20
61.7031316347788987
 30
0.0
 40
26.0395088275480013
 50
2.0147744433451389
 51
3.032964356034979
  0
ARC
  5
EB62
  8
0
 10
474.1508985914330765
 20
63.4778596176438725
 30
0.0
 40
0.7214951404350742
 50
90.3299768141710899
 51
120.9911729324856964
  0
ARC
  5
EB63
  8
0
 10
474.1618976837175978
 20
63.4595476642876477
 30
0.0
 40
0.742856499633507
 50
120.9911729324856964
 51
140.203069557262495
  0
ARC
  5
EB64
  8
0
 10
474.1047008229772928
 20
63.5071971009177005
 30
0.0
 40
0.6684122272567262
 50
140.203069557262495
 51
158.1827718771120033
  0
ARC
  5
EB65
  8
0
 10
474.0546369922356007
 20
63.5272386684910515
 30
0.0
 40
0.6144858739650657
 50
158.1827718771120033
 51
178.9640730132728947
  0
ARC
  5
EB66
  8
0
 10
475.7085758372061832
 20
63.4087739305041893
 30
0.0
 40
2.2720221266369061
 50
176.7306270692980092
 51
181.6605259345089962
  0
ARC
  5
EB67
  8
0
 10
4740.3225310881407495
 20
186.0190404562148103
 30
0.0
 40
4268.6481734083490664
 50
181.6468424284076946
 51
181.6827336000993967
  0
ARC
  5
EB68
  8
0
 10
3211.6069972356658582
 20
140.1852813956558919
 30
0.0
 40
2739.2461371015579061
 50
181.6634227148427101
 51
181.7226376790625011
  0
ARC
  5
EB69
  8
0
 10
465.5288073978168768
 20
57.4940591638516381
 30
0.0
 40
8.0774510122346381
 50
359.6269082877827259
 51
2.457011691427351
  0
LINE
  5
EB6A
  8
0
 10
474.235326069876578
 20
65.5489085994246494
 30
0.0
 11
474.0581607155764914
 21
65.5489085994246494
 31
0.0
  0
ARC
  5
EB6B
  8
0
 10
474.0581607155764914
 20
65.5292235600246471
 30
0.0
 40
0.0196850394000023
 50
89.9999999999902229
 51
179.999999708922104
  0
LINE
  5
EB6C
  8
0
 10
474.0384756761765175
 20
65.5292235601246631
 30
0.0
 11
474.038475671951403
 21
64.6975533819269657
 31
0.0
  0
ARC
  5
EB6D
  8
0
 10
474.1523242697963951
 20
63.7023398273173882
 30
0.0
 40
1.0004971799701481
 50
11.2835566466689894
 51
90.3196034627703312
  0
ARC
  5
EB6E
  8
0
 10
474.1531220266516016
 20
63.7024989967904176
 30
0.0
 40
0.9996836992259833
 50
328.4639083836967188
 51
11.2835566466689894
  0
ARC
  5
EB6F
  8
0
 10
476.1159261838719772
 20
62.8932807804163119
 30
0.0
 40
1.147306364807587
 50
165.5811561627739934
 51
167.7325456849686134
  0
ARC
  5
EB70
  8
0
 10
477.5320774512272237
 20
62.6178578053048867
 30
0.0
 40
2.5898372188758292
 50
168.43526982303419
 51
176.022805718475297
  0
ARC
  5
EB71
  8
0
 10
559.7892564884889453
 20
57.9435268858065129
 30
0.0
 40
84.9795196238017638
 50
176.7255298565416126
 51
177.1324978338645906
  0
ARC
  5
EB72
  8
0
 10
537.5604608517363658
 20
59.0569490578258609
 30
0.0
 40
62.7228562531692191
 50
177.1324978338645906
 51
179.1753667337704883
  0
ARC
  5
EB73
  8
0
 10
401.9462096083966003
 20
61.0286560226698214
 30
0.0
 40
72.9057288742130964
 50
357.1554808368617273
 51
359.1598586934404125
  0
ARC
  5
EB74
  8
0
 10
469.5543585588937958
 20
57.4812957054826512
 30
0.0
 40
5.2082304345948929
 50
355.4481981207006811
 51
359.2227854784180181
  0
ARC
  5
EB75
  8
0
 10
474.5278523874853249
 20
57.0853484751492175
 30
0.0
 40
0.2190005268589429
 50
319.5719962136964796
 51
355.4481981207006811
  0
ARC
  5
EB76
  8
0
 10
474.5763145834832812
 20
57.0674496147645627
 30
0.0
 40
0.1714296563874885
 50
279.9046928754353871
 51
313.6112897583810764
  0
ARC
  5
EB77
  8
0
 10
474.4508177872750139
 20
57.4587935069275986
 30
0.0
 40
0.23965151940544
 50
269.7247027823416943
 51
315.1191373318429783
  0
ARC
  5
EB78
  8
0
 10
474.457700787167596
 20
57.4519390718563727
 30
0.0
 40
0.2299376649867604
 50
315.1191373318429783
 51
357.3883654434728214
  0
ARC
  5
EB79
  8
0
 10
1622.2506851790699329
 20
4.3748681519867461
 30
0.0
 40
1148.7896055025701116
 50
177.1315710630196918
 51
177.3523661844388926
  0
ARC
  5
EB7A
  8
0
 10
474.1465508171166903
 20
63.6086173689084475
 30
0.0
 40
0.8610378492215037
 50
45.1004720635392573
 51
89.987185503030247
  0
ARC
  5
EB7B
  8
0
 10
474.2582047974842112
 20
63.7206636233218475
 30
0.0
 40
0.7028576530527394
 50
18.3009072085938485
 51
45.1004720635392573
  0
ARC
  5
EB7C
  8
0
 10
473.5375386597528973
 20
63.5483069114161125
 30
0.0
 40
1.442555485266924
 50
355.6911487137223844
 51
15.8115545955748509
  0
ARC
  5
EB7D
  8
0
 10
375.539591501977327
 20
68.0258368756407634
 30
0.0
 40
99.5421181162902542
 50
357.1525524268076879
 51
357.3594443221543884
  0
ARC
  5
EB7E
  8
0
 10
493.8462707331210026
 20
62.0482099003366727
 30
0.0
 40
18.9156719477754791
 50
176.8704296166582139
 51
178.176057846544694
  0
ARC
  5
EB7F
  8
0
 10
474.1425881939200053
 20
63.4778596176438725
 30
0.0
 40
0.7214951404350742
 50
59.0088270675142965
 51
89.6700231858289243
  0
ARC
  5
EB80
  8
0
 10
474.131589101635484
 20
63.4595476642876477
 30
0.0
 40
0.742856499633507
 50
39.7969304427374766
 51
59.0088270675142965
  0
ARC
  5
EB81
  8
0
 10
474.188785962375789
 20
63.5071971009177005
 30
0.0
 40
0.6684122272567262
 50
21.8172281228879505
 51
39.7969304427374766
  0
ARC
  5
EB82
  8
0
 10
474.2388497931174811
 20
63.5272386684910515
 30
0.0
 40
0.6144858739650657
 50
1.0359269867270231
 51
21.8172281228879505
  0
ARC
  5
EB83
  8
0
 10
472.5849109481467849
 20
63.4087739305041893
 30
0.0
 40
2.2720221266369061
 50
358.339474065490208
 51
3.269372930702001
  0
ARC
  5
EB84
  8
0
 10
-3792.0290443027870424
 20
186.0190404562148103
 30
0.0
 40
4268.6481734083490664
 50
358.3172663999001202
 51
358.3531575715923054
  0
ARC
  5
EB85
  8
0
 10
-2263.3135104503130606
 20
140.1852813956558919
 30
0.0
 40
2739.2461371015579061
 50
358.2773623209370157
 51
358.3365772851569204
  0
ARC
  5
EB86
  8
0
 10
482.7504874807805777
 20
57.4944927112911301
 30
0.0
 40
8.0632535683725202
 50
177.5417429809153873
 51
180.3756621627861136
  0
ARC
  5
EB87
  8
0
 10
474.2353260697765904
 20
65.5292235600246471
 30
0.0
 40
0.0196850394000023
 50
0.0000002910778507
 51
90.0000000000097771
  0
LINE
  5
EB88
  8
0
 10
474.2550111091765075
 20
65.5292235601246631
 30
0.0
 11
474.2550111134016788
 21
64.6975533819269657
 31
0.0
  0
LINE
  5
EB89
  8
0
 10
473.6875290385169137
 20
56.8985750761246507
 30
0.0
 11
474.6058021620254976
 21
56.8985750761246507
 31
0.0
  0
ARC
  5
EB8A
  8
0
 10
474.9766146684763726
 20
63.1967095596192578
 30
0.0
 40
0.0332682167361006
 50
327.7756114998639987
 51
329.1078703666161118
  0
ARC
  5
EB8B
  8
0
 10
473.2796392547136861
 20
63.1738411240794306
 30
0.0
 40
0.0104361821793946
 50
29.4343487353994107
 51
33.6821693986943487
  0
ENDSEC
  0
EOF
