  0
SECTION
  2
HEADER
  9
$ACADVER
  1
AC1009
  9
$INSBASE
 10
387.9707961892731873
 20
67.5274175717145937
 30
0.0
  9
$EXTMIN
 10
386.9644827123428854
 20
67.5222349401463759
 30
-0.0000000000112498
  9
$EXTMAX
 10
388.9826118717804206
 20
72.948903959132025
 30
0.0000000000002956
  9
$LIMMIN
 10
0.0
 20
0.0
  9
$LIMMAX
 10
11.6929133858000007
 20
8.2677165353999982
  9
$ORTHOMODE
 70
     0
  9
$REGENMODE
 70
     1
  9
$FILLMODE
 70
     1
  9
$QTEXTMODE
 70
     0
  9
$MIRRTEXT
 70
     0
  9
$DRAGMODE
 70
     2
  9
$LTSCALE
 40
0.6431102362
  9
$OSMODE
 70
  4095
  9
$ATTMODE
 70
     1
  9
$TEXTSIZE
 40
0.2
  9
$TRACEWID
 40
0.05
  9
$TEXTSTYLE
  7
STANDARD
  9
$CLAYER
  8
0
  9
$CELTYPE
  6
BYLAYER
  9
$CECOLOR
 62
   256
  9
$DIMSCALE
 40
1.0
  9
$DIMASZ
 40
0.1875
  9
$DIMEXO
 40
0.0625
  9
$DIMDLI
 40
0.4443307087
  9
$DIMRND
 40
0.0
  9
$DIMDLE
 40
0.0
  9
$DIMEXE
 40
0.125
  9
$DIMTP
 40
0.01
  9
$DIMTM
 40
0.01
  9
$DIMTXT
 40
1.0
  9
$DIMCEN
 40
0.1052362205
  9
$DIMTSZ
 40
0.0
  9
$DIMTOL
 70
     1
  9
$DIMLIM
 70
     0
  9
$DIMTIH
 70
     0
  9
$DIMTOH
 70
     1
  9
$DIMSE1
 70
     0
  9
$DIMSE2
 70
     0
  9
$DIMTAD
 70
     0
  9
$DIMZIN
 70
     0
  9
$DIMBLK
  1

  9
$DIMASO
 70
     1
  9
$DIMSHO
 70
     1
  9
$DIMPOST
  1
\X
  9
$DIMAPOST
  1

  9
$DIMALT
 70
     1
  9
$DIMALTD
 70
     2
  9
$DIMALTF
 40
25.3999999999999986
  9
$DIMLFAC
 40
1.0
  9
$DIMTOFL
 70
     0
  9
$DIMTVP
 40
0.0
  9
$DIMTIX
 70
     0
  9
$DIMSOXD
 70
     0
  9
$DIMSAH
 70
     0
  9
$DIMBLK1
  1

  9
$DIMBLK2
  1

  9
$DIMSTYLE
  2
STANDARD
  9
$DIMCLRD
 70
     0
  9
$DIMCLRE
 70
     0
  9
$DIMCLRT
 70
     0
  9
$DIMTFAC
 40
1.0
  9
$DIMGAP
 40
0.09
  9
$LUNITS
 70
     2
  9
$LUPREC
 70
     4
  9
$SKETCHINC
 40
0.1
  9
$FILLETRAD
 40
0.0
  9
$AUNITS
 70
     0
  9
$AUPREC
 70
     0
  9
$MENU
  1
.
  9
$ELEVATION
 40
0.0
  9
$PELEVATION
 40
0.0
  9
$THICKNESS
 40
0.0
  9
$LIMCHECK
 70
     0
  9
$BLIPMODE
 70
     0
  9
$CHAMFERA
 40
0.0
  9
$CHAMFERB
 40
0.0
  9
$SKPOLY
 70
     0
  9
$TDCREATE
 40
2458172.5207638889551163
  9
$TDUPDATE
 40
2459055.517430555075407
  9
$TDINDWG
 40
0.2741407176
  9
$TDUSRTIMER
 40
0.2741407176
  9
$USRTIMER
 70
     1
  9
$ANGBASE
 50
0.0
  9
$ANGDIR
 70
     0
  9
$PDMODE
 70
     0
  9
$PDSIZE
 40
0.3125
  9
$PLINEWID
 40
0.0
  9
$COORDS
 70
     1
  9
$SPLFRAME
 70
     0
  9
$SPLINETYPE
 70
     6
  9
$SPLINESEGS
 70
     8
  9
$ATTDIA
 70
     1
  9
$ATTREQ
 70
     1
  9
$HANDLING
 70
     1
  9
$HANDSEED
  5
F920
  9
$SURFTAB1
 70
     6
  9
$SURFTAB2
 70
     6
  9
$SURFTYPE
 70
     6
  9
$SURFU
 70
     6
  9
$SURFV
 70
     6
  9
$UCSNAME
  2

  9
$UCSORG
 10
0.0
 20
0.0
 30
0.0
  9
$UCSXDIR
 10
1.0
 20
0.0
 30
0.0
  9
$UCSYDIR
 10
0.0
 20
1.0
 30
0.0
  9
$PUCSNAME
  2

  9
$PUCSORG
 10
0.0
 20
0.0
 30
0.0
  9
$PUCSXDIR
 10
1.0
 20
0.0
 30
0.0
  9
$PUCSYDIR
 10
0.0
 20
1.0
 30
0.0
  9
$USERI1
 70
     0
  9
$USERI2
 70
     0
  9
$USERI3
 70
     0
  9
$USERI4
 70
     0
  9
$USERI5
 70
     0
  9
$USERR1
 40
0.0
  9
$USERR2
 40
0.0
  9
$USERR3
 40
0.0
  9
$USERR4
 40
0.0
  9
$USERR5
 40
0.0
  9
$WORLDVIEW
 70
     1
  9
$SHADEDGE
 70
     3
  9
$SHADEDIF
 70
    70
  9
$TILEMODE
 70
     1
  9
$MAXACTVP
 70
    64
  9
$PLIMCHECK
 70
     0
  9
$PEXTMIN
 10
1.0000000000000000E+20
 20
1.0000000000000000E+20
 30
1.0000000000000000E+20
  9
$PEXTMAX
 10
-1.0000000000000000E+20
 20
-1.0000000000000000E+20
 30
-1.0000000000000000E+20
  9
$PLIMMIN
 10
0.0
 20
0.0
  9
$PLIMMAX
 10
12.0
 20
9.0
  9
$UNITMODE
 70
     0
  9
$VISRETAIN
 70
     1
  9
$PLINEGEN
 70
     0
  9
$PSLTSCALE
 70
     1
  0
ENDSEC
  0
SECTION
  2
TABLES
  0
TABLE
  2
VPORT
 70
     1
  0
VPORT
  2
*ACTIVE
 70
     0
 10
0.0
 20
0.0
 11
1.0
 21
1.0
 12
-41.65574181599208
 22
0.5330279374205134
 13
0.0
 23
0.0
 14
1.0
 24
1.0
 15
0.0
 25
0.0
 16
0.0
 26
0.0
 36
14.6338572656650907
 17
429.6292891080536833
 27
69.7025415122186871
 37
0.0
 40
5.4718285392546004
 41
2.6486111111111108
 42
50.0
 43
0.0
 44
0.0
 50
0.0
 51
0.0
 71
     0
 72
   100
 73
     1
 74
     1
 75
     0
 76
     0
 77
     0
 78
     0
  0
ENDTAB
  0
TABLE
  2
LTYPE
 70
     2
  0
LTYPE
  2
CONTINUOUS
 70
     0
  3
Solid line
 72
    65
 73
     0
 40
0.0
  0
LTYPE
  2
PHANTOM2
 70
     0
  3
___ _ _ ___ _ _ ___ _ _ ___ _ _
 72
    65
 73
     6
 40
1.25
 49
0.625
 49
-0.125
 49
0.125
 49
-0.125
 49
0.125
 49
-0.125
  0
ENDTAB
  0
TABLE
  2
LAYER
 70
     2
  0
LAYER
  2
0
 70
     0
 62
   255
  6
CONTINUOUS
  0
LAYER
  2
DEFPOINTS
 70
     0
 62
     7
  6
CONTINUOUS
  0
ENDTAB
  0
TABLE
  2
STYLE
 70
     1
  0
STYLE
  2
STANDARD
 70
     0
 40
0.0
 41
0.8
 50
0.0
 71
     0
 42
0.2
  3
txt
  4

  0
ENDTAB
  0
TABLE
  2
VIEW
 70
     0
  0
ENDTAB
  0
TABLE
  2
UCS
 70
     0
  0
ENDTAB
  0
TABLE
  2
APPID
 70
    10
  0
APPID
  2
ACAD
 70
     0
  0
APPID
  2
ACAD_MLEADERVER
 70
     0
  0
APPID
  2
ACAD_EXEMPT_FROM_CAD_STANDARDS
 70
     0
  0
APPID
  2
ACAD_DSTYLE_DIMJAG
 70
     0
  0
APPID
  2
ACAD_DSTYLE_DIMTALN
 70
     0
  0
APPID
  2
ACAD_NAV_VCDISPLAY
 70
     0
  0
APPID
  2
ACAECLAYERSTANDARD
 70
     0
  0
APPID
  2
ACCMTRANSPARENCY
 70
     0
  0
APPID
  2
DCO15
 70
     0
  0
APPID
  2
ACDBATTR
 70
     0
  0
ENDTAB
  0
TABLE
  2
DIMSTYLE
 70
     1
  0
DIMSTYLE
  2
STANDARD
 70
     0
  3

  4

  5

  6

  7

 40
1.0
 41
0.1875
 42
0.0625
 43
0.38
 44
0.125
 45
0.0
 46
0.0
 47
0.01
 48
0.01
140
0.15625
141
0.09
142
0.0
143
25.3999999999999986
144
1.0
145
0.0
146
1.0
147
0.09
 71
     1
 72
     0
 73
     1
 74
     1
 75
     0
 76
     0
 77
     0
 78
     4
170
     0
171
     2
172
     0
173
     0
174
     0
175
     0
176
     0
177
     0
178
     0
  0
ENDTAB
  0
ENDSEC
  0
SECTION
  2
BLOCKS
  0
BLOCK
  8
0
  2
$MODEL_SPACE
 70
     0
 10
0.0
 20
0.0
 30
0.0
  3
$MODEL_SPACE
  1

  0
ENDBLK
  5
21
  8
0
  0
BLOCK
 67
     1
  8
0
  2
$PAPER_SPACE
 70
     0
 10
0.0
 20
0.0
 30
0.0
  3
$PAPER_SPACE
  1

  0
ENDBLK
  5
1D
 67
     1
  8
0
  0
BLOCK
  8
0
  2
_FILLED
 70
     0
 10
0.0
 20
0.0
 30
0.0
  3
_FILLED
  1

  0
SOLID
  5
87E2
  8
0
  6
BYBLOCK
 62
     0
 10
0.0
 20
0.0
 30
0.0
 11
-1.0
 21
0.1666666667
 31
0.0
 12
-1.0
 22
-0.1666666667
 32
0.0
 13
-1.0
 23
-0.1666666667
 33
0.0
  0
ENDBLK
  5
87E3
  8
0
  6
BYBLOCK
 62
     0
  0
ENDSEC
  0
SECTION
  2
ENTITIES
  0
ATTDEF
  5
EC69
  8
DEFPOINTS
 10
387.9710583249305955
 20
67.5311210657773131
 30
0.0
 40
0.001
  1
K-97345T-4ND
  3

  2
MODELNUMBER
 70
     0
1001
ACDBATTR
1070
     0
1070
     1
  0
ATTDEF
  5
EC6A
  8
DEFPOINTS
 10
387.9710583249305955
 20
67.529454399110648
 30
0.0
 40
0.001
  1
AVID
  3

  2
TRADENAME
 70
     0
1001
ACDBATTR
1070
     0
1070
     1
  0
ATTDEF
  5
EC6B
  8
DEFPOINTS
 10
387.9710583249305955
 20
67.5277877324439828
 30
0.0
 40
0.001
  1
BATHROOM SINK FAUCET
  3

  2
PRODUCT
 70
     0
1001
ACDBATTR
1070
     0
1070
     1
  0
LINE
  5
F226
  8
0
 10
386.9647338560722005
 20
67.5274175717145937
 30
0.0
 11
388.9768585224742878
 21
67.5274175717145937
 31
0.0
  0
LINE
  5
F228
  8
0
 10
386.9647338560722005
 20
67.5274175717145937
 30
0.0
 11
386.9647338560722005
 21
69.7311124301145924
 31
0.0
  0
ARC
  5
F229
  8
0
 10
417.436040944620288
 20
69.3874624883551263
 30
0.0
 40
30.4732448381703307
 50
177.8409501572031104
 51
179.353855857679207
  0
ARC
  5
F22A
  8
0
 10
391.844074844158115
 20
70.3345810438990213
 30
0.0
 40
4.863797351815716
 50
164.6417863316997057
 51
177.6324948226285869
  0
ARC
  5
F22B
  8
0
 10
387.3118378589355189
 20
71.5817501626202954
 30
0.0
 40
0.1631110975987712
 50
139.0424681786510916
 51
165.4339300041345098
  0
LINE
  5
F22D
  8
0
 10
388.55085643406602
 20
71.7988921622808789
 30
0.0
 11
387.3907359445294105
 21
71.7988921622808789
 31
0.0
  0
ARC
  5
F22E
  8
0
 10
387.3907071556672008
 20
71.7634596161972951
 30
0.0
 40
0.035432557779008
 50
89.9534473213036563
 51
122.4490037716178961
  0
LINE
  5
F22F
  8
0
 10
387.3716958616731745
 20
71.7933600652145856
 30
0.0
 11
387.240023453423305
 21
71.7216431505645886
 31
0.0
  0
ARC
  5
F230
  8
0
 10
387.3267005288182077
 20
71.5663040064895739
 30
0.0
 40
0.177885258189055
 50
119.1609077107525962
 51
124.6921006567598056
  0
ARC
  5
F231
  8
0
 10
387.1353907388397033
 20
71.8719753048369654
 30
0.0
 40
0.1830928620337631
 50
292.9917757425677109
 51
299.4655901135026852
  0
ARC
  5
F232
  8
0
 10
387.2376904319713731
 20
71.6466970617387915
 30
0.0
 40
0.0645441538653055
 50
118.4858562384011975
 51
139.4366256489375075
  0
ARC
  5
F233
  8
0
 10
387.971321781038796
 20
59.8582590602793374
 30
0.0
 40
11.3332955824050607
 50
90.002657143254865
 51
91.0976880582305739
  0
ARC
  5
F234
  8
0
 10
387.905912885361488
 20
63.271974927456732
 30
0.0
 40
7.9189531353953351
 50
91.0976880582305739
 51
92.7364702903537648
  0
ARC
  5
F235
  8
0
 10
387.5562905884088991
 20
70.5867440671392501
 30
0.0
 40
0.5958333550436447
 50
92.7364702903537648
 51
99.8752791709899412
  0
ARC
  5
F236
  8
0
 10
387.4620927059453948
 20
71.1278519417560062
 30
0.0
 40
0.0465875329995855
 50
99.8752791709867438
 51
114.8850804602891031
  0
ARC
  5
F237
  8
0
 10
387.4466519338544117
 20
71.1611389315166463
 30
0.0
 40
0.009893648902999
 50
114.8850804602891031
 51
136.3965501197338028
  0
ARC
  5
F238
  8
0
 10
387.4412128925387151
 20
71.1663087111033974
 30
0.0
 40
0.0023896794353093
 50
136.2164368329243871
 51
179.1776145956987136
  0
ARC
  5
F239
  8
0
 10
388.2680351903791802
 20
71.2195297906771145
 30
0.0
 40
0.8309157169595554
 50
183.6700026702748971
 51
183.6840805788953901
  0
ARC
  5
F23A
  8
0
 10
387.4480216804873862
 20
71.1667213229925437
 30
0.0
 40
0.0092035515458894
 50
183.6259367003783893
 51
199.5057906229409923
  0
ARC
  5
F23B
  8
0
 10
387.4477327985904935
 20
71.1662796000423157
 30
0.0
 40
0.0087895808471719
 50
197.4199431067567048
 51
225.8055718640206919
  0
ARC
  5
F23C
  8
0
 10
387.4559907050602874
 20
71.1733451867887936
 30
0.0
 40
0.0196372443402238
 50
222.9001766177505033
 51
251.4435616418342079
  0
ARC
  5
F23D
  8
0
 10
387.5194771314290278
 20
71.3785808675193749
 30
0.0
 40
0.2344627739747923
 50
252.6968215143702139
 51
264.101217430060899
  0
ARC
  5
F23E
  8
0
 10
387.6618479397770898
 20
72.4948193147563131
 30
0.0
 40
1.359688498745049
 50
262.9676253250460718
 51
265.9998996918653802
  0
ARC
  5
F23F
  8
0
 10
387.7615735454655805
 20
73.7895331694175809
 30
0.0
 40
2.6582208202651771
 50
265.8023394132479211
 51
266.7100443172105884
  0
ARC
  5
F240
  8
0
 10
387.9661757486246074
 20
65.9063959533473991
 30
0.0
 40
5.2749024656568224
 50
89.9498129521395242
 51
92.201704215139813
  0
ARC
  5
F241
  8
0
 10
387.8394043757048166
 20
69.2037912489316653
 30
0.0
 40
1.975071149311513
 50
92.201704215139813
 51
95.6548920690975137
  0
ARC
  5
F242
  8
0
 10
387.6674396104517086
 20
70.9404896951994033
 30
0.0
 40
0.2298796487141276
 50
95.6548920690975137
 51
104.5049546607102968
  0
ARC
  5
F243
  8
0
 10
387.613571760674688
 20
71.1487069345465812
 30
0.0
 40
0.0148071865044103
 50
104.5049546607069999
 51
125.4587917163175064
  0
ARC
  5
F244
  8
0
 10
387.6068243961581743
 20
71.158180796151612
 30
0.0
 40
0.0031761512267553
 50
125.4587917163215991
 51
152.6656785116418007
  0
ARC
  5
F245
  8
0
 10
387.6051347322543847
 20
71.159054178902565
 30
0.0
 40
0.0012741098134895
 50
152.6656785116323078
 51
193.3327946476227055
  0
ARC
  5
F246
  8
0
 10
388.1624431299030107
 20
71.2693743290010389
 30
0.0
 40
0.5693957360432654
 50
191.2018215053097947
 51
196.5065778360009858
  0
ARC
  5
F247
  8
0
 10
387.9672908493120076
 20
66.0432661294611734
 30
0.0
 40
5.0861799563487224
 50
89.9605123681903933
 51
92.3542336058603155
  0
ARC
  5
F248
  8
0
 10
387.8325421899095886
 20
69.3207759943402522
 30
0.0
 40
1.8059012920324671
 50
92.3541449087254733
 51
94.9279630041814642
  0
ARC
  5
F249
  8
0
 10
387.727986186081182
 20
70.5334146493112968
 30
0.0
 40
0.5887634750755928
 50
94.9279630041814642
 51
99.1779913009916925
  0
ARC
  5
F24A
  8
0
 10
387.6459834820017818
 20
71.0409498324923021
 30
0.0
 40
0.0746463623056485
 50
99.177991300995032
 51
110.9209622238836062
  0
ARC
  5
F24B
  8
0
 10
387.6214971313796127
 20
71.1050029188511274
 30
0.0
 40
0.006072466114135
 50
110.9209622238869031
 51
142.2857797586339075
  0
ARC
  5
F24C
  8
0
 10
387.6178854387267734
 20
71.1079511298397335
 30
0.0
 40
0.001417206589
 50
147.2602856784097014
 51
194.5736205347344878
  0
ARC
  5
F24D
  8
0
 10
387.6189013251311053
 20
71.1084422406696177
 30
0.0
 40
0.0025335249673184
 50
199.5481264545437909
 51
223.6154507131327875
  0
ARC
  5
F24E
  8
0
 10
387.6264759221108989
 20
71.1188002760142837
 30
0.0
 40
0.0153321256268104
 50
232.1448092167798052
 51
255.2663673168570142
  0
ARC
  5
F24F
  8
0
 10
387.6596838770872751
 20
71.2342075835032489
 30
0.0
 40
0.1354185495793275
 50
254.0964152488861032
 51
262.0878188771432065
  0
ARC
  5
F250
  8
0
 10
387.6960653509215717
 20
71.4589647817139735
 30
0.0
 40
0.3630799713377701
 50
261.2835953298481968
 51
262.6233257133915231
  0
ARC
  5
F251
  8
0
 10
387.9700430380522107
 20
66.0632116046773632
 30
0.0
 40
5.0643227205404528
 50
89.9914791396900142
 51
91.3585675914263078
  0
ARC
  5
F252
  8
0
 10
387.9217338741775052
 20
68.1002044357762912
 30
0.0
 40
3.0267571217773859
 50
91.3585675914263078
 51
93.923288939860484
  0
ARC
  5
F253
  8
0
 10
387.753376483930424
 20
70.5550547535322607
 30
0.0
 40
0.5661404727567803
 50
93.923288939860484
 51
98.8224167548583097
  0
ARC
  5
F254
  8
0
 10
387.6799798043006717
 20
71.0279446110897652
 30
0.0
 40
0.0875886051797822
 50
98.8224167548583097
 51
109.5276341349365055
  0
ARC
  5
F255
  8
0
 10
387.6525976494173733
 20
71.1051510699216465
 30
0.0
 40
0.0056702330559816
 50
109.5276341349293006
 51
138.5649144752069901
  0
ARC
  5
F256
  8
0
 10
387.6495487551043198
 20
71.1078423517812013
 30
0.0
 40
0.0016034462924397
 50
138.5649144752109976
 51
199.7496938576169043
  0
ARC
  5
F257
  8
0
 10
387.8047133230513737
 20
71.1292277552475269
 30
0.0
 40
0.1582006646646773
 50
187.967067135420109
 51
201.5927644935501064
  0
ARC
  5
F258
  8
0
 10
387.8050052850149996
 20
71.1293650114051133
 30
0.0
 40
0.1585226501334899
 50
201.6000582132872125
 51
223.3653249424876037
  0
ARC
  5
F259
  8
0
 10
387.9707368644794201
 20
66.4384868812897196
 30
0.0
 40
4.6000846755926101
 50
89.999261087449284
 51
90.5702862169461156
  0
ARC
  5
F25A
  8
0
 10
387.9666776975680023
 20
66.8462952121170702
 30
0.0
 40
4.1922561435743102
 50
90.5702866983542805
 51
91.4326447479276965
  0
ARC
  5
F25B
  8
0
 10
387.9370297535400027
 20
68.031758692725063
 30
0.0
 40
3.0064219796035281
 50
91.4326447479276965
 51
92.8027350473634556
  0
ARC
  5
F25C
  8
0
 10
387.8552465750206011
 20
69.7023029158295913
 30
0.0
 40
1.33387706551702
 50
92.8027350473634556
 51
95.6464303089711763
  0
ARC
  5
F25D
  8
0
 10
387.7482299513617932
 20
70.7847103685463566
 30
0.0
 40
0.2461921610358885
 50
95.6464303089711763
 51
101.6097454283752057
  0
ARC
  5
F25E
  8
0
 10
387.7059206381280774
 20
70.9906474323410919
 30
0.0
 40
0.0359538385760982
 50
101.6097454283752057
 51
114.6697774095167972
  0
ARC
  5
F25F
  8
0
 10
387.6923410236232144
 20
71.0202127011998812
 30
0.0
 40
0.0034190717443749
 50
114.6697774095280948
 51
148.7636842373941022
  0
ARC
  5
F260
  8
0
 10
387.690446753814399
 20
71.0214815855256347
 30
0.0
 40
0.0011460040947253
 50
153.9017589065585128
 51
180.3701505605307034
  0
ARC
  5
F261
  8
0
 10
387.6904044948698242
 20
71.0215000660727043
 30
0.0
 40
0.00110402470572
 50
181.3434340279058006
 51
204.5821914307259135
  0
ARC
  5
F262
  8
0
 10
387.6911394099089989
 20
71.0218480867755204
 30
0.0
 40
0.0019171371927271
 50
204.9036091872197005
 51
224.0219307914157127
  0
ARC
  5
F263
  8
0
 10
387.6947873806997222
 20
71.0261988934708057
 30
0.0
 40
0.007587064955138
 50
228.5081397497085902
 51
244.6860005922532082
  0
ARC
  5
F264
  8
0
 10
387.7114252814232032
 20
71.0700375304669052
 30
0.0
 40
0.0544563723164477
 50
248.5863229601278874
 51
260.8283054609881901
  0
ARC
  5
F265
  8
0
 10
387.7941418754055007
 20
71.6008203380118289
 30
0.0
 40
0.5916450038215318
 50
261.1134327761635063
 51
266.7972573489524279
  0
ARC
  5
F266
  8
0
 10
387.9261641646098724
 20
73.6448541388392499
 30
0.0
 40
2.6399209872570562
 50
266.414894708267127
 51
268.9221126261134032
  0
ARC
  5
F267
  8
0
 10
387.9685678965763032
 20
75.3298170508755618
 30
0.0
 40
4.3253966536827058
 50
268.7803840138695932
 51
269.7399895544231185
  0
ARC
  5
F268
  8
0
 10
387.9707543358362045
 20
75.6347914097119229
 30
0.0
 40
4.630377863876741
 50
269.7300602988339051
 51
270.0005178897648079
  0
ARC
  5
F269
  8
0
 10
387.9515862391730252
 20
71.7764465836592507
 30
0.0
 40
0.7641114074048142
 50
236.136527173911702
 51
247.368105351754906
  0
ARC
  5
F26A
  8
0
 10
385.7406089253763071
 20
71.0420384033136685
 30
0.0
 40
1.702757666104352
 50
4.1857939693720798
 51
5.8088800616769722
  0
ARC
  5
F26B
  8
0
 10
385.3341363625580129
 20
71.0006867773504382
 30
0.0
 40
2.111328224629943
 50
5.8088800616769722
 51
12.8851558479945005
  0
ARC
  5
F26C
  8
0
 10
381.8479806680651905
 20
69.5054290405869466
 30
0.0
 40
5.8825958712653668
 50
19.5250887756791798
 51
20.3013974305413285
  0
ARC
  5
F26D
  8
0
 10
387.7534938759716852
 20
71.676835579713142
 30
0.0
 40
0.4096468448862917
 50
183.7452008552116069
 51
198.5600223447283099
  0
ARC
  5
F26E
  8
0
 10
387.4307126330908204
 20
71.6544827091520347
 30
0.0
 40
0.0861035155555152
 50
172.2587666204306061
 51
182.9325456709266859
  0
ARC
  5
F26F
  8
0
 10
387.357134964621423
 20
71.6646109093417749
 30
0.0
 40
0.0118327947350108
 50
148.9262147244608911
 51
172.864212632740589
  0
ARC
  5
F270
  8
0
 10
387.3485153311549993
 20
71.6695329298728723
 30
0.0
 40
0.001923780326276
 50
69.8108562278345488
 51
141.9630079075693061
  0
ARC
  5
F271
  8
0
 10
387.3384464205731774
 20
71.6578057468314142
 30
0.0
 40
0.0172722225898126
 50
24.7511212882897489
 51
51.5820352794476307
  0
ARC
  5
F272
  8
0
 10
384.5798537069205736
 20
70.3999711433449136
 30
0.0
 40
3.0491001760150049
 50
23.2985217250792402
 51
24.512904164465759
  0
ARC
  5
F273
  8
0
 10
387.9637430046963118
 20
71.8639324934290897
 30
0.0
 40
0.6379138386161494
 50
203.8538660479713087
 51
223.473476620634699
  0
ARC
  5
F274
  8
0
 10
387.9611457514549215
 20
71.8640584846124142
 30
0.0
 40
0.6361184878978026
 50
223.6426651647888093
 51
248.2377313537751036
  0
ARC
  5
F275
  8
0
 10
387.9705071136020251
 20
71.8853979126446063
 30
0.0
 40
0.6594083071824937
 50
248.1697443368545919
 51
270.0251155223235742
  0
ARC
  5
F276
  8
0
 10
387.3903821681607837
 20
71.796423147752094
 30
0.0
 40
0.002494231437201
 50
37.5812876546942718
 51
81.8457926073255351
  0
ARC
  5
F277
  8
0
 10
387.3651875295058176
 20
71.7835764647847299
 30
0.0
 40
0.0307362157650125
 50
9.0603067386014509
 51
27.8693965119095601
  0
ARC
  5
F278
  8
0
 10
384.9352961922093073
 20
71.3672628641019458
 30
0.0
 40
2.4960311150719918
 50
8.7336285243118859
 51
9.7139500962040515
  0
ARC
  5
F279
  8
0
 10
388.0296520132615115
 20
71.8520441028847046
 30
0.0
 40
0.6361232440627822
 50
189.5722289266059022
 51
218.1914492684242077
  0
ARC
  5
F27A
  8
0
 10
387.9667124203359094
 20
71.8476714076227552
 30
0.0
 40
0.5850290805301734
 50
221.6682053540066022
 51
270.3999538358871746
  0
LINE
  5
F27B
  8
0
 10
388.2706363111656742
 20
72.9480740665833878
 30
0.0
 11
387.6709560673808141
 21
72.9480740665833878
 31
0.0
  0
ARC
  5
F27C
  8
0
 10
387.6709625002422968
 20
71.6105713127518726
 30
0.0
 40
1.337502753846981
 50
90.0002755701296309
 51
95.8169011721041954
  0
ARC
  5
F27D
  8
0
 10
387.5726378188155081
 20
72.5757279131401418
 30
0.0
 40
0.367350700686908
 50
95.8169011721041954
 51
105.7331858168788017
  0
ARC
  5
F27E
  8
0
 10
387.4918788415972131
 20
72.86239964016427
 30
0.0
 40
0.0695207299379357
 50
105.7331858168788017
 51
129.2046948317058082
  0
ARC
  5
F27F
  8
0
 10
387.4701818913187026
 20
72.8889982793761533
 30
0.0
 40
0.0351951526039388
 50
129.2046948317054103
 51
164.5979830600487901
  0
ARC
  5
F280
  8
0
 10
343.8961464185193222
 20
82.5764536720069344
 30
0.0
 40
44.6027628813577266
 50
347.1580576358937833
 51
347.4680207343449183
  0
ARC
  5
F281
  8
0
 10
342.4546217091943845
 20
84.5587093841438673
 30
0.0
 40
46.4767845891872327
 50
344.0507368606066052
 51
345.1700716988891031
  0
ARC
  5
F282
  8
0
 10
387.2948520700819017
 20
71.7433313544544404
 30
0.0
 40
0.1588270559664298
 50
163.8391624936434141
 51
172.3315356261277032
  0
ARC
  5
F283
  8
0
 10
387.1939306881029097
 20
71.7653995180827877
 30
0.0
 40
0.0564920150623599
 50
180.8866386900081977
 51
196.2072601053538108
  0
ARC
  5
F284
  8
0
 10
387.2245471581003926
 20
71.7690795749892487
 30
0.0
 40
0.0870632491261816
 50
192.907305121203791
 51
212.6089196784247122
  0
ARC
  5
F285
  8
0
 10
387.241969564398687
 20
71.7859647842289093
 30
0.0
 40
0.1109441958538142
 50
215.1064809908129973
 51
241.279693057391512
  0
LINE
  5
F286
  8
0
 10
388.2748695454732228
 20
72.8529773814145756
 30
0.0
 11
387.6667228330733224
 21
72.8529773814145756
 31
0.0
  0
ARC
  5
F287
  8
0
 10
387.66672191867832
 20
71.703648799352024
 30
0.0
 40
1.1493285820629331
 50
89.999954416022419
 51
97.514497193154952
  0
ARC
  5
F288
  8
0
 10
387.5520155611645805
 20
72.5732298095784216
 30
0.0
 40
0.2722147457791623
 50
97.514497193154952
 51
110.5801227744660054
  0
ARC
  5
F289
  8
0
 10
387.5129985294772155
 20
72.6771423846348341
 30
0.0
 40
0.1612185655901501
 50
110.5801227744660054
 51
127.2725241094758957
  0
ARC
  5
F28A
  8
0
 10
387.994381229828889
 20
65.4826126845631791
 30
0.0
 40
6.3940320291155119
 50
90.2113418171269643
 51
91.5273851145377222
  0
ARC
  5
F28B
  8
0
 10
387.9135065206427271
 20
68.5156930386095837
 30
0.0
 40
3.3598736363007449
 50
91.5273851102208198
 51
96.5183645454664543
  0
ARC
  5
F28C
  8
0
 10
387.7318126177867157
 20
70.1058682655373246
 30
0.0
 40
1.759351869291701
 50
96.5183645454664543
 51
105.5069213689620966
  0
ARC
  5
F28D
  8
0
 10
387.2986181398227927
 20
71.6671846607669067
 30
0.0
 40
0.1390536431150571
 50
105.5069213689620966
 51
123.262668114395197
  0
ARC
  5
F28E
  8
0
 10
387.2075439006280817
 20
71.7260045546662326
 30
0.0
 40
0.0280673246598871
 50
218.0578949707779941
 51
254.1474337642713976
  0
ARC
  5
F28F
  8
0
 10
387.1960829994800974
 20
71.7148483403842931
 30
0.0
 40
0.0122866758572448
 50
152.2728253774021141
 51
210.0148526610718136
  0
ARC
  5
F290
  8
0
 10
387.3554827213429235
 20
71.6624158779688827
 30
0.0
 40
0.1799307353241471
 50
137.7237077640139091
 51
161.1449994002495032
  0
LINE
  5
F291
  8
0
 10
387.9668591813733087
 20
71.037136529414596
 30
0.0
 11
387.9668847554073068
 21
71.0336726252279078
 31
0.0
  0
LINE
  5
F292
  8
0
 10
387.9668847554073068
 20
71.0336726252279078
 30
0.0
 11
387.9264742759731917
 21
71.0333742743145962
 31
0.0
  0
LINE
  5
F293
  8
0
 10
387.9264742759731917
 20
71.0333742743145962
 30
0.0
 11
387.911690318873184
 21
71.0367218351145908
 31
0.0
  0
LINE
  5
F294
  8
0
 10
387.911690318873184
 20
71.0367218351145908
 30
0.0
 11
387.9668591813733087
 21
71.037136529414596
 31
0.0
  0
LINE
  5
F295
  8
0
 10
387.9668591813733087
 20
71.0333140646145864
 30
0.0
 11
387.9668591813733087
 21
71.0300835897614746
 31
0.0
  0
LINE
  5
F296
  8
0
 10
387.9668591813733087
 20
71.0300835897614746
 30
0.0
 11
387.9053323646373883
 21
71.0290833430614015
 31
0.0
  0
LINE
  5
F297
  8
0
 10
387.9053362275731729
 20
71.028849306214596
 30
0.0
 11
387.8767846791732268
 21
71.0318497157145998
 31
0.0
  0
ARC
  5
F298
  8
0
 10
387.9681372673971964
 20
68.1836495519314809
 30
0.0
 40
2.8496647992964701
 50
90.0256973864082966
 51
91.8370633138711412
  0
LINE
  5
F299
  8
0
 10
387.9112628456732068
 20
71.0331269807145986
 30
0.0
 11
387.8964788885733128
 21
71.0364745416145951
 31
0.0
  0
LINE
  5
F29A
  8
0
 10
387.845283757873176
 20
71.0351600673145924
 30
0.0
 11
387.8738313382731917
 21
71.0321600748145983
 31
0.0
  0
LINE
  5
F29B
  8
0
 10
387.8738313382731917
 20
71.0321600748145983
 30
0.0
 11
387.9112628456732068
 21
71.0331269807145986
 31
0.0
  0
LINE
  5
F29C
  8
0
 10
387.8964788885733128
 20
71.0364745416145951
 30
0.0
 11
387.845283757873176
 21
71.0351600673145924
 31
0.0
  0
ARC
  5
F29D
  8
0
 10
387.9697832052382864
 20
69.0512755149038924
 30
0.0
 40
1.9782193468693829
 50
89.9706606284349704
 51
91.7813266479336392
  0
LINE
  5
F29E
  8
0
 10
387.908290243473175
 20
71.0285388762145971
 30
0.0
 11
387.9398132081731774
 21
71.0252262081145886
 31
0.0
  0
LINE
  5
F29F
  8
0
 10
387.9398132081731774
 20
71.0252262081145886
 30
0.0
 11
387.9707961892731873
 21
71.025672727214598
 31
0.0
  0
LINE
  5
F2A0
  8
0
 10
387.7129522287733039
 20
71.0217314183145874
 30
0.0
 11
387.7700473895732216
 21
71.0217314183145874
 31
0.0
  0
ARC
  5
F2A1
  8
0
 10
387.7764792348924061
 20
71.0149847397732827
 30
0.0
 40
0.0093212823982749
 50
99.3696659939057838
 51
133.6314715860351896
  0
LINE
  5
F2A2
  8
0
 10
387.7749616963732251
 20
71.0241816622145734
 30
0.0
 11
387.7197872171731774
 21
71.025078638414584
 31
0.0
  0
ARC
  5
F2A3
  8
0
 10
387.7237830284561255
 20
71.0057953659246834
 30
0.0
 40
0.0196929201930083
 50
101.7069445375929035
 51
120.7265619868809949
  0
ARC
  5
F2A4
  8
0
 10
387.7145959871912169
 20
71.0212517797102549
 30
0.0
 40
0.0017123069021664
 50
120.7265619868842066
 51
163.7330795307051119
  0
ARC
  5
F2A5
  8
0
 10
387.7710635028230968
 20
70.7738898291779748
 30
0.0
 40
0.2564920998533635
 50
95.7135833505243454
 51
100.6041650198878017
  0
LINE
  5
F2A6
  8
0
 10
387.7949741248096984
 20
71.0273756287203213
 30
0.0
 11
387.7790375867731996
 21
71.0251045742145948
 31
0.0
  0
LINE
  5
F2A7
  8
0
 10
387.7790375867731996
 20
71.0251045742145948
 30
0.0
 11
387.72386310767331
 21
71.0260015504145912
 31
0.0
  0
LINE
  5
F2A8
  8
0
 10
387.7949741240794879
 20
71.0273756286162552
 30
0.0
 11
387.7455282653733093
 21
71.0291076752145898
 31
0.0
  0
LINE
  5
F2A9
  8
0
 10
387.7494652732733016
 20
71.0295214053145969
 30
0.0
 11
387.7829689780733133
 21
71.0322128358145903
 31
0.0
  0
LINE
  5
F2AA
  8
0
 10
387.7829689780733133
 20
71.0322128358145903
 30
0.0
 11
387.8233595000651235
 21
71.0297622512150753
 31
0.0
  0
LINE
  5
F2AB
  8
0
 10
387.8233595000651235
 20
71.0297622512150753
 30
0.0
 11
387.7989111328731724
 21
71.0277893588145872
 31
0.0
  0
LINE
  5
F2AC
  8
0
 10
387.7989111328731724
 20
71.0277893588145872
 30
0.0
 11
387.7494652732733016
 21
71.0295214053145969
 31
0.0
  0
LINE
  5
F2AD
  8
0
 10
387.7941045179733237
 20
71.0328884543145875
 30
0.0
 11
387.8384646601733152
 21
71.0349212001145958
 31
0.0
  0
LINE
  5
F2AE
  8
0
 10
387.8384646601733152
 20
71.0349212001145958
 30
0.0
 11
387.8670122405732172
 21
71.0319212076145874
 31
0.0
  0
LINE
  5
F2AF
  8
0
 10
387.8670122405732172
 20
71.0319212076145874
 30
0.0
 11
387.8344950399733193
 21
71.0304378697145893
 31
0.0
  0
LINE
  5
F2B0
  8
0
 10
387.8344950399733193
 20
71.0304378697145893
 30
0.0
 11
387.7941045179733237
 21
71.0328884543145875
 31
0.0
  0
LINE
  5
F2B1
  8
0
 10
387.8040264693732979
 20
71.0276101729145921
 30
0.0
 11
387.8534792018733128
 21
71.0309319644145916
 31
0.0
  0
LINE
  5
F2B2
  8
0
 10
387.8534792018733128
 20
71.0309319644145916
 30
0.0
 11
387.8699655814731955
 21
71.031610848514589
 31
0.0
  0
LINE
  5
F2B3
  8
0
 10
387.8699655814731955
 20
71.031610848514589
 30
0.0
 11
387.8985171298014052
 21
71.0286104390221453
 31
0.0
  0
LINE
  5
F2B4
  8
0
 10
387.8985171298014052
 20
71.0286104390221453
 30
0.0
 11
387.8534792018733128
 21
71.0258778857145927
 31
0.0
  0
LINE
  5
F2B5
  8
0
 10
387.8534792018733128
 20
71.0258778857145927
 30
0.0
 11
387.8040264693732979
 21
71.0276101729145921
 31
0.0
  0
ARC
  5
F2B6
  8
0
 10
387.8282358329062731
 20
70.7672225366707295
 30
0.0
 40
0.2614931167364627
 50
96.1791249276989646
 51
98.4902172699011231
  0
ARC
  5
F2B7
  8
0
 10
387.8033062009728269
 20
70.9342256487341274
 30
0.0
 40
0.0926395529979352
 50
98.4902172699011231
 51
104.8318754243350952
  0
ARC
  5
F2B8
  8
0
 10
387.7823512789979077
 20
71.0133585626831945
 30
0.0
 40
0.0107791423890896
 50
104.8318754243317983
 51
122.7122295291210037
  0
ARC
  5
F2B9
  8
0
 10
387.7773183308810871
 20
71.0211945055396114
 30
0.0
 40
0.001466110273024
 50
122.7122295291056986
 51
158.5175745251054877
  0
LINE
  5
F2BA
  8
0
 10
387.7759540713731781
 20
71.0217314183145874
 30
0.0
 11
387.8330571681732977
 21
71.0217314183191633
 31
0.0
  0
ARC
  5
F2BB
  8
0
 10
387.8353502101118124
 20
71.0199341971093219
 30
0.0
 40
0.0029134250305996
 50
107.2285919468240962
 51
141.9116586105419913
  0
ARC
  5
F2BC
  8
0
 10
387.8505783378438991
 20
70.9708268293145039
 30
0.0
 40
0.0543277172649784
 50
100.5628998995034067
 51
107.2285919468237978
  0
ARC
  5
F2BD
  8
0
 10
387.8580623982111888
 20
70.9306923957143027
 30
0.0
 40
0.0951539823401795
 50
95.1372147255111571
 51
100.5628998995034067
  0
LINE
  5
F2BE
  8
0
 10
387.8495421939732068
 20
71.0254641556145998
 30
0.0
 11
387.8000894614731919
 21
71.0271964428145992
 31
0.0
  0
ARC
  5
F2BF
  8
0
 10
387.8404268121287259
 20
71.0208834900465149
 30
0.0
 40
0.0016897610602344
 50
105.313812665244896
 51
149.8805995444473069
  0
ARC
  5
F2C0
  8
0
 10
387.8477616046637877
 20
71.0034316705542636
 30
0.0
 40
0.0206070824352748
 50
100.7879356309790069
 51
112.1846002688587021
  0
ARC
  5
F2C1
  8
0
 10
387.872048856775109
 20
70.8741094143351518
 30
0.0
 40
0.1521901367724951
 50
94.8806363742582022
 51
100.6569938105779016
  0
ARC
  5
F2C2
  8
0
 10
387.927202705271327
 20
70.2481528797036248
 30
0.0
 40
0.7805713654281444
 50
91.8890994160434502
 51
95.0052269122040087
  0
LINE
  5
F2C3
  8
0
 10
387.9014711457733142
 20
71.0283000090146004
 30
0.0
 11
387.9329941104710997
 21
71.0249873409148194
 31
0.0
  0
ARC
  5
F2C4
  8
0
 10
387.9543056130689251
 20
70.4828075934696443
 30
0.0
 40
0.5425984322520212
 50
92.2509709694876676
 51
93.4287306996825748
  0
ARC
  5
F2C5
  8
0
 10
387.9383264135690865
 20
70.7495090689764226
 30
0.0
 40
0.2754186952693167
 50
93.4287306996793205
 51
95.6998063880920284
  0
ARC
  5
F2C6
  8
0
 10
387.918575023904225
 20
70.9473992406437759
 30
0.0
 40
0.0765452746313953
 50
95.6998063880920284
 51
100.2883011421471053
  0
ARC
  5
F2C7
  8
0
 10
387.9074068086022749
 20
71.0089253679501695
 30
0.0
 40
0.0140137355942572
 50
100.2883011421472048
 51
109.9387470871531036
  0
ARC
  5
F2C8
  8
0
 10
387.9032776798687792
 20
71.0203079033756808
 30
0.0
 40
0.0019053989285387
 50
109.9387470871773047
 51
131.6605953666642108
  0
LINE
  5
F2C9
  8
0
 10
387.9020111293733066
 20
71.0217314183629895
 30
0.0
 11
387.8389651999733019
 21
71.0217314183145874
 31
0.0
  0
LINE
  5
F2CA
  8
0
 10
387.9605675427732194
 20
71.0230451880145921
 30
0.0
 11
387.9427712510732249
 21
71.0249153549145831
 31
0.0
  0
LINE
  5
F2CB
  8
0
 10
387.9427712510732249
 20
71.0249153549145831
 30
0.0
 11
387.9605675427732194
 21
71.0252629308145913
 31
0.0
  0
LINE
  5
F2CC
  8
0
 10
387.9605675427732194
 20
71.0252629308145913
 30
0.0
 11
387.9707961892731873
 21
71.0253144264145959
 31
0.0
  0
LINE
  5
F2CD
  8
0
 10
387.9537484451727778
 20
71.0228063208146239
 30
0.0
 11
387.9435197986733215
 21
71.0238812232145875
 31
0.0
  0
LINE
  5
F2CE
  8
0
 10
387.9435197986733215
 20
71.0238812232145875
 30
0.0
 11
387.9359521533733073
 21
71.0246764877146006
 31
0.0
  0
ARC
  5
F2CF
  8
0
 10
387.9512686037999742
 20
70.620739979576129
 30
0.0
 40
0.4042267881533398
 50
92.1714990609700067
 51
94.3453594516754066
  0
ARC
  5
F2D0
  8
0
 10
387.9284075416846918
 20
70.9137468304301564
 30
0.0
 40
0.1103316592656987
 50
94.036495551790324
 51
99.0408919815463662
  0
ARC
  5
F2D1
  8
0
 10
387.9137847109304857
 20
71.0063171080626603
 30
0.0
 40
0.0166139454230578
 50
99.4039308996724884
 51
107.895927979260307
  0
ARC
  5
F2D2
  8
0
 10
387.9093790209748249
 20
71.0198849085667234
 30
0.0
 40
0.0023489015165665
 50
107.3278041361416939
 51
128.1759602912671028
  0
LINE
  5
F2D3
  8
0
 10
387.9079272151731743
 20
71.0217314183145874
 30
0.0
 11
387.9435197986733215
 21
71.0217314183145874
 31
0.0
  0
ARC
  5
F2D4
  8
0
 10
387.946042371907879
 20
71.014437287261913
 30
0.0
 40
0.007718012926795
 50
97.0244790214482435
 51
109.0772286846924999
  0
ARC
  5
F2D5
  8
0
 10
387.9581019643433137
 20
70.916565494430472
 30
0.0
 40
0.1063299878676972
 50
92.3465442235769132
 51
97.0244790214482435
  0
LINE
  5
F2D6
  8
0
 10
387.9435197986733215
 20
71.0217314183145874
 30
0.0
 11
387.9435197986733215
 21
71.0238812232145875
 31
0.0
  0
LINE
  5
F2D7
  8
0
 10
387.9398132081731774
 20
71.0292678262145927
 30
0.0
 11
387.9398132081731774
 21
71.0252262081145886
 31
0.0
  0
LINE
  5
F2D8
  8
0
 10
387.9264742759731917
 20
71.0368329634297737
 30
0.0
 11
387.9264742759731917
 21
71.0333742743145962
 31
0.0
  0
LINE
  5
F2D9
  8
0
 10
387.8738313382731917
 20
71.0358930483666882
 30
0.0
 11
387.8738313382731917
 21
71.0321600748145983
 31
0.0
  0
LINE
  5
F2DA
  8
0
 10
387.8344950399733193
 20
71.0347392974337453
 30
0.0
 11
387.8344950399733193
 21
71.0304378697145893
 31
0.0
  0
LINE
  5
F2DB
  8
0
 10
387.7989111328731724
 20
71.0312455891163808
 30
0.0
 11
387.7989111328731724
 21
71.0277893588145872
 31
0.0
  0
LINE
  5
F2DC
  8
0
 10
387.7790375867731996
 20
71.0251045742145948
 30
0.0
 11
387.7790375867731996
 21
71.02793387203549
 31
0.0
  0
LINE
  5
F2DD
  8
0
 10
387.7700473895732216
 20
71.0217314183145874
 30
0.0
 11
387.7700473895732216
 21
71.0242615545181195
 31
0.0
  0
LINE
  5
F2DE
  8
0
 10
387.8330571681732977
 20
71.0217314183191633
 30
0.0
 11
387.8330571681732977
 21
71.0260416120612064
 31
0.0
  0
LINE
  5
F2DF
  8
0
 10
387.8534792018733128
 20
71.0309319644145916
 30
0.0
 11
387.8534792018733128
 21
71.0258778857145927
 31
0.0
  0
LINE
  5
F2E0
  8
0
 10
387.9053362275731729
 20
71.0326222611279547
 30
0.0
 11
387.9053362275731729
 21
71.028849306214596
 31
0.0
  0
LINE
  5
F2E1
  8
0
 10
387.9020111293733066
 20
71.0352218652934795
 30
0.0
 11
387.9020111293733066
 21
71.0328879965085918
 31
0.0
  0
LINE
  5
F2E2
  8
0
 10
387.9605675427732194
 20
71.0252629308145913
 30
0.0
 11
387.9605675427732194
 21
71.0230451880145921
 31
0.0
  0
LINE
  5
F2E3
  8
0
 10
387.9668591813733087
 20
71.0058485728145996
 30
0.0
 11
387.9668847554073068
 21
71.0093124770012736
 31
0.0
  0
LINE
  5
F2E4
  8
0
 10
387.9668847554073068
 20
71.0093124770012736
 30
0.0
 11
387.9264742759731917
 21
71.0096108279145994
 31
0.0
  0
LINE
  5
F2E5
  8
0
 10
387.9264742759731917
 20
71.0096108279145994
 30
0.0
 11
387.911690318873184
 21
71.0062632671145906
 31
0.0
  0
LINE
  5
F2E6
  8
0
 10
387.911690318873184
 20
71.0062632671145906
 30
0.0
 11
387.9668591813733087
 21
71.0058485728145996
 31
0.0
  0
LINE
  5
F2E7
  8
0
 10
387.9668591813733087
 20
71.009671037614595
 30
0.0
 11
387.9668591813733087
 21
71.0129015124677068
 31
0.0
  0
LINE
  5
F2E8
  8
0
 10
387.9668591813733087
 20
71.0129015124677068
 30
0.0
 11
387.9053323646373883
 21
71.0139017591677799
 31
0.0
  0
LINE
  5
F2E9
  8
0
 10
387.9053362275731729
 20
71.0141357960145996
 30
0.0
 11
387.8767846791732268
 21
71.0111353865145958
 31
0.0
  0
ARC
  5
F2EA
  8
0
 10
387.9681372673971964
 20
73.8593355502977147
 30
0.0
 40
2.8496647992964701
 50
268.1629366861288872
 51
269.9743026135917034
  0
LINE
  5
F2EB
  8
0
 10
387.9112628456732068
 20
71.009858121514597
 30
0.0
 11
387.8964788885733128
 21
71.0065105606146005
 31
0.0
  0
LINE
  5
F2EC
  8
0
 10
387.845283757873176
 20
71.0078250349145748
 30
0.0
 11
387.8738313382731917
 21
71.0108250274145831
 31
0.0
  0
LINE
  5
F2ED
  8
0
 10
387.8738313382731917
 20
71.0108250274145831
 30
0.0
 11
387.9112628456732068
 21
71.009858121514597
 31
0.0
  0
LINE
  5
F2EE
  8
0
 10
387.8964788885733128
 20
71.0065105606146005
 30
0.0
 11
387.845283757873176
 21
71.0078250349145748
 31
0.0
  0
ARC
  5
F2EF
  8
0
 10
387.9697832052382864
 20
72.991709587325289
 30
0.0
 40
1.9782193468693829
 50
268.2186733520663893
 51
270.0293393715650154
  0
LINE
  5
F2F0
  8
0
 10
387.908290243473175
 20
71.0144462260145986
 30
0.0
 11
387.9398132081731774
 21
71.0177588941145927
 31
0.0
  0
LINE
  5
F2F1
  8
0
 10
387.9398132081731774
 20
71.0177588941145927
 30
0.0
 11
387.9707961892731873
 21
71.0173123750145976
 31
0.0
  0
LINE
  5
F2F2
  8
0
 10
387.7129522287733039
 20
71.021253683914594
 30
0.0
 11
387.7700473895732216
 21
71.021253683914594
 31
0.0
  0
ARC
  5
F2F3
  8
0
 10
387.7764792348924061
 20
71.0280003624558844
 30
0.0
 40
0.0093212823982749
 50
226.3685284139648104
 51
260.6303340060941878
  0
LINE
  5
F2F4
  8
0
 10
387.7749616963732251
 20
71.0188034400145938
 30
0.0
 11
387.7197872171731774
 21
71.0179064638145832
 31
0.0
  0
ARC
  5
F2F5
  8
0
 10
387.7237830284561255
 20
71.0371897363044837
 30
0.0
 40
0.0196929201930083
 50
239.2734380131161913
 51
258.2930554624069828
  0
ARC
  5
F2F6
  8
0
 10
387.7145959871912169
 20
71.0217333225189407
 30
0.0
 40
0.0017123069021664
 50
196.2669204692948028
 51
239.2734380131157934
  0
ARC
  5
F2F7
  8
0
 10
387.7710635028230968
 20
71.2690952730512066
 30
0.0
 40
0.2564920998533635
 50
259.3958349801122267
 51
264.2864166494755978
  0
LINE
  5
F2F8
  8
0
 10
387.7949741248096984
 20
71.0156094735088601
 30
0.0
 11
387.7790375867731996
 21
71.0178805280145866
 31
0.0
  0
LINE
  5
F2F9
  8
0
 10
387.7790375867731996
 20
71.0178805280145866
 30
0.0
 11
387.72386310767331
 21
71.0169835518145902
 31
0.0
  0
LINE
  5
F2FA
  8
0
 10
387.7949741240794879
 20
71.015609473612912
 30
0.0
 11
387.7455282653733093
 21
71.0138774270145916
 31
0.0
  0
LINE
  5
F2FB
  8
0
 10
387.7494652732733016
 20
71.0134636969145987
 30
0.0
 11
387.7829689780733133
 21
71.0107722664145911
 31
0.0
  0
LINE
  5
F2FC
  8
0
 10
387.7829689780733133
 20
71.0107722664145911
 30
0.0
 11
387.8233595000651235
 21
71.0132228510140919
 31
0.0
  0
LINE
  5
F2FD
  8
0
 10
387.8233595000651235
 20
71.0132228510140919
 30
0.0
 11
387.7989111328731724
 21
71.0151957434145942
 31
0.0
  0
LINE
  5
F2FE
  8
0
 10
387.7989111328731724
 20
71.0151957434145942
 30
0.0
 11
387.7494652732733016
 21
71.0134636969145987
 31
0.0
  0
LINE
  5
F2FF
  8
0
 10
387.7941045179733237
 20
71.0100966479145939
 30
0.0
 11
387.8384646601733152
 21
71.0080639021145856
 31
0.0
  0
LINE
  5
F300
  8
0
 10
387.8384646601733152
 20
71.0080639021145856
 30
0.0
 11
387.8670122405732172
 21
71.011063894614594
 31
0.0
  0
LINE
  5
F301
  8
0
 10
387.8670122405732172
 20
71.011063894614594
 30
0.0
 11
387.8344950399733193
 21
71.0125472325145921
 31
0.0
  0
LINE
  5
F302
  8
0
 10
387.8344950399733193
 20
71.0125472325145921
 30
0.0
 11
387.7941045179733237
 21
71.0100966479145939
 31
0.0
  0
LINE
  5
F303
  8
0
 10
387.8040264693732979
 20
71.0153749293145893
 30
0.0
 11
387.8534792018733128
 21
71.0120531378145898
 31
0.0
  0
LINE
  5
F304
  8
0
 10
387.8534792018733128
 20
71.0120531378145898
 30
0.0
 11
387.8699655814731955
 21
71.0113742537145924
 31
0.0
  0
LINE
  5
F305
  8
0
 10
387.8699655814731955
 20
71.0113742537145924
 30
0.0
 11
387.8985171298014052
 21
71.0143746632070361
 31
0.0
  0
LINE
  5
F306
  8
0
 10
387.8985171298014052
 20
71.0143746632070361
 30
0.0
 11
387.8534792018733128
 21
71.0171072165145887
 31
0.0
  0
LINE
  5
F307
  8
0
 10
387.8534792018733128
 20
71.0171072165145887
 30
0.0
 11
387.8040264693732979
 21
71.0153749293145893
 31
0.0
  0
ARC
  5
F308
  8
0
 10
387.8282358329062731
 20
71.2757625655584661
 30
0.0
 40
0.2614931167364627
 50
261.5097827300988911
 51
263.8208750723010212
  0
ARC
  5
F309
  8
0
 10
387.8033062009728269
 20
71.1087594534950682
 30
0.0
 40
0.0926395529979352
 50
255.1681245756649048
 51
261.5097827300988911
  0
ARC
  5
F30A
  8
0
 10
387.7823512789979077
 20
71.0296265395459727
 30
0.0
 40
0.0107791423890896
 50
237.2877704708789963
 51
255.1681245756682017
  0
ARC
  5
F30B
  8
0
 10
387.7773183308810871
 20
71.02179059668957
 30
0.0
 40
0.001466110273024
 50
201.4824254748945123
 51
237.2877704708942872
  0
LINE
  5
F30C
  8
0
 10
387.7759540713731781
 20
71.021253683914594
 30
0.0
 11
387.8330571681732977
 21
71.0212536839100324
 31
0.0
  0
ARC
  5
F30D
  8
0
 10
387.8353502101118124
 20
71.0230509051198595
 30
0.0
 40
0.0029134250305996
 50
218.0883413894580087
 51
252.7714080531758896
  0
ARC
  5
F30E
  8
0
 10
387.8505783378438991
 20
71.0721582729146775
 30
0.0
 40
0.0543277172649784
 50
252.7714080531762022
 51
259.4371001004965933
  0
ARC
  5
F30F
  8
0
 10
387.8580623982111888
 20
71.1122927065148929
 30
0.0
 40
0.0951539823401795
 50
259.4371001004965933
 51
264.8627852744887718
  0
LINE
  5
F310
  8
0
 10
387.8495421939732068
 20
71.0175209466145958
 30
0.0
 11
387.8000894614731919
 21
71.0157886594145964
 31
0.0
  0
ARC
  5
F311
  8
0
 10
387.8404268121287259
 20
71.0221016121826807
 30
0.0
 40
0.0016897610602344
 50
210.1194004555526931
 51
254.6861873347550045
  0
ARC
  5
F312
  8
0
 10
387.8477616046637877
 20
71.0395534316749035
 30
0.0
 40
0.0206070824352748
 50
247.8153997311412979
 51
259.2120643690209931
  0
ARC
  5
F313
  8
0
 10
387.872048856775109
 20
71.1688756878940296
 30
0.0
 40
0.1521901367724951
 50
259.3430061894188725
 51
265.1193636257416983
  0
ARC
  5
F314
  8
0
 10
387.927202705271327
 20
71.7948322225255708
 30
0.0
 40
0.7805713654281444
 50
264.9947730877959771
 51
268.1109005839564929
  0
LINE
  5
F315
  8
0
 10
387.9014711457733142
 20
71.0146850932145952
 30
0.0
 11
387.9329941104710997
 21
71.017997761314362
 31
0.0
  0
ARC
  5
F316
  8
0
 10
387.9543056130689251
 20
71.5601775087595371
 30
0.0
 40
0.5425984322520212
 50
266.5712693003173968
 51
267.7490290305124176
  0
ARC
  5
F317
  8
0
 10
387.9383264135690865
 20
71.2934760332527588
 30
0.0
 40
0.2754186952693167
 50
264.3001936119079005
 51
266.57126930032058
  0
ARC
  5
F318
  8
0
 10
387.918575023904225
 20
71.0955858615854055
 30
0.0
 40
0.0765452746313953
 50
259.7116988578529231
 51
264.3001936119079005
  0
ARC
  5
F319
  8
0
 10
387.9074068086022749
 20
71.0340597342790119
 30
0.0
 40
0.0140137355942572
 50
250.0612529128468964
 51
259.7116988578526957
  0
ARC
  5
F31A
  8
0
 10
387.9032776798687792
 20
71.0226771988535148
 30
0.0
 40
0.0019053989285387
 50
228.3394046333357892
 51
250.0612529128223969
  0
LINE
  5
F31B
  8
0
 10
387.9020111293733066
 20
71.0212536838662061
 30
0.0
 11
387.8389651999733019
 21
71.021253683914594
 31
0.0
  0
LINE
  5
F31C
  8
0
 10
387.9605675427732194
 20
71.0199399142145751
 30
0.0
 11
387.9427712510732249
 21
71.0180697473145841
 31
0.0
  0
LINE
  5
F31D
  8
0
 10
387.9427712510732249
 20
71.0180697473145841
 30
0.0
 11
387.9605675427732194
 21
71.0177221714145901
 31
0.0
  0
LINE
  5
F31E
  8
0
 10
387.9605675427732194
 20
71.0177221714145901
 30
0.0
 11
387.9707961892731873
 21
71.0176706758145997
 31
0.0
  0
LINE
  5
F31F
  8
0
 10
387.9537484451727778
 20
71.0201787814145433
 30
0.0
 11
387.9435197986733215
 21
71.0191038790145939
 31
0.0
  0
LINE
  5
F320
  8
0
 10
387.9435197986733215
 20
71.0191038790145939
 30
0.0
 11
387.9359521533733073
 21
71.018308614514595
 31
0.0
  0
ARC
  5
F321
  8
0
 10
387.9512686037999742
 20
71.4222451226530524
 30
0.0
 40
0.4042267881533398
 50
265.6546405483246076
 51
267.8285009390299933
  0
ARC
  5
F322
  8
0
 10
387.9284075416846918
 20
71.1292382717990392
 30
0.0
 40
0.1103316592656987
 50
260.9591080184536054
 51
265.963504448209676
  0
ARC
  5
F323
  8
0
 10
387.9137847109304857
 20
71.0366679941665211
 30
0.0
 40
0.0166139454230578
 50
252.104072020739693
 51
260.5960691003274974
  0
ARC
  5
F324
  8
0
 10
387.9093790209748249
 20
71.023100193662458
 30
0.0
 40
0.0023489015165665
 50
231.8240397087328972
 51
252.6721958638582919
  0
LINE
  5
F325
  8
0
 10
387.9079272151731743
 20
71.021253683914594
 30
0.0
 11
387.9435197986733215
 21
71.021253683914594
 31
0.0
  0
ARC
  5
F326
  8
0
 10
387.946042371907879
 20
71.0285478149672826
 30
0.0
 40
0.007718012926795
 50
250.9227713153073864
 51
262.9755209785517991
  0
ARC
  5
F327
  8
0
 10
387.9581019643433137
 20
71.1264196077987094
 30
0.0
 40
0.1063299878676972
 50
262.9755209785517991
 51
267.6534557764230726
  0
LINE
  5
F328
  8
0
 10
387.9435197986733215
 20
71.021253683914594
 30
0.0
 11
387.9435197986733215
 21
71.0191038790145939
 31
0.0
  0
LINE
  5
F329
  8
0
 10
387.9398132081731774
 20
71.0137172760145887
 30
0.0
 11
387.9398132081731774
 21
71.0177588941145927
 31
0.0
  0
LINE
  5
F32A
  8
0
 10
387.9264742759731917
 20
71.0061521387993935
 30
0.0
 11
387.9264742759731917
 21
71.0096108279145994
 31
0.0
  0
LINE
  5
F32B
  8
0
 10
387.8738313382731917
 20
71.0070920538624932
 30
0.0
 11
387.8738313382731917
 21
71.0108250274145831
 31
0.0
  0
LINE
  5
F32C
  8
0
 10
387.8344950399733193
 20
71.0082458047954503
 30
0.0
 11
387.8344950399733193
 21
71.0125472325145921
 31
0.0
  0
LINE
  5
F32D
  8
0
 10
387.7989111328731724
 20
71.0117395131128148
 30
0.0
 11
387.7989111328731724
 21
71.0151957434145942
 31
0.0
  0
LINE
  5
F32E
  8
0
 10
387.7790375867731996
 20
71.0178805280145866
 30
0.0
 11
387.7790375867731996
 21
71.0150512301936914
 31
0.0
  0
LINE
  5
F32F
  8
0
 10
387.7700473895732216
 20
71.021253683914594
 30
0.0
 11
387.7700473895732216
 21
71.0187235477110619
 31
0.0
  0
LINE
  5
F330
  8
0
 10
387.8330571681732977
 20
71.0212536839100324
 30
0.0
 11
387.8330571681732977
 21
71.016943490167975
 31
0.0
  0
LINE
  5
F331
  8
0
 10
387.8534792018733128
 20
71.0120531378145898
 30
0.0
 11
387.8534792018733128
 21
71.0171072165145887
 31
0.0
  0
LINE
  5
F332
  8
0
 10
387.9053362275731729
 20
71.0103628411012124
 30
0.0
 11
387.9053362275731729
 21
71.0141357960145996
 31
0.0
  0
LINE
  5
F333
  8
0
 10
387.9020111293733066
 20
71.0077632369357019
 30
0.0
 11
387.9020111293733066
 21
71.0100971057206038
 31
0.0
  0
LINE
  5
F334
  8
0
 10
387.9605675427732194
 20
71.0177221714145901
 30
0.0
 11
387.9605675427732194
 21
71.0199399142145751
 31
0.0
  0
LINE
  5
F336
  8
0
 10
388.9768585224742878
 20
67.5274175717145937
 30
0.0
 11
388.9768585224742878
 21
69.7311124301145924
 31
0.0
  0
ARC
  5
F337
  8
0
 10
358.5055514339148885
 20
69.3874624883547853
 30
0.0
 40
30.4732448381815715
 50
0.6461441423216272
 51
2.1590498427961111
  0
ARC
  5
F338
  8
0
 10
384.0975175343883734
 20
70.3345810438990213
 30
0.0
 40
4.863797351815716
 50
2.3675051773713709
 51
15.3582136683002499
  0
ARC
  5
F339
  8
0
 10
388.6297545196110264
 20
71.5817501626202954
 30
0.0
 40
0.1631110975987712
 50
14.5660699958654494
 51
40.9575318213489297
  0
ARC
  5
F33A
  8
0
 10
388.5508852228792875
 20
71.7634596161972951
 30
0.0
 40
0.0354325577790067
 50
57.5509962283829211
 51
90.0465526786995838
  0
LINE
  5
F33B
  8
0
 10
388.5698965168733139
 20
71.7933600652145856
 30
0.0
 11
388.7015689251231834
 21
71.7216431505645886
 31
0.0
  0
ARC
  5
F33C
  8
0
 10
388.6148918497282807
 20
71.5663040064895739
 30
0.0
 40
0.177885258189055
 50
55.3078993432402228
 51
60.8390922892473469
  0
ARC
  5
F33D
  8
0
 10
388.806201639706785
 20
71.8719753048369654
 30
0.0
 40
0.1830928620337631
 50
240.5344098864972864
 51
247.0082242574322038
  0
ARC
  5
F33E
  8
0
 10
388.7039019465751153
 20
71.6466970617387915
 30
0.0
 40
0.0645441538653055
 50
40.5633743510624214
 51
61.5141437615987812
  0
ARC
  5
F33F
  8
0
 10
387.9702705975076924
 20
59.8582590602793374
 30
0.0
 40
11.3332955824050607
 50
88.9023119417694545
 51
89.997342856745135
  0
ARC
  5
F340
  8
0
 10
388.0356794931850004
 20
63.271974927456732
 30
0.0
 40
7.9189531353953351
 50
87.2635297096462352
 51
88.9023119417694545
  0
ARC
  5
F341
  8
0
 10
388.3853017901375893
 20
70.5867440671392501
 30
0.0
 40
0.5958333550436447
 50
80.1247208290100446
 51
87.2635297096462352
  0
ARC
  5
F342
  8
0
 10
388.4794996726010936
 20
71.1278519417560062
 30
0.0
 40
0.0465875329995855
 50
65.1149195397108542
 51
80.1247208290132562
  0
ARC
  5
F343
  8
0
 10
388.4949404446920767
 20
71.1611389315166463
 30
0.0
 40
0.009893648902999
 50
43.6034498802661972
 51
65.1149195397108542
  0
ARC
  5
F344
  8
0
 10
388.5003794860077733
 20
71.1663087111033974
 30
0.0
 40
0.0023896794353093
 50
0.8223854043012399
 51
43.783563167075549
  0
ARC
  5
F345
  8
0
 10
387.6735571881673081
 20
71.2195297906771145
 30
0.0
 40
0.8309157169595554
 50
356.3159194211045246
 51
356.3299973297250176
  0
ARC
  5
F346
  8
0
 10
388.4935706980591021
 20
71.1667213229925437
 30
0.0
 40
0.0092035515458894
 50
340.4942093770590077
 51
356.3740632996215254
  0
ARC
  5
F347
  8
0
 10
388.4938595799559948
 20
71.1662796000423157
 30
0.0
 40
0.0087895808471719
 50
314.1944281359794218
 51
342.5800568932432952
  0
ARC
  5
F348
  8
0
 10
388.485601673486201
 20
71.1733451867887936
 30
0.0
 40
0.0196372443402238
 50
288.5564383581657921
 51
317.0998233822496104
  0
ARC
  5
F349
  8
0
 10
388.4221152471175174
 20
71.3785808675193749
 30
0.0
 40
0.2344627739747923
 50
275.898782569939101
 51
287.3031784856298145
  0
ARC
  5
F34A
  8
0
 10
388.2797444387693986
 20
72.4948193147563131
 30
0.0
 40
1.359688498745049
 50
274.0001003081346198
 51
277.0323746749539282
  0
ARC
  5
F34B
  8
0
 10
388.1800188330807941
 20
73.7895331694175809
 30
0.0
 40
2.6582208202651771
 50
273.2899556827894116
 51
274.1976605867520789
  0
ARC
  5
F34C
  8
0
 10
387.9754166299218241
 20
65.9063959533473991
 30
0.0
 40
5.2749024656568224
 50
87.7982957848602155
 51
90.0501870478604616
  0
ARC
  5
F34D
  8
0
 10
388.1021880028416717
 20
69.2037912489316653
 30
0.0
 40
1.975071149311513
 50
84.3451079309024863
 51
87.7982957848602155
  0
ARC
  5
F34E
  8
0
 10
388.2741527680947797
 20
70.9404896951994033
 30
0.0
 40
0.2298796487141276
 50
75.4950453392896321
 51
84.3451079309024863
  0
ARC
  5
F34F
  8
0
 10
388.3280206178718004
 20
71.1487069345465812
 30
0.0
 40
0.0148071865044103
 50
54.5412082836824297
 51
75.4950453392929859
  0
ARC
  5
F350
  8
0
 10
388.3347679823883141
 20
71.158180796151612
 30
0.0
 40
0.0031761512267553
 50
27.3343214883581815
 51
54.5412082836783583
  0
ARC
  5
F351
  8
0
 10
388.3364576462922173
 20
71.159054178902565
 30
0.0
 40
0.0012741098134895
 50
346.6672053523773229
 51
27.3343214883676318
  0
ARC
  5
F352
  8
0
 10
387.7791492486434777
 20
71.2693743290010389
 30
0.0
 40
0.5693957360432654
 50
343.4934221639989005
 51
348.7981784946902053
  0
ARC
  5
F353
  8
0
 10
387.9743015292344239
 20
66.0432661294596102
 30
0.0
 40
5.0861799563502821
 50
87.6457663941396987
 51
90.0394876318096351
  0
ARC
  5
F354
  8
0
 10
388.1090501886367861
 20
69.3207759943402522
 30
0.0
 40
1.8059012920324671
 50
85.0720369958185643
 51
87.6458550912745267
  0
ARC
  5
F355
  8
0
 10
388.2136061924653063
 20
70.5334146493112968
 30
0.0
 40
0.5887634750755928
 50
80.822008699008336
 51
85.0720369958185643
  0
ARC
  5
F356
  8
0
 10
388.2956088965447066
 20
71.0409498324923021
 30
0.0
 40
0.0746463623056485
 50
69.0790377761163938
 51
80.8220086990049964
  0
ARC
  5
F357
  8
0
 10
388.3200952471668757
 20
71.1050029188511274
 30
0.0
 40
0.006072466114135
 50
37.7142202413660428
 51
69.0790377761130685
  0
ARC
  5
F358
  8
0
 10
388.323706939819715
 20
71.1079511298397335
 30
0.0
 40
0.001417206589
 50
345.4263794652654838
 51
32.7397143215902773
  0
ARC
  5
F359
  8
0
 10
388.3226910534153831
 20
71.1084422406696177
 30
0.0
 40
0.0025335249673184
 50
316.3845492868666156
 51
340.4518735454561806
  0
ARC
  5
F35A
  8
0
 10
388.3151164564354758
 20
71.1188002760142837
 30
0.0
 40
0.0153321256268104
 50
284.7336326831430142
 51
307.8551907832202232
  0
ARC
  5
F35B
  8
0
 10
388.2819085014592133
 20
71.2342075835032489
 30
0.0
 40
0.1354185495793275
 50
277.9121811228566798
 51
285.9035847511138968
  0
ARC
  5
F35C
  8
0
 10
388.2455270276249166
 20
71.4589647817139735
 30
0.0
 40
0.3630799713377701
 50
277.3766742866085906
 51
278.7164046701516895
  0
ARC
  5
F35D
  8
0
 10
387.9715493404942777
 20
66.0632116046773632
 30
0.0
 40
5.0643227205404528
 50
88.6414324085737064
 51
90.0085208603099716
  0
ARC
  5
F35E
  8
0
 10
388.0198585043689832
 20
68.1002044357762912
 30
0.0
 40
3.0267571217773859
 50
86.0767110601395444
 51
88.6414324085737064
  0
ARC
  5
F35F
  8
0
 10
388.1882158946161212
 20
70.5550547535322607
 30
0.0
 40
0.5661404727567803
 50
81.1775832451416761
 51
86.0767110601395444
  0
ARC
  5
F360
  8
0
 10
388.2616125742458166
 20
71.0279446110897652
 30
0.0
 40
0.0875886051797822
 50
70.4723658650634803
 51
81.1775832451416761
  0
ARC
  5
F361
  8
0
 10
388.2889947291291151
 20
71.1051510699216465
 30
0.0
 40
0.0056702330559816
 50
41.4350855247929388
 51
70.4723658650706994
  0
ARC
  5
F362
  8
0
 10
388.2920436234422255
 20
71.1078423517812013
 30
0.0
 40
0.0016034462924397
 50
340.2503061423831241
 51
41.4350855247889598
  0
ARC
  5
F363
  8
0
 10
388.1368790554951147
 20
71.1292277552475269
 30
0.0
 40
0.1582006646646773
 50
338.407235506449922
 51
352.032932864579891
  0
ARC
  5
F364
  8
0
 10
388.1365870935313751
 20
71.1293650114051133
 30
0.0
 40
0.1585226501334899
 50
316.6346750575124247
 51
338.3999417867128159
  0
ARC
  5
F365
  8
0
 10
387.9708555140671251
 20
66.4384868812901033
 30
0.0
 40
4.6000846755922256
 50
89.4297137830538986
 51
90.0007389125507444
  0
ARC
  5
F366
  8
0
 10
387.9749146809784861
 20
66.8462952121170702
 30
0.0
 40
4.1922561435743102
 50
88.5673552520723177
 51
89.4297133016457337
  0
ARC
  5
F367
  8
0
 10
388.0045626250064856
 20
68.031758692725063
 30
0.0
 40
3.0064219796035281
 50
87.1972649526333186
 51
88.5673552520723177
  0
ARC
  5
F368
  8
0
 10
388.0863458035258873
 20
69.7023029158295913
 30
0.0
 40
1.33387706551702
 50
84.3535696910288237
 51
87.1972649526365728
  0
ARC
  5
F369
  8
0
 10
388.1933624271845815
 20
70.7847103685463566
 30
0.0
 40
0.2461921610358885
 50
78.3902545716247658
 51
84.3535696910288237
  0
ARC
  5
F36A
  8
0
 10
388.235671740418411
 20
70.9906474323410919
 30
0.0
 40
0.0359538385760982
 50
65.3302225904831317
 51
78.3902545716247658
  0
ARC
  5
F36B
  8
0
 10
388.249251354923274
 20
71.0202127011998812
 30
0.0
 40
0.0034190717443749
 50
31.2363157626058516
 51
65.3302225904718625
  0
ARC
  5
F36C
  8
0
 10
388.2511456247320893
 20
71.0214815855256347
 30
0.0
 40
0.0011460040947253
 50
359.6298494394691829
 51
26.0982410934414588
  0
ARC
  5
F36D
  8
0
 10
388.2511878836766073
 20
71.0215000660727043
 30
0.0
 40
0.00110402470572
 50
335.4178085692740865
 51
358.6565659720941994
  0
ARC
  5
F36E
  8
0
 10
388.2504529686374894
 20
71.0218480867755204
 30
0.0
 40
0.0019171371927271
 50
315.9780692085843157
 51
335.0963908127802142
  0
ARC
  5
F36F
  8
0
 10
388.246804997846823
 20
71.0261988934708057
 30
0.0
 40
0.007587064955138
 50
295.3139994077467918
 51
311.4918602502913814
  0
ARC
  5
F370
  8
0
 10
388.2301670971233989
 20
71.0700375304669052
 30
0.0
 40
0.0544563723164477
 50
279.1716945390118099
 51
291.4136770398717999
  0
ARC
  5
F371
  8
0
 10
388.1474505031409876
 20
71.6008203380118289
 30
0.0
 40
0.5916450038215318
 50
273.2027426510475721
 51
278.8865672238364937
  0
ARC
  5
F372
  8
0
 10
388.015428213936616
 20
73.6448541388392499
 30
0.0
 40
2.6399209872570562
 50
271.0778873738865968
 51
273.585105291732873
  0
ARC
  5
F373
  8
0
 10
387.9730244819701852
 20
75.3298170508755618
 30
0.0
 40
4.3253966536827058
 50
270.2600104455735845
 51
271.2196159861302931
  0
ARC
  5
F374
  8
0
 10
387.9708380427102838
 20
75.6347914097147651
 30
0.0
 40
4.6303778638795787
 50
269.9994821102351921
 51
270.2699397011660949
  0
ARC
  5
F375
  8
0
 10
387.99000613937352
 20
71.7764465836592507
 30
0.0
 40
0.7641114074048142
 50
292.6318946482451224
 51
303.863472826088298
  0
ARC
  5
F376
  8
0
 10
390.2009834531701813
 20
71.0420384033136685
 30
0.0
 40
1.702757666104352
 50
174.1911199383229985
 51
175.8142060306279006
  0
ARC
  5
F377
  8
0
 10
390.6074560159884754
 20
71.0006867773504382
 30
0.0
 40
2.111328224629943
 50
167.114844152005503
 51
174.1911199383229985
  0
ARC
  5
F378
  8
0
 10
394.0936117104812979
 20
69.5054290405869466
 30
0.0
 40
5.8825958712653668
 50
159.6986025694585862
 51
160.474911224320806
  0
ARC
  5
F379
  8
0
 10
388.1880985025746895
 20
71.676835579713142
 30
0.0
 40
0.4096468448862917
 50
341.4399776552717185
 51
356.2547991447884215
  0
ARC
  5
F37A
  8
0
 10
388.5108797454557248
 20
71.6544827091520347
 30
0.0
 40
0.0861035155555152
 50
357.0674543290733141
 51
7.7412333795693531
  0
ARC
  5
F37B
  8
0
 10
388.5844574139251222
 20
71.6646109093417749
 30
0.0
 40
0.0118327947350108
 50
7.1357873672593257
 51
31.0737852755391195
  0
ARC
  5
F37C
  8
0
 10
388.593077047391489
 20
71.6695329298728723
 30
0.0
 40
0.001923780326276
 50
38.0369920924306513
 51
110.1891437721653944
  0
ARC
  5
F37D
  8
0
 10
388.6031459579733109
 20
71.6578057468314142
 30
0.0
 40
0.0172722225898126
 50
128.4179647205523054
 51
155.2488787117102049
  0
ARC
  5
F37E
  8
0
 10
391.3617386716259148
 20
70.3999711433449136
 30
0.0
 40
3.0491001760150049
 50
155.4870958355342054
 51
156.7014782749207882
  0
ARC
  5
F37F
  8
0
 10
387.9778493738501766
 20
71.8639324934290897
 30
0.0
 40
0.6379138386161494
 50
316.526523379365301
 51
336.146133952028606
  0
ARC
  5
F380
  8
0
 10
387.9804466270916237
 20
71.8640584846124142
 30
0.0
 40
0.6361184878978026
 50
291.7622686462248112
 51
316.3573348352111907
  0
ARC
  5
F381
  8
0
 10
387.9710852649445201
 20
71.8853979126446063
 30
0.0
 40
0.6594083071824937
 50
269.9748844776764258
 51
291.8302556631454081
  0
ARC
  5
F382
  8
0
 10
388.5512102103858183
 20
71.796423147752094
 30
0.0
 40
0.002494231437208
 50
98.1542073927797531
 51
142.4187123452842059
  0
ARC
  5
F383
  8
0
 10
388.5764048490407276
 20
71.7835764647847299
 30
0.0
 40
0.0307362157650125
 50
152.1306034880904008
 51
170.939693261398503
  0
ARC
  5
F384
  8
0
 10
391.0062961863371811
 20
71.3672628641019458
 30
0.0
 40
2.4960311150719918
 50
170.286049903795913
 51
171.2663714756880893
  0
ARC
  5
F385
  8
0
 10
387.9119403652849201
 20
71.8520441028847046
 30
0.0
 40
0.6361232440627822
 50
321.8085507315757923
 51
350.4277710733941262
  0
ARC
  5
F386
  8
0
 10
387.9748799582105789
 20
71.8476714076227552
 30
0.0
 40
0.5850290805301734
 50
269.6000461641127117
 51
318.3317946459933978
  0
ARC
  5
F387
  8
0
 10
388.2706298783043053
 20
71.6105713127518726
 30
0.0
 40
1.337502753846981
 50
84.1830988278957761
 51
89.9997244298703549
  0
ARC
  5
F388
  8
0
 10
388.3689545597309802
 20
72.5757279131401418
 30
0.0
 40
0.367350700686908
 50
74.2668141831212409
 51
84.1830988278957761
  0
ARC
  5
F389
  8
0
 10
388.4497135369492753
 20
72.86239964016427
 30
0.0
 40
0.0695207299379357
 50
50.7953051682941208
 51
74.2668141831212409
  0
ARC
  5
F38A
  8
0
 10
388.4714104872277858
 20
72.8889982793761533
 30
0.0
 40
0.0351951526039388
 50
15.4020169399511904
 51
50.7953051682946324
  0
ARC
  5
F38B
  8
0
 10
432.045445960027223
 20
82.5764536720069344
 30
0.0
 40
44.6027628813577266
 50
192.5319792656551101
 51
192.841942364106103
  0
ARC
  5
F38C
  8
0
 10
433.4869706693519902
 20
84.5587093841438673
 30
0.0
 40
46.4767845891872327
 50
194.8299283011108969
 51
195.9492631393933095
  0
ARC
  5
F38D
  8
0
 10
388.6717511163607242
 20
71.7760580912223531
 30
0.0
 40
0.1328131026627283
 50
348.5230927559331917
 51
355.4569933039609282
  0
ARC
  5
F38E
  8
0
 10
388.7266683722215816
 20
71.759973536085127
 30
0.0
 40
0.0776781531631586
 50
4.1081266668126206
 51
20.784883726887621
  0
ARC
  5
F38F
  8
0
 10
388.7170452204460958
 20
71.7690795749892487
 30
0.0
 40
0.0870632491261816
 50
327.3910803215752026
 51
347.0926948787961237
  0
ARC
  5
F390
  8
0
 10
388.6996228141478014
 20
71.7859647842289093
 30
0.0
 40
0.1109441958538142
 50
298.720306942608488
 51
324.8935190091870027
  0
ARC
  5
F391
  8
0
 10
388.2748704598682252
 20
71.703648799352024
 30
0.0
 40
1.1493285820629331
 50
82.4855028068450622
 51
90.0000455839775668
  0
ARC
  5
F392
  8
0
 10
388.3895768173819079
 20
72.5732298095784216
 30
0.0
 40
0.2722147457791623
 50
69.419877225533952
 51
82.4855028068450622
  0
ARC
  5
F393
  8
0
 10
388.4285938490692729
 20
72.6771423846348341
 30
0.0
 40
0.1612185655901501
 50
52.7274758905241185
 51
69.419877225533952
  0
ARC
  5
F394
  8
0
 10
387.9472111487174857
 20
65.4826126845632785
 30
0.0
 40
6.3940320291154142
 50
88.4726148854622778
 51
89.7886581828730357
  0
ARC
  5
F395
  8
0
 10
388.0280858579038181
 20
68.5156930386095837
 30
0.0
 40
3.3598736363007449
 50
83.4816354545335741
 51
88.4726148897791944
  0
ARC
  5
F396
  8
0
 10
388.2097797607597727
 20
70.1058682655373246
 30
0.0
 40
1.759351869291701
 50
74.493078631037875
 51
83.4816354545335741
  0
ARC
  5
F397
  8
0
 10
388.6429742387236956
 20
71.6671846607669067
 30
0.0
 40
0.1390536431150571
 50
56.7373318856048314
 51
74.493078631037875
  0
ARC
  5
F398
  8
0
 10
388.734048477918293
 20
71.7260045546662326
 30
0.0
 40
0.0280673246598871
 50
285.8525662357286024
 51
321.9421050292219206
  0
ARC
  5
F399
  8
0
 10
388.7455093790663909
 20
71.7148483403842931
 30
0.0
 40
0.0122866758572448
 50
329.9851473389280727
 51
27.7271746225979108
  0
ARC
  5
F39A
  8
0
 10
388.5861096572036217
 20
71.6624158779688827
 30
0.0
 40
0.1799307353241471
 50
18.8550005997505288
 51
42.2762922359860269
  0
LINE
  5
F39B
  8
0
 10
387.9747331971731796
 20
71.037136529414596
 30
0.0
 11
387.9747076231391816
 21
71.0336726252279078
 31
0.0
  0
LINE
  5
F39C
  8
0
 10
387.9747076231391816
 20
71.0336726252279078
 30
0.0
 11
388.015118102573183
 21
71.0333742743145962
 31
0.0
  0
LINE
  5
F39D
  8
0
 10
388.015118102573183
 20
71.0333742743145962
 30
0.0
 11
388.0299020596733044
 21
71.0367218351145908
 31
0.0
  0
LINE
  5
F39E
  8
0
 10
388.0299020596733044
 20
71.0367218351145908
 30
0.0
 11
387.9747331971731796
 21
71.037136529414596
 31
0.0
  0
LINE
  5
F39F
  8
0
 10
387.9747331971731796
 20
71.0333140646145864
 30
0.0
 11
387.9747331971731796
 21
71.0300835897614746
 31
0.0
  0
LINE
  5
F3A0
  8
0
 10
387.9747331971731796
 20
71.0300835897614746
 30
0.0
 11
388.0362600139092137
 21
71.0290833430614015
 31
0.0
  0
LINE
  5
F3A1
  8
0
 10
388.0362561509733155
 20
71.028849306214596
 30
0.0
 11
388.0648076993733184
 21
71.0318497157145998
 31
0.0
  0
ARC
  5
F3A2
  8
0
 10
387.973455111149292
 20
68.1836495519314809
 30
0.0
 40
2.8496647992964701
 50
88.1629366861288446
 51
89.9743026135917319
  0
LINE
  5
F3A3
  8
0
 10
388.0303295328732247
 20
71.0331269807145986
 30
0.0
 11
388.0451134899732892
 21
71.0364745416145951
 31
0.0
  0
LINE
  5
F3A4
  8
0
 10
388.0963086206733124
 20
71.0351600673145924
 30
0.0
 11
388.067761040273183
 21
71.0321600748145983
 31
0.0
  0
LINE
  5
F3A5
  8
0
 10
388.067761040273183
 20
71.0321600748145983
 30
0.0
 11
388.0303295328732247
 21
71.0331269807145986
 31
0.0
  0
LINE
  5
F3A6
  8
0
 10
388.0451134899732892
 20
71.0364745416145951
 30
0.0
 11
388.0963086206733124
 21
71.0351600673145924
 31
0.0
  0
ARC
  5
F3A7
  8
0
 10
387.9718091733082019
 20
69.0512755149038924
 30
0.0
 40
1.9782193468693829
 50
88.2186733520663608
 51
90.0293393715650438
  0
LINE
  5
F3A8
  8
0
 10
388.0333021350731997
 20
71.0285388762145971
 30
0.0
 11
388.001779170373311
 21
71.0252262081145886
 31
0.0
  0
LINE
  5
F3A9
  8
0
 10
388.001779170373311
 20
71.0252262081145886
 30
0.0
 11
387.9707961892731873
 21
71.025672727214598
 31
0.0
  0
LINE
  5
F3AA
  8
0
 10
388.2286401497732982
 20
71.0217314183145874
 30
0.0
 11
388.1715449889733236
 21
71.0217314183145874
 31
0.0
  0
ARC
  5
F3AB
  8
0
 10
388.1651131436540823
 20
71.0149847397732827
 30
0.0
 40
0.0093212823982749
 50
46.3685284139648033
 51
80.6303340060974563
  0
LINE
  5
F3AC
  8
0
 10
388.1666306821733201
 20
71.0241816622145734
 30
0.0
 11
388.221805161373311
 21
71.025078638414584
 31
0.0
  0
ARC
  5
F3AD
  8
0
 10
388.2178093500904197
 20
71.0057953659246834
 30
0.0
 40
0.0196929201930083
 50
59.2734380131189482
 51
78.2930554624070254
  0
ARC
  5
F3AE
  8
0
 10
388.2269963913553283
 20
71.0212517797102549
 30
0.0
 40
0.0017123069021664
 50
16.2669204692948597
 51
59.2734380131157508
  0
ARC
  5
F3AF
  8
0
 10
388.1705288757233916
 20
70.7738898291779748
 30
0.0
 40
0.2564920998533635
 50
79.3958349801121841
 51
84.2864166494756546
  0
LINE
  5
F3B0
  8
0
 10
388.1466182537367899
 20
71.0273756287203213
 30
0.0
 11
388.1625547917732888
 21
71.0251045742145948
 31
0.0
  0
LINE
  5
F3B1
  8
0
 10
388.1625547917732888
 20
71.0251045742145948
 30
0.0
 11
388.2177292708731784
 21
71.0260015504145912
 31
0.0
  0
LINE
  5
F3B2
  8
0
 10
388.1466182544670005
 20
71.0273756286162552
 30
0.0
 11
388.1960641131731791
 21
71.0291076752145898
 31
0.0
  0
LINE
  5
F3B3
  8
0
 10
388.1921271052731868
 20
71.0295214053145969
 30
0.0
 11
388.158623400473175
 21
71.0322128358145903
 31
0.0
  0
LINE
  5
F3B4
  8
0
 10
388.158623400473175
 20
71.0322128358145903
 30
0.0
 11
388.1182328784814217
 21
71.0297622512150753
 31
0.0
  0
LINE
  5
F3B5
  8
0
 10
388.1182328784814217
 20
71.0297622512150753
 30
0.0
 11
388.142681245673316
 21
71.0277893588145872
 31
0.0
  0
LINE
  5
F3B6
  8
0
 10
388.142681245673316
 20
71.0277893588145872
 30
0.0
 11
388.1921271052731868
 21
71.0295214053145969
 31
0.0
  0
LINE
  5
F3B7
  8
0
 10
388.1474878605732215
 20
71.0328884543145875
 30
0.0
 11
388.1031277183731731
 21
71.0349212001145958
 31
0.0
  0
LINE
  5
F3B8
  8
0
 10
388.1031277183731731
 20
71.0349212001145958
 30
0.0
 11
388.074580137973328
 21
71.0319212076145874
 31
0.0
  0
LINE
  5
F3B9
  8
0
 10
388.074580137973328
 20
71.0319212076145874
 30
0.0
 11
388.1070973385732259
 21
71.0304378697145893
 31
0.0
  0
LINE
  5
F3BA
  8
0
 10
388.1070973385732259
 20
71.0304378697145893
 30
0.0
 11
388.1474878605732215
 21
71.0328884543145875
 31
0.0
  0
LINE
  5
F3BB
  8
0
 10
388.1375659091731904
 20
71.0276101729145921
 30
0.0
 11
388.0881131766731755
 21
71.0309319644145916
 31
0.0
  0
LINE
  5
F3BC
  8
0
 10
388.0881131766731755
 20
71.0309319644145916
 30
0.0
 11
388.0716267970731792
 21
71.031610848514589
 31
0.0
  0
LINE
  5
F3BD
  8
0
 10
388.0716267970731792
 20
71.031610848514589
 30
0.0
 11
388.0430752487451969
 21
71.0286104390221453
 31
0.0
  0
LINE
  5
F3BE
  8
0
 10
388.0430752487451969
 20
71.0286104390221453
 30
0.0
 11
388.0881131766731755
 21
71.0258778857145927
 31
0.0
  0
LINE
  5
F3BF
  8
0
 10
388.0881131766731755
 20
71.0258778857145927
 30
0.0
 11
388.1375659091731904
 21
71.0276101729145921
 31
0.0
  0
ARC
  5
F3C0
  8
0
 10
388.1133565456402152
 20
70.7672225366707295
 30
0.0
 40
0.2614931167364627
 50
81.5097827300989053
 51
83.8208750723010638
  0
ARC
  5
F3C1
  8
0
 10
388.1382861775737183
 20
70.9342256487341274
 30
0.0
 40
0.0926395529979352
 50
75.1681245756648622
 51
81.5097827300989053
  0
ARC
  5
F3C2
  8
0
 10
388.1592410995485807
 20
71.0133585626831945
 30
0.0
 40
0.0107791423890896
 50
57.2877704708789395
 51
75.1681245756682159
  0
ARC
  5
F3C3
  8
0
 10
388.1642740476654012
 20
71.0211945055396114
 30
0.0
 40
0.001466110273024
 50
21.4824254748945194
 51
57.2877704708943014
  0
LINE
  5
F3C4
  8
0
 10
388.1656383071731966
 20
71.0217314183145874
 30
0.0
 11
388.1085352103733044
 21
71.0217314183191633
 31
0.0
  0
ARC
  5
F3C5
  8
0
 10
388.1062421684346759
 20
71.0199341971093219
 30
0.0
 40
0.0029134250305996
 50
38.0883413894580087
 51
72.771408053175918
  0
ARC
  5
F3C6
  8
0
 10
388.0910140407025892
 20
70.9708268293145039
 30
0.0
 40
0.0543277172649784
 50
72.7714080531761596
 51
79.4371001004965933
  0
ARC
  5
F3C7
  8
0
 10
388.0835299803352996
 20
70.9306923957143027
 30
0.0
 40
0.0951539823401795
 50
79.4371001004965933
 51
84.8627852744888429
  0
LINE
  5
F3C8
  8
0
 10
388.0920501845732247
 20
71.0254641556145998
 30
0.0
 11
388.1415029170731827
 21
71.0271964428145992
 31
0.0
  0
ARC
  5
F3C9
  8
0
 10
388.1011655664178193
 20
71.0208834900465149
 30
0.0
 40
0.0016897610602344
 50
30.1194004555526789
 51
74.6861873347550471
  0
ARC
  5
F3CA
  8
0
 10
388.0938307738827007
 20
71.0034316705542636
 30
0.0
 40
0.0206070824352748
 50
67.8153997311412837
 51
79.2120643690209931
  0
ARC
  5
F3CB
  8
0
 10
388.0695435217713225
 20
70.8741094143351518
 30
0.0
 40
0.1521901367724951
 50
79.3430061894188867
 51
85.1193636257417978
  0
ARC
  5
F3CC
  8
0
 10
388.0143896732752182
 20
70.2481528797036248
 30
0.0
 40
0.7805713654281444
 50
84.9947730877959913
 51
88.1109005839565356
  0
LINE
  5
F3CD
  8
0
 10
388.0401212327731741
 20
71.0283000090146004
 30
0.0
 11
388.0085982680753887
 21
71.0249873409148194
 31
0.0
  0
ARC
  5
F3CE
  8
0
 10
387.9872867654776201
 20
70.4828075934696443
 30
0.0
 40
0.5425984322520212
 50
86.5712693003206937
 51
87.7490290305123466
  0
ARC
  5
F3CF
  8
0
 10
388.0032659649772881
 20
70.7495090689764226
 30
0.0
 40
0.2754186952693167
 50
84.3001936119079858
 51
86.5712693003206937
  0
ARC
  5
F3D0
  8
0
 10
388.0230173546423202
 20
70.9473992406437759
 30
0.0
 40
0.0765452746313953
 50
79.7116988578528805
 51
84.3001936119079858
  0
ARC
  5
F3D1
  8
0
 10
388.0341855699442135
 20
71.0089253679501695
 30
0.0
 40
0.0140137355942572
 50
70.0612529128469106
 51
79.7116988578527526
  0
ARC
  5
F3D2
  8
0
 10
388.0383146986777092
 20
71.0203079033756808
 30
0.0
 40
0.0019053989285387
 50
48.3394046333358105
 51
70.0612529128226953
  0
LINE
  5
F3D3
  8
0
 10
388.0395812491731817
 20
71.0217314183629895
 30
0.0
 11
388.1026271785731865
 21
71.0217314183145874
 31
0.0
  0
LINE
  5
F3D4
  8
0
 10
387.9605675427732194
 20
71.0230451880145921
 30
0.0
 11
387.9810248357733258
 21
71.0230451880145921
 31
0.0
  0
LINE
  5
F3D5
  8
0
 10
387.9810248357733258
 20
71.0230451880145921
 30
0.0
 11
387.9988211274733203
 21
71.0249153549145831
 31
0.0
  0
LINE
  5
F3D6
  8
0
 10
387.9988211274733203
 20
71.0249153549145831
 30
0.0
 11
387.9810248357733258
 21
71.0252629308145913
 31
0.0
  0
LINE
  5
F3D7
  8
0
 10
387.9810248357733258
 20
71.0252629308145913
 30
0.0
 11
387.9707961892731873
 21
71.0253144264145959
 31
0.0
  0
LINE
  5
F3D8
  8
0
 10
387.9878439333737106
 20
71.0228063208146239
 30
0.0
 11
387.9980725798732237
 21
71.0238812232145875
 31
0.0
  0
LINE
  5
F3D9
  8
0
 10
387.9980725798732237
 20
71.0238812232145875
 30
0.0
 11
388.0056402251731811
 21
71.0246764877146006
 31
0.0
  0
ARC
  5
F3DA
  8
0
 10
387.9903237747465141
 20
70.620739979576129
 30
0.0
 40
0.4042267881533398
 50
85.6546405483245792
 51
87.8285009390299791
  0
ARC
  5
F3DB
  8
0
 10
388.0131848368617966
 20
70.9137468304301564
 30
0.0
 40
0.1103316592656987
 50
80.959108018453648
 51
85.963504448209676
  0
ARC
  5
F3DC
  8
0
 10
388.0278076676160026
 20
71.0063171080626603
 30
0.0
 40
0.0166139454230578
 50
72.104072020739693
 51
80.5960691003275116
  0
ARC
  5
F3DD
  8
0
 10
388.0322133575717203
 20
71.0198849085667234
 30
0.0
 40
0.0023489015165665
 50
51.8240397087328617
 51
72.6721958638583203
  0
LINE
  5
F3DE
  8
0
 10
388.033665163373314
 20
71.0217314183145874
 30
0.0
 11
387.9980725798732237
 21
71.0217314183145874
 31
0.0
  0
ARC
  5
F3DF
  8
0
 10
387.9955500066384957
 20
71.014437287261913
 30
0.0
 40
0.007718012926795
 50
70.9227713153074433
 51
82.9755209785517849
  0
ARC
  5
F3E0
  8
0
 10
387.9834904142032883
 20
70.916565494430472
 30
0.0
 40
0.1063299878676972
 50
82.9755209785517849
 51
87.653455776423101
  0
LINE
  5
F3E1
  8
0
 10
387.9980725798732237
 20
71.0217314183145874
 30
0.0
 11
387.9980725798732237
 21
71.0238812232145875
 31
0.0
  0
LINE
  5
F3E2
  8
0
 10
388.001779170373311
 20
71.0292678262145927
 30
0.0
 11
388.001779170373311
 21
71.0252262081145886
 31
0.0
  0
LINE
  5
F3E3
  8
0
 10
388.015118102573183
 20
71.0368329634297737
 30
0.0
 11
388.015118102573183
 21
71.0333742743145962
 31
0.0
  0
LINE
  5
F3E4
  8
0
 10
388.067761040273183
 20
71.0358930483666882
 30
0.0
 11
388.067761040273183
 21
71.0321600748145983
 31
0.0
  0
LINE
  5
F3E5
  8
0
 10
388.1070973385732259
 20
71.0347392974337453
 30
0.0
 11
388.1070973385732259
 21
71.0304378697145893
 31
0.0
  0
LINE
  5
F3E6
  8
0
 10
388.142681245673316
 20
71.0312455891163808
 30
0.0
 11
388.142681245673316
 21
71.0277893588145872
 31
0.0
  0
LINE
  5
F3E7
  8
0
 10
388.1625547917732888
 20
71.0251045742145948
 30
0.0
 11
388.1625547917732888
 21
71.02793387203549
 31
0.0
  0
LINE
  5
F3E8
  8
0
 10
388.1715449889733236
 20
71.0217314183145874
 30
0.0
 11
388.1715449889733236
 21
71.0242615545181195
 31
0.0
  0
LINE
  5
F3E9
  8
0
 10
388.1085352103733044
 20
71.0217314183191633
 30
0.0
 11
388.1085352103733044
 21
71.0260416120612064
 31
0.0
  0
LINE
  5
F3EA
  8
0
 10
388.0881131766731755
 20
71.0309319644145916
 30
0.0
 11
388.0881131766731755
 21
71.0258778857145927
 31
0.0
  0
LINE
  5
F3EB
  8
0
 10
388.0362561509733155
 20
71.0326222611279547
 30
0.0
 11
388.0362561509733155
 21
71.028849306214596
 31
0.0
  0
LINE
  5
F3EC
  8
0
 10
388.0395812491731817
 20
71.0352218652934795
 30
0.0
 11
388.0395812491731817
 21
71.0328879965085918
 31
0.0
  0
LINE
  5
F3ED
  8
0
 10
387.9810248357733258
 20
71.0252629308145913
 30
0.0
 11
387.9810248357733258
 21
71.0230451880145921
 31
0.0
  0
LINE
  5
F3EE
  8
0
 10
387.9747331971731796
 20
71.0058485728145996
 30
0.0
 11
387.9747076231391816
 21
71.0093124770012736
 31
0.0
  0
LINE
  5
F3EF
  8
0
 10
387.9747076231391816
 20
71.0093124770012736
 30
0.0
 11
388.015118102573183
 21
71.0096108279145994
 31
0.0
  0
LINE
  5
F3F0
  8
0
 10
388.015118102573183
 20
71.0096108279145994
 30
0.0
 11
388.0299020596733044
 21
71.0062632671145906
 31
0.0
  0
LINE
  5
F3F1
  8
0
 10
388.0299020596733044
 20
71.0062632671145906
 30
0.0
 11
387.9747331971731796
 21
71.0058485728145996
 31
0.0
  0
LINE
  5
F3F2
  8
0
 10
387.9747331971731796
 20
71.009671037614595
 30
0.0
 11
387.9747331971731796
 21
71.0129015124677068
 31
0.0
  0
LINE
  5
F3F3
  8
0
 10
387.9747331971731796
 20
71.0129015124677068
 30
0.0
 11
388.0362600139092137
 21
71.0139017591677799
 31
0.0
  0
LINE
  5
F3F4
  8
0
 10
388.0362561509733155
 20
71.0141357960145996
 30
0.0
 11
388.0648076993733184
 21
71.0111353865145958
 31
0.0
  0
ARC
  5
F3F5
  8
0
 10
387.973455111149292
 20
73.8593355502977147
 30
0.0
 40
2.8496647992964701
 50
270.0256973864082966
 51
271.8370633138711128
  0
LINE
  5
F3F6
  8
0
 10
388.0303295328732247
 20
71.009858121514597
 30
0.0
 11
388.0451134899732892
 21
71.0065105606146005
 31
0.0
  0
LINE
  5
F3F7
  8
0
 10
388.0963086206733124
 20
71.0078250349145748
 30
0.0
 11
388.067761040273183
 21
71.0108250274145831
 31
0.0
  0
LINE
  5
F3F8
  8
0
 10
388.067761040273183
 20
71.0108250274145831
 30
0.0
 11
388.0303295328732247
 21
71.009858121514597
 31
0.0
  0
LINE
  5
F3F9
  8
0
 10
388.0451134899732892
 20
71.0065105606146005
 30
0.0
 11
388.0963086206733124
 21
71.0078250349145748
 31
0.0
  0
ARC
  5
F3FA
  8
0
 10
387.9718091733082019
 20
72.991709587325289
 30
0.0
 40
1.9782193468693829
 50
269.9706606284349846
 51
271.7813266479336107
  0
LINE
  5
F3FB
  8
0
 10
388.0333021350731997
 20
71.0144462260145986
 30
0.0
 11
388.001779170373311
 21
71.0177588941145927
 31
0.0
  0
LINE
  5
F3FC
  8
0
 10
388.001779170373311
 20
71.0177588941145927
 30
0.0
 11
387.9707961892731873
 21
71.0173123750145976
 31
0.0
  0
LINE
  5
F3FD
  8
0
 10
388.2286401497732982
 20
71.021253683914594
 30
0.0
 11
388.1715449889733236
 21
71.021253683914594
 31
0.0
  0
ARC
  5
F3FE
  8
0
 10
388.1651131436540823
 20
71.0280003624558844
 30
0.0
 40
0.0093212823982749
 50
279.3696659939058122
 51
313.6314715860351043
  0
LINE
  5
F3FF
  8
0
 10
388.1666306821733201
 20
71.0188034400145938
 30
0.0
 11
388.221805161373311
 21
71.0179064638145832
 31
0.0
  0
ARC
  5
F400
  8
0
 10
388.2178093500904197
 20
71.0371897363044837
 30
0.0
 40
0.0196929201930083
 50
281.7069445375929035
 51
300.7265619868809949
  0
ARC
  5
F401
  8
0
 10
388.2269963913553283
 20
71.0217333225189407
 30
0.0
 40
0.0017123069021664
 50
300.7265619868842919
 51
343.7330795307050835
  0
ARC
  5
F402
  8
0
 10
388.1705288757233916
 20
71.2690952730512066
 30
0.0
 40
0.2564920998533635
 50
275.7135833505242886
 51
280.6041650198877733
  0
LINE
  5
F403
  8
0
 10
388.1466182537367899
 20
71.0156094735088601
 30
0.0
 11
388.1625547917732888
 21
71.0178805280145866
 31
0.0
  0
LINE
  5
F404
  8
0
 10
388.1625547917732888
 20
71.0178805280145866
 30
0.0
 11
388.2177292708731784
 21
71.0169835518145902
 31
0.0
  0
LINE
  5
F405
  8
0
 10
388.1466182544670005
 20
71.015609473612912
 30
0.0
 11
388.1960641131731791
 21
71.0138774270145916
 31
0.0
  0
LINE
  5
F406
  8
0
 10
388.1921271052731868
 20
71.0134636969145987
 30
0.0
 11
388.158623400473175
 21
71.0107722664145911
 31
0.0
  0
LINE
  5
F407
  8
0
 10
388.158623400473175
 20
71.0107722664145911
 30
0.0
 11
388.1182328784814217
 21
71.0132228510140919
 31
0.0
  0
LINE
  5
F408
  8
0
 10
388.1182328784814217
 20
71.0132228510140919
 30
0.0
 11
388.142681245673316
 21
71.0151957434145942
 31
0.0
  0
LINE
  5
F409
  8
0
 10
388.142681245673316
 20
71.0151957434145942
 30
0.0
 11
388.1921271052731868
 21
71.0134636969145987
 31
0.0
  0
LINE
  5
F40A
  8
0
 10
388.1474878605732215
 20
71.0100966479145939
 30
0.0
 11
388.1031277183731731
 21
71.0080639021145856
 31
0.0
  0
LINE
  5
F40B
  8
0
 10
388.1031277183731731
 20
71.0080639021145856
 30
0.0
 11
388.074580137973328
 21
71.011063894614594
 31
0.0
  0
LINE
  5
F40C
  8
0
 10
388.074580137973328
 20
71.011063894614594
 30
0.0
 11
388.1070973385732259
 21
71.0125472325145921
 31
0.0
  0
LINE
  5
F40D
  8
0
 10
388.1070973385732259
 20
71.0125472325145921
 30
0.0
 11
388.1474878605732215
 21
71.0100966479145939
 31
0.0
  0
LINE
  5
F40E
  8
0
 10
388.1375659091731904
 20
71.0153749293145893
 30
0.0
 11
388.0881131766731755
 21
71.0120531378145898
 31
0.0
  0
LINE
  5
F40F
  8
0
 10
388.0881131766731755
 20
71.0120531378145898
 30
0.0
 11
388.0716267970731792
 21
71.0113742537145924
 31
0.0
  0
LINE
  5
F410
  8
0
 10
388.0716267970731792
 20
71.0113742537145924
 30
0.0
 11
388.0430752487451969
 21
71.0143746632070361
 31
0.0
  0
LINE
  5
F411
  8
0
 10
388.0430752487451969
 20
71.0143746632070361
 30
0.0
 11
388.0881131766731755
 21
71.0171072165145887
 31
0.0
  0
LINE
  5
F412
  8
0
 10
388.0881131766731755
 20
71.0171072165145887
 30
0.0
 11
388.1375659091731904
 21
71.0153749293145893
 31
0.0
  0
ARC
  5
F413
  8
0
 10
388.1133565456402152
 20
71.2757625655584661
 30
0.0
 40
0.2614931167364627
 50
276.179124927698922
 51
278.4902172699011089
  0
ARC
  5
F414
  8
0
 10
388.1382861775737183
 20
71.1087594534950682
 30
0.0
 40
0.0926395529979352
 50
278.4902172699011089
 51
284.8318754243351236
  0
ARC
  5
F415
  8
0
 10
388.1592410995485807
 20
71.0296265395459727
 30
0.0
 40
0.0107791423890896
 50
284.8318754243318267
 51
302.7122295291209753
  0
ARC
  5
F416
  8
0
 10
388.1642740476654012
 20
71.02179059668957
 30
0.0
 40
0.001466110273024
 50
302.7122295291056844
 51
338.5175745251054877
  0
LINE
  5
F417
  8
0
 10
388.1656383071731966
 20
71.021253683914594
 30
0.0
 11
388.1085352103733044
 21
71.0212536839100324
 31
0.0
  0
ARC
  5
F418
  8
0
 10
388.1062421684346759
 20
71.0230509051198595
 30
0.0
 40
0.0029134250305996
 50
287.2285919468241104
 51
321.9116586105420197
  0
ARC
  5
F419
  8
0
 10
388.0910140407025892
 20
71.0721582729146775
 30
0.0
 40
0.0543277172649784
 50
280.5628998995034067
 51
287.2285919468238262
  0
ARC
  5
F41A
  8
0
 10
388.0835299803352996
 20
71.1122927065148929
 30
0.0
 40
0.0951539823401795
 50
275.1372147255112282
 51
280.5628998995034067
  0
LINE
  5
F41B
  8
0
 10
388.0920501845732247
 20
71.0175209466145958
 30
0.0
 11
388.1415029170731827
 21
71.0157886594145964
 31
0.0
  0
ARC
  5
F41C
  8
0
 10
388.1011655664178193
 20
71.0221016121826807
 30
0.0
 40
0.0016897610602344
 50
285.3138126652448818
 51
329.8805995444474206
  0
ARC
  5
F41D
  8
0
 10
388.0938307738827007
 20
71.0395534316749035
 30
0.0
 40
0.0206070824352748
 50
280.7879356309790069
 51
292.1846002688586736
  0
ARC
  5
F41E
  8
0
 10
388.0695435217713225
 20
71.1688756878940296
 30
0.0
 40
0.1521901367724951
 50
274.880636374258188
 51
280.6569938105778874
  0
ARC
  5
F41F
  8
0
 10
388.0143896732752182
 20
71.7948322225255708
 30
0.0
 40
0.7805713654281444
 50
271.8890994160435071
 51
275.0052269122040229
  0
LINE
  5
F420
  8
0
 10
388.0401212327731741
 20
71.0146850932145952
 30
0.0
 11
388.0085982680753887
 21
71.017997761314362
 31
0.0
  0
ARC
  5
F421
  8
0
 10
387.9872867654776201
 20
71.5601775087595371
 30
0.0
 40
0.5425984322520212
 50
272.2509709694875824
 51
273.42873069967942
  0
ARC
  5
F422
  8
0
 10
388.0032659649772881
 20
71.2934760332527588
 30
0.0
 40
0.2754186952693167
 50
273.42873069967942
 51
275.6998063880919858
  0
ARC
  5
F423
  8
0
 10
388.0230173546423202
 20
71.0955858615854055
 30
0.0
 40
0.0765452746313953
 50
275.6998063880919858
 51
280.2883011421470769
  0
ARC
  5
F424
  8
0
 10
388.0341855699442135
 20
71.0340597342790119
 30
0.0
 40
0.0140137355942572
 50
280.2883011421473043
 51
289.9387470871531036
  0
ARC
  5
F425
  8
0
 10
388.0383146986777092
 20
71.0226771988535148
 30
0.0
 40
0.0019053989285387
 50
289.9387470871773189
 51
311.6605953666642108
  0
LINE
  5
F426
  8
0
 10
388.0395812491731817
 20
71.0212536838662061
 30
0.0
 11
388.1026271785731865
 21
71.021253683914594
 31
0.0
  0
LINE
  5
F427
  8
0
 10
387.9605675427732194
 20
71.0199399142145751
 30
0.0
 11
387.9810248357733258
 21
71.0199399142145751
 31
0.0
  0
LINE
  5
F428
  8
0
 10
387.9810248357733258
 20
71.0199399142145751
 30
0.0
 11
387.9988211274733203
 21
71.0180697473145841
 31
0.0
  0
LINE
  5
F429
  8
0
 10
387.9988211274733203
 20
71.0180697473145841
 30
0.0
 11
387.9810248357733258
 21
71.0177221714145901
 31
0.0
  0
LINE
  5
F42A
  8
0
 10
387.9810248357733258
 20
71.0177221714145901
 30
0.0
 11
387.9707961892731873
 21
71.0176706758145997
 31
0.0
  0
LINE
  5
F42B
  8
0
 10
387.9878439333737106
 20
71.0201787814145433
 30
0.0
 11
387.9980725798732237
 21
71.0191038790145939
 31
0.0
  0
LINE
  5
F42C
  8
0
 10
387.9980725798732237
 20
71.0191038790145939
 30
0.0
 11
388.0056402251731811
 21
71.018308614514595
 31
0.0
  0
ARC
  5
F42D
  8
0
 10
387.9903237747465141
 20
71.4222451226530524
 30
0.0
 40
0.4042267881533398
 50
272.1714990609700067
 51
274.3453594516755061
  0
ARC
  5
F42E
  8
0
 10
388.0131848368617966
 20
71.1292382717990392
 30
0.0
 40
0.1103316592656987
 50
274.036495551790324
 51
279.0408919815463946
  0
ARC
  5
F42F
  8
0
 10
388.0278076676160026
 20
71.0366679941665211
 30
0.0
 40
0.0166139454230578
 50
279.4039308996725026
 51
287.8959279792601933
  0
ARC
  5
F430
  8
0
 10
388.0322133575717203
 20
71.023100193662458
 30
0.0
 40
0.0023489015165665
 50
287.3278041361417081
 51
308.1759602912670744
  0
LINE
  5
F431
  8
0
 10
388.033665163373314
 20
71.021253683914594
 30
0.0
 11
387.9980725798732237
 21
71.021253683914594
 31
0.0
  0
ARC
  5
F432
  8
0
 10
387.9955500066384957
 20
71.0285478149672826
 30
0.0
 40
0.007718012926795
 50
277.0244790214483146
 51
289.0772286846924999
  0
ARC
  5
F433
  8
0
 10
387.9834904142032883
 20
71.1264196077987094
 30
0.0
 40
0.1063299878676972
 50
272.3465442235769274
 51
277.0244790214483146
  0
LINE
  5
F434
  8
0
 10
387.9980725798732237
 20
71.021253683914594
 30
0.0
 11
387.9980725798732237
 21
71.0191038790145939
 31
0.0
  0
LINE
  5
F435
  8
0
 10
388.001779170373311
 20
71.0137172760145887
 30
0.0
 11
388.001779170373311
 21
71.0177588941145927
 31
0.0
  0
LINE
  5
F436
  8
0
 10
388.015118102573183
 20
71.0061521387993935
 30
0.0
 11
388.015118102573183
 21
71.0096108279145994
 31
0.0
  0
LINE
  5
F437
  8
0
 10
388.067761040273183
 20
71.0070920538624932
 30
0.0
 11
388.067761040273183
 21
71.0108250274145831
 31
0.0
  0
LINE
  5
F438
  8
0
 10
388.1070973385732259
 20
71.0082458047954503
 30
0.0
 11
388.1070973385732259
 21
71.0125472325145921
 31
0.0
  0
LINE
  5
F439
  8
0
 10
388.142681245673316
 20
71.0117395131128148
 30
0.0
 11
388.142681245673316
 21
71.0151957434145942
 31
0.0
  0
LINE
  5
F43A
  8
0
 10
388.1625547917732888
 20
71.0178805280145866
 30
0.0
 11
388.1625547917732888
 21
71.0150512301936914
 31
0.0
  0
LINE
  5
F43B
  8
0
 10
388.1715449889733236
 20
71.021253683914594
 30
0.0
 11
388.1715449889733236
 21
71.0187235477110619
 31
0.0
  0
LINE
  5
F43C
  8
0
 10
388.1085352103733044
 20
71.0212536839100324
 30
0.0
 11
388.1085352103733044
 21
71.016943490167975
 31
0.0
  0
LINE
  5
F43D
  8
0
 10
388.0881131766731755
 20
71.0120531378145898
 30
0.0
 11
388.0881131766731755
 21
71.0171072165145887
 31
0.0
  0
LINE
  5
F43E
  8
0
 10
388.0362561509733155
 20
71.0103628411012124
 30
0.0
 11
388.0362561509733155
 21
71.0141357960145996
 31
0.0
  0
LINE
  5
F43F
  8
0
 10
388.0395812491731817
 20
71.0077632369357019
 30
0.0
 11
388.0395812491731817
 21
71.0100971057206038
 31
0.0
  0
LINE
  5
F440
  8
0
 10
387.9810248357733258
 20
71.0177221714145901
 30
0.0
 11
387.9810248357733258
 21
71.0199399142145751
 31
0.0
  0
ENDSEC
  0
EOF
