  0
SECTION
  2
HEADER
  9
$ACADVER
  1
AC1009
  9
$INSBASE
 10
376.7719284220283953
 20
66.9522356136755263
 30
0.0
  9
$EXTMIN
 10
369.9670485742537949
 20
66.9433748683336205
 30
-0.0000000000112498
  9
$EXTMAX
 10
378.7512949466214991
 20
72.3767675638326011
 30
0.0000000000002956
  9
$LIMMIN
 10
0.0
 20
0.0
  9
$LIMMAX
 10
11.6929133858000007
 20
8.2677165353999982
  9
$ORTHOMODE
 70
     0
  9
$REGENMODE
 70
     1
  9
$FILLMODE
 70
     1
  9
$QTEXTMODE
 70
     0
  9
$MIRRTEXT
 70
     0
  9
$DRAGMODE
 70
     2
  9
$LTSCALE
 40
0.6431102362
  9
$OSMODE
 70
   575
  9
$ATTMODE
 70
     1
  9
$TEXTSIZE
 40
0.2
  9
$TRACEWID
 40
0.05
  9
$TEXTSTYLE
  7
STANDARD
  9
$CLAYER
  8
0
  9
$CELTYPE
  6
BYLAYER
  9
$CECOLOR
 62
   256
  9
$DIMSCALE
 40
1.0
  9
$DIMASZ
 40
0.1875
  9
$DIMEXO
 40
0.0625
  9
$DIMDLI
 40
0.4443307087
  9
$DIMRND
 40
0.0
  9
$DIMDLE
 40
0.0
  9
$DIMEXE
 40
0.125
  9
$DIMTP
 40
0.01
  9
$DIMTM
 40
0.01
  9
$DIMTXT
 40
1.0
  9
$DIMCEN
 40
0.1052362205
  9
$DIMTSZ
 40
0.0
  9
$DIMTOL
 70
     1
  9
$DIMLIM
 70
     0
  9
$DIMTIH
 70
     0
  9
$DIMTOH
 70
     1
  9
$DIMSE1
 70
     0
  9
$DIMSE2
 70
     0
  9
$DIMTAD
 70
     0
  9
$DIMZIN
 70
     0
  9
$DIMBLK
  1

  9
$DIMASO
 70
     1
  9
$DIMSHO
 70
     1
  9
$DIMPOST
  1
\X
  9
$DIMAPOST
  1

  9
$DIMALT
 70
     1
  9
$DIMALTD
 70
     2
  9
$DIMALTF
 40
25.3999999999999986
  9
$DIMLFAC
 40
1.0
  9
$DIMTOFL
 70
     0
  9
$DIMTVP
 40
0.0
  9
$DIMTIX
 70
     0
  9
$DIMSOXD
 70
     0
  9
$DIMSAH
 70
     0
  9
$DIMBLK1
  1

  9
$DIMBLK2
  1

  9
$DIMSTYLE
  2
STANDARD
  9
$DIMCLRD
 70
     0
  9
$DIMCLRE
 70
     0
  9
$DIMCLRT
 70
     0
  9
$DIMTFAC
 40
1.0
  9
$DIMGAP
 40
0.09
  9
$LUNITS
 70
     2
  9
$LUPREC
 70
     4
  9
$SKETCHINC
 40
0.1
  9
$FILLETRAD
 40
0.0
  9
$AUNITS
 70
     0
  9
$AUPREC
 70
     0
  9
$MENU
  1
.
  9
$ELEVATION
 40
0.0
  9
$PELEVATION
 40
0.0
  9
$THICKNESS
 40
0.0
  9
$LIMCHECK
 70
     0
  9
$BLIPMODE
 70
     0
  9
$CHAMFERA
 40
0.0
  9
$CHAMFERB
 40
0.0
  9
$SKPOLY
 70
     0
  9
$TDCREATE
 40
2458172.5207638889551163
  9
$TDUPDATE
 40
2459478.5068749999627471
  9
$TDINDWG
 40
0.278272662
  9
$TDUSRTIMER
 40
0.278272662
  9
$USRTIMER
 70
     1
  9
$ANGBASE
 50
0.0
  9
$ANGDIR
 70
     0
  9
$PDMODE
 70
     0
  9
$PDSIZE
 40
0.3125
  9
$PLINEWID
 40
0.0
  9
$COORDS
 70
     2
  9
$SPLFRAME
 70
     0
  9
$SPLINETYPE
 70
     6
  9
$SPLINESEGS
 70
     8
  9
$ATTDIA
 70
     1
  9
$ATTREQ
 70
     1
  9
$HANDLING
 70
     1
  9
$HANDSEED
  5
FFFB
  9
$SURFTAB1
 70
     6
  9
$SURFTAB2
 70
     6
  9
$SURFTYPE
 70
     6
  9
$SURFU
 70
     6
  9
$SURFV
 70
     6
  9
$UCSNAME
  2

  9
$UCSORG
 10
0.0
 20
0.0
 30
0.0
  9
$UCSXDIR
 10
1.0
 20
0.0
 30
0.0
  9
$UCSYDIR
 10
0.0
 20
1.0
 30
0.0
  9
$PUCSNAME
  2

  9
$PUCSORG
 10
0.0
 20
0.0
 30
0.0
  9
$PUCSXDIR
 10
1.0
 20
0.0
 30
0.0
  9
$PUCSYDIR
 10
0.0
 20
1.0
 30
0.0
  9
$USERI1
 70
     0
  9
$USERI2
 70
     0
  9
$USERI3
 70
     0
  9
$USERI4
 70
     0
  9
$USERI5
 70
     0
  9
$USERR1
 40
0.0
  9
$USERR2
 40
0.0
  9
$USERR3
 40
0.0
  9
$USERR4
 40
0.0
  9
$USERR5
 40
0.0
  9
$WORLDVIEW
 70
     1
  9
$SHADEDGE
 70
     3
  9
$SHADEDIF
 70
    70
  9
$TILEMODE
 70
     1
  9
$MAXACTVP
 70
    64
  9
$PLIMCHECK
 70
     0
  9
$PEXTMIN
 10
1.0000000000000000E+20
 20
1.0000000000000000E+20
 30
1.0000000000000000E+20
  9
$PEXTMAX
 10
-1.0000000000000000E+20
 20
-1.0000000000000000E+20
 30
-1.0000000000000000E+20
  9
$PLIMMIN
 10
0.0
 20
0.0
  9
$PLIMMAX
 10
12.0
 20
9.0
  9
$UNITMODE
 70
     0
  9
$VISRETAIN
 70
     1
  9
$PLINEGEN
 70
     0
  9
$PSLTSCALE
 70
     1
  0
ENDSEC
  0
SECTION
  2
TABLES
  0
TABLE
  2
VPORT
 70
     1
  0
VPORT
  2
*ACTIVE
 70
     0
 10
0.0
 20
0.0
 11
1.0
 21
1.0
 12
-55.2701173691216781
 22
-0.042470300898037
 13
0.0
 23
0.0
 14
1.0
 24
1.0
 15
0.0
 25
0.0
 16
0.0
 26
0.0
 36
14.6338572656650907
 17
429.6292891080536833
 27
69.7025415122186871
 37
0.0
 40
8.5047316979112146
 41
2.554276315789473
 42
50.0
 43
0.0
 44
0.0
 50
0.0
 51
0.0
 71
     0
 72
   100
 73
     1
 74
     1
 75
     0
 76
     0
 77
     0
 78
     0
  0
ENDTAB
  0
TABLE
  2
LTYPE
 70
     2
  0
LTYPE
  2
CONTINUOUS
 70
     0
  3
Solid line
 72
    65
 73
     0
 40
0.0
  0
LTYPE
  2
PHANTOM2
 70
     0
  3
___ _ _ ___ _ _ ___ _ _ ___ _ _
 72
    65
 73
     6
 40
1.25
 49
0.625
 49
-0.125
 49
0.125
 49
-0.125
 49
0.125
 49
-0.125
  0
ENDTAB
  0
TABLE
  2
LAYER
 70
     2
  0
LAYER
  2
0
 70
     0
 62
   255
  6
CONTINUOUS
  0
LAYER
  2
DEFPOINTS
 70
     0
 62
     7
  6
CONTINUOUS
  0
ENDTAB
  0
TABLE
  2
STYLE
 70
     1
  0
STYLE
  2
STANDARD
 70
     0
 40
0.0
 41
0.8
 50
0.0
 71
     0
 42
0.2
  3
txt
  4

  0
ENDTAB
  0
TABLE
  2
VIEW
 70
     0
  0
ENDTAB
  0
TABLE
  2
UCS
 70
     0
  0
ENDTAB
  0
TABLE
  2
APPID
 70
    10
  0
APPID
  2
ACAD
 70
     0
  0
APPID
  2
ACAD_MLEADERVER
 70
     0
  0
APPID
  2
ACAD_EXEMPT_FROM_CAD_STANDARDS
 70
     0
  0
APPID
  2
ACAD_DSTYLE_DIMJAG
 70
     0
  0
APPID
  2
ACAD_DSTYLE_DIMTALN
 70
     0
  0
APPID
  2
ACAD_NAV_VCDISPLAY
 70
     0
  0
APPID
  2
ACAECLAYERSTANDARD
 70
     0
  0
APPID
  2
ACCMTRANSPARENCY
 70
     0
  0
APPID
  2
DCO15
 70
     0
  0
APPID
  2
ACDBATTR
 70
     0
  0
ENDTAB
  0
TABLE
  2
DIMSTYLE
 70
     1
  0
DIMSTYLE
  2
STANDARD
 70
     0
  3

  4

  5

  6

  7

 40
1.0
 41
0.1875
 42
0.0625
 43
0.38
 44
0.125
 45
0.0
 46
0.0
 47
0.01
 48
0.01
140
0.15625
141
0.09
142
0.0
143
25.3999999999999986
144
1.0
145
0.0
146
1.0
147
0.09
 71
     1
 72
     0
 73
     1
 74
     1
 75
     0
 76
     0
 77
     0
 78
     4
170
     0
171
     2
172
     0
173
     0
174
     0
175
     0
176
     0
177
     0
178
     0
  0
ENDTAB
  0
ENDSEC
  0
SECTION
  2
BLOCKS
  0
BLOCK
  8
0
  2
$MODEL_SPACE
 70
     0
 10
0.0
 20
0.0
 30
0.0
  3
$MODEL_SPACE
  1

  0
ENDBLK
  5
21
  8
0
  0
BLOCK
 67
     1
  8
0
  2
$PAPER_SPACE
 70
     0
 10
0.0
 20
0.0
 30
0.0
  3
$PAPER_SPACE
  1

  0
ENDBLK
  5
1D
 67
     1
  8
0
  0
ENDSEC
  0
SECTION
  2
ENTITIES
  0
ATTDEF
  5
EC69
  8
DEFPOINTS
 10
376.7722163666683741
 20
66.9508474418875466
 30
0.0
 40
0.001
  1
K-97345T-B4E2
  3

  2
MODELNUMBER
 70
     0
1001
ACDBATTR
1070
     0
1070
     1
  0
ATTDEF
  5
EC6A
  8
DEFPOINTS
 10
376.7722163666683741
 20
66.9491807752208814
 30
0.0
 40
0.001
  1
AVID
  3

  2
TRADENAME
 70
     0
1001
ACDBATTR
1070
     0
1070
     1
  0
ATTDEF
  5
EC6B
  8
DEFPOINTS
 10
376.7722163666683741
 20
66.9475141085542163
 30
0.0
 40
0.001
  1
BATHROOM SINK FAUCET
  3

  2
PRODUCT
 70
     0
1001
ACDBATTR
1070
     0
1070
     1
  0
LINE
  5
FE2B
  8
0
 10
375.7679785364284157
 20
66.9522356136755263
 30
0.0
 11
377.7758525522284003
 21
66.9522356136755263
 31
0.0
  0
LINE
  5
FE2C
  8
0
 10
377.7758525522284003
 20
66.9522356136755263
 30
0.0
 11
377.7758525522284003
 21
68.3629054215755332
 31
0.0
  0
ARC
  5
FE2D
  8
0
 10
385.8937396370329793
 20
68.7303328387369419
 30
0.0
 40
8.1261979811299057
 50
178.3718299721006986
 51
182.5915219035042867
  0
ARC
  5
FE2E
  8
0
 10
352.9685691564031913
 20
68.5441673345597877
 30
0.0
 40
24.8057595216484188
 50
0.9633518756060018
 51
2.9747022083618719
  0
ARC
  5
FE2F
  8
0
 10
373.7267624074295895
 20
69.6196670054227411
 30
0.0
 40
4.019725182799589
 50
3.0202640964976961
 51
13.5863072110908991
  0
ARC
  5
FE30
  8
0
 10
375.6956640182489764
 20
70.0709686804201652
 30
0.0
 40
2.0000459225259961
 50
14.2693121531259504
 51
23.0249755611182216
  0
ARC
  5
FE31
  8
0
 10
377.5078147710191274
 20
70.8411143944487094
 30
0.0
 40
0.0310322680393368
 50
23.0233976653402017
 51
80.4724586178315633
  0
LINE
  5
FE32
  8
0
 10
377.512951284228393
 20
70.8717186080755255
 30
0.0
 11
377.5125501313062273
 21
70.871785936297357
 31
0.0
  0
LINE
  5
FE33
  8
0
 10
377.5125501313062273
 20
70.871785936297357
 30
0.0
 11
377.5121628209398068
 21
70.871785936297357
 31
0.0
  0
LINE
  5
FE34
  8
0
 10
370.3361883657717044
 20
72.3725868397680898
 30
0.0
 11
377.2540931711283747
 21
71.4003387240755245
 31
0.0
  0
ARC
  5
FE35
  8
0
 10
377.2497067813765739
 20
71.3691279392434268
 30
0.0
 40
0.0315175110833684
 50
47.0482292008114413
 51
82.0000000003610268
  0
ARC
  5
FE36
  8
0
 10
376.1287561223438729
 20
70.2564584836868136
 30
0.0
 40
1.610912245984381
 50
28.8240421750683602
 51
44.8317936501982288
  0
ARC
  5
FE37
  8
0
 10
377.5295506160284162
 20
71.0277696597755153
 30
0.0
 40
0.0118110220000169
 50
352.1958438167690133
 51
26.9015417452798502
  0
ARC
  5
FE38
  8
0
 10
377.5295506160284162
 20
71.0277696597755153
 30
0.0
 40
0.0118110219999809
 50
323.6761489669901835
 51
352.1958438167725944
  0
ARC
  5
FE39
  8
0
 10
377.5295506160284162
 20
71.0277696597755295
 30
0.0
 40
0.0118110220000062
 50
275.0009207494262
 51
323.6761489670013248
  0
ARC
  5
FE3A
  8
0
 10
377.5295506168538964
 20
71.027769650341682
 30
0.0
 40
0.0118110125301098
 50
260.0673592875933196
 51
275.0009207494194925
  0
LINE
  5
FE3B
  8
0
 10
377.5275133320283771
 20
71.0161356704755207
 30
0.0
 11
370.3006310091254818
 21
72.2777947687635702
 31
0.0
  0
ARC
  5
FE3C
  8
0
 10
370.3026618356096265
 20
72.2894303914365679
 30
0.0
 40
0.011811518581323
 50
170.0106607448977059
 51
260.0995926653840797
  0
LINE
  5
FE3D
  8
0
 10
370.2910293791085792
 20
72.2914792757549947
 30
0.0
 11
370.3007843023455052
 21
72.346862451467814
 31
0.0
  0
ARC
  5
FE3E
  8
0
 10
370.3318385048075925
 20
72.3417506864053763
 30
0.0
 40
0.0311414457695196
 50
81.9706260867595375
 51
90.070583858766625
  0
ARC
  5
FE3F
  8
0
 10
370.3317980169908878
 20
72.3414012299995761
 30
0.0
 40
0.0314908786163809
 50
89.996135447156604
 51
170.0131396136112016
  0
ARC
  5
FE40
  8
0
 10
376.3737795679809892
 20
71.057379663001484
 30
0.0
 40
0.3773505344314235
 50
145.3797258194346966
 51
171.3049203685426107
  0
ARC
  5
FE41
  8
0
 10
376.8481124843395946
 20
70.6036441968155657
 30
0.0
 40
0.643068924926176
 50
35.2174919250370877
 51
44.5442843796641625
  0
ARC
  5
FE42
  8
0
 10
377.4165795843259161
 20
71.0049135888917107
 30
0.0
 40
0.0527557432078874
 50
215.217491925041287
 51
234.4094032830587935
  0
ARC
  5
FE43
  8
0
 10
377.3944685545189941
 20
70.9731737840357511
 30
0.0
 40
0.0140852465635728
 50
232.4091657447511921
 51
261.7133121062876171
  0
ARC
  5
FE44
  8
0
 10
377.3929178603078753
 20
70.9649453718713943
 30
0.0
 40
0.0057298614343808
 50
265.2010267410465758
 51
298.1845561494861272
  0
ARC
  5
FE45
  8
0
 10
377.3925555358113115
 20
70.9651581372778679
 30
0.0
 40
0.0060924628212122
 50
300.2433531717704227
 51
330.9859195157943077
  0
LINE
  5
FE46
  8
0
 10
377.3978833978284229
 20
70.9622031432755307
 30
0.0
 11
377.4201612761489741
 21
71.0012386356797833
 31
0.0
  0
ARC
  5
FE47
  8
0
 10
375.285577369675309
 20
72.3665884120108416
 30
0.0
 40
2.5187205729774669
 50
326.2469136367137139
 51
327.1405047992507775
  0
ARC
  5
FE48
  8
0
 10
377.4112053032336007
 20
70.9935886575552075
 30
0.0
 40
0.0117778833862067
 50
40.8929791072094204
 51
147.1405047992500954
  0
ARC
  5
FE49
  8
0
 10
377.2662379217621265
 20
70.8680450623960212
 30
0.0
 40
0.2035504986789483
 50
28.0815626317314191
 51
40.8929791072094204
  0
ARC
  5
FE4A
  8
0
 10
377.2750644926522909
 20
70.8727543628501024
 30
0.0
 40
0.1935462063778537
 50
2.014579112931643
 51
28.0815626317307014
  0
LINE
  5
FE4B
  8
0
 10
370.4839279076284129
 20
71.2219983942755306
 30
0.0
 11
375.6415812461743258
 21
71.1319713766962138
 31
0.0
  0
ARC
  5
FE4C
  8
0
 10
375.5386768952413945
 20
65.3400001397794767
 30
0.0
 40
5.7928853013599113
 50
81.6412988453436839
 51
88.9821488212361942
  0
ARC
  5
FE4D
  8
0
 10
-15938.1790726994695433
 20
-92455.0000479835871374
 30
0.0
 40
93953.3860579717438668
 50
79.9994690955748951
 51
80.0001699278053451
  0
ARC
  5
FE4E
  8
0
 10
370.3912548921534267
 20
68.7290797315677509
 30
0.0
 40
2.4946406041190579
 50
87.8710381353683658
 51
91.908446518609793
  0
ARC
  5
FE4F
  8
0
 10
370.3134769685128731
 20
70.8640605432413508
 30
0.0
 40
0.358315256397533
 50
90.8475000353076751
 51
121.3412744930238034
  0
ARC
  5
FE50
  8
0
 10
370.3434191393133119
 20
70.8721742989474137
 30
0.0
 40
0.3681668547364443
 50
125.9829302518268008
 51
178.6980467645946078
  0
LINE
  5
FE51
  8
0
 10
369.9753473322545005
 20
70.8805395709071604
 30
0.0
 11
369.9720519161267021
 21
70.6835644870755289
 31
0.0
  0
ARC
  5
FE52
  8
0
 10
370.0035560442854035
 20
70.6871308253705735
 30
0.0
 40
0.0317053443424602
 50
186.4585168989007116
 51
266.1523174096473099
  0
LINE
  5
FE53
  8
0
 10
370.0014284804283875
 20
70.6554969458755266
 30
0.0
 11
370.0888291421114786
 21
70.6508135152963064
 31
0.0
  0
ARC
  5
FE54
  8
0
 10
369.971395894240402
 20
67.8166528603135532
 30
0.0
 40
2.836592530829515
 50
81.9354182042118282
 51
87.6273106283944259
  0
ARC
  5
FE55
  8
0
 10
370.2375503564733776
 20
70.0109455021325147
 30
0.0
 40
0.6282264076410257
 50
74.5167561441698183
 51
77.8905846853197232
  0
LINE
  5
FE56
  8
0
 10
370.4052595115284134
 20
70.6163726724579561
 30
0.0
 11
371.4676496216284249
 21
70.5516469984755048
 31
0.0
  0
LINE
  5
FE57
  8
0
 10
371.4676496216284249
 20
70.5516469984755048
 30
0.0
 11
374.1447677442458257
 21
70.4336597045411281
 31
0.0
  0
ARC
  5
FE58
  8
0
 10
373.9276670599551267
 20
65.5076525783074288
 30
0.0
 40
4.9307888734790319
 50
79.7520710497110628
 51
87.4764736826129763
  0
ARC
  5
FE59
  8
0
 10
374.5689547960453183
 20
69.0547524398422325
 30
0.0
 40
1.3261852353296479
 50
62.2698582311564692
 51
79.7520710497110628
  0
ARC
  5
FE5A
  8
0
 10
374.6060542115801013
 20
69.2838395035900163
 30
0.0
 40
1.1086027475014411
 50
15.8522031420830594
 51
58.4550415405092068
  0
LINE
  5
FE5B
  8
0
 10
375.7680042918283903
 20
66.9522356136755263
 30
0.0
 11
375.7673505464284176
 21
68.7097147044755303
 31
0.0
  0
ARC
  5
FE5C
  8
0
 10
371.5417018681088166
 20
68.7081428517007708
 30
0.0
 40
4.2256489706677218
 50
0.021312828564635
 51
6.2480000254294579
  0
ARC
  5
FE5D
  8
0
 10
348.2822817237204731
 20
66.1616436879401562
 30
0.0
 40
27.6240524085993684
 50
6.2480000254294579
 51
6.7178528206753034
  0
ARC
  5
FE5E
  8
0
 10
374.2430879149980001
 20
69.1585827082638218
 30
0.0
 40
1.4921327082036331
 50
9.0430399140164237
 51
16.6719063048600304
  0
ARC
  5
FE5F
  8
0
 10
371.1437961211946117
 20
70.6836119973247463
 30
0.0
 40
0.5783916948218526
 50
187.6815888220519071
 51
192.922670051886314
  0
LINE
  5
FE60
  8
0
 10
370.5800534770783088
 20
70.5542629198495632
 30
0.0
 11
371.2874092820284204
 21
70.5112671523755239
 31
0.0
  0
ARC
  5
FE61
  8
0
 10
370.6931131706596148
 20
70.7240834320612208
 30
0.0
 40
0.6312516429973504
 50
340.297653029201399
 51
345.0909204600422981
  0
ARC
  5
FE62
  8
0
 10
371.1015175212065742
 20
70.5439042660598261
 30
0.0
 40
0.1574803163909486
 50
313.2666773883398719
 51
348.7487741081641843
  0
LINE
  5
FE63
  8
0
 10
371.2094537382693034
 20
70.4292315879852708
 30
0.0
 11
370.647498789528413
 21
70.4633895984607221
 31
0.0
  0
ARC
  5
FE64
  8
0
 10
370.7685296176748011
 20
70.5641446848782152
 30
0.0
 40
0.1574803124088419
 50
184.2945314959148959
 51
219.7765206345231093
  0
LINE
  5
FE65
  8
0
 10
377.9922960638784275
 20
69.0151342872755293
 30
0.0
 11
377.7736817009676997
 21
68.4144962615929302
 31
0.0
  0
LINE
  5
FE66
  8
0
 10
377.7888193153992233
 20
69.0891937671315333
 30
0.0
 11
377.7694526397464756
 21
69.0359842633807546
 31
0.0
  0
ARC
  5
FE67
  8
0
 10
378.2605154143784034
 20
68.9175104274755199
 30
0.0
 40
0.285433070900007
 50
90.0
 51
159.9999999999986073
  0
ARC
  5
FE68
  8
0
 10
378.2605154144904986
 20
68.917510427120007
 30
0.0
 40
0.5019685042555285
 50
90.0000000127963062
 51
159.9999999653718987
  0
LINE
  5
FE69
  8
0
 10
378.2605154143784034
 20
69.2029434983755323
 30
0.0
 11
378.7132713198784018
 21
69.2029434983755323
 31
0.0
  0
LINE
  5
FE6A
  8
0
 10
378.2605154144904986
 20
69.4194789314755383
 30
0.0
 11
378.7132713198784018
 21
69.4194789314755383
 31
0.0
  0
LINE
  5
FE6B
  8
0
 10
378.7329563592784893
 20
69.399793892075536
 30
0.0
 11
378.7329563592784893
 21
69.2226285377755346
 31
0.0
  0
ARC
  5
FE6C
  8
0
 10
378.7132713198784018
 20
69.2226285377755346
 30
0.0
 40
0.0196850394000023
 50
270.000000000019611
 51
359.9999999999947136
  0
ARC
  5
FE6D
  8
0
 10
378.7132713198784018
 20
69.399793892075536
 30
0.0
 40
0.0196850394000059
 50
0.0000000000024427
 51
89.9999999999804601
  0
ENDSEC
  0
EOF
