  0
SECTION
  2
HEADER
  9
$ACADVER
  1
AC1009
  9
$INSBASE
 10
7333.1745666670003629
 20
404.8853336277676931
 30
0.0
  9
$EXTMIN
 10
7332.1707328960992527
 20
404.8792061798936857
 30
0.0
  9
$EXTMAX
 10
7334.1784004378987447
 20
414.8335624042013023
 30
0.0
  9
$LIMMIN
 10
0.0
 20
0.0
  9
$LIMMAX
 10
11.6929133858000007
 20
8.2677165353999982
  9
$ORTHOMODE
 70
     0
  9
$REGENMODE
 70
     1
  9
$FILLMODE
 70
     1
  9
$QTEXTMODE
 70
     0
  9
$MIRRTEXT
 70
     0
  9
$DRAGMODE
 70
     2
  9
$LTSCALE
 40
0.6431102362
  9
$OSMODE
 70
  4095
  9
$ATTMODE
 70
     1
  9
$TEXTSIZE
 40
0.2
  9
$TRACEWID
 40
0.05
  9
$TEXTSTYLE
  7
STANDARD
  9
$CLAYER
  8
0
  9
$CELTYPE
  6
BYLAYER
  9
$CECOLOR
 62
   256
  9
$DIMSCALE
 40
1.0
  9
$DIMASZ
 40
0.1875
  9
$DIMEXO
 40
0.0625
  9
$DIMDLI
 40
0.4443307087
  9
$DIMRND
 40
0.0
  9
$DIMDLE
 40
0.0
  9
$DIMEXE
 40
0.125
  9
$DIMTP
 40
0.01
  9
$DIMTM
 40
0.01
  9
$DIMTXT
 40
2.0
  9
$DIMCEN
 40
0.1052362205
  9
$DIMTSZ
 40
0.0
  9
$DIMTOL
 70
     1
  9
$DIMLIM
 70
     0
  9
$DIMTIH
 70
     1
  9
$DIMTOH
 70
     1
  9
$DIMSE1
 70
     0
  9
$DIMSE2
 70
     0
  9
$DIMTAD
 70
     0
  9
$DIMZIN
 70
     0
  9
$DIMBLK
  1

  9
$DIMASO
 70
     1
  9
$DIMSHO
 70
     1
  9
$DIMPOST
  1
\X
  9
$DIMAPOST
  1

  9
$DIMALT
 70
     1
  9
$DIMALTD
 70
     2
  9
$DIMALTF
 40
25.3999999999999986
  9
$DIMLFAC
 40
1.0
  9
$DIMTOFL
 70
     0
  9
$DIMTVP
 40
0.0
  9
$DIMTIX
 70
     0
  9
$DIMSOXD
 70
     0
  9
$DIMSAH
 70
     0
  9
$DIMBLK1
  1

  9
$DIMBLK2
  1

  9
$DIMSTYLE
  2
STANDARD
  9
$DIMCLRD
 70
     0
  9
$DIMCLRE
 70
     0
  9
$DIMCLRT
 70
     0
  9
$DIMTFAC
 40
1.0
  9
$DIMGAP
 40
0.09
  9
$LUNITS
 70
     2
  9
$LUPREC
 70
     4
  9
$SKETCHINC
 40
0.1
  9
$FILLETRAD
 40
0.0197
  9
$AUNITS
 70
     0
  9
$AUPREC
 70
     0
  9
$MENU
  1
.
  9
$ELEVATION
 40
0.0
  9
$PELEVATION
 40
0.0
  9
$THICKNESS
 40
0.0
  9
$LIMCHECK
 70
     0
  9
$BLIPMODE
 70
     0
  9
$CHAMFERA
 40
0.0
  9
$CHAMFERB
 40
0.0
  9
$SKPOLY
 70
     0
  9
$TDCREATE
 40
2458060.468368056230247
  9
$TDUPDATE
 40
2460657.7782754627987742
  9
$TDINDWG
 40
1.2662107639
  9
$TDUSRTIMER
 40
1.2662107639
  9
$USRTIMER
 70
     1
  9
$ANGBASE
 50
0.0
  9
$ANGDIR
 70
     0
  9
$PDMODE
 70
     0
  9
$PDSIZE
 40
0.3125
  9
$PLINEWID
 40
0.0
  9
$COORDS
 70
     2
  9
$SPLFRAME
 70
     0
  9
$SPLINETYPE
 70
     6
  9
$SPLINESEGS
 70
     8
  9
$ATTDIA
 70
     1
  9
$ATTREQ
 70
     1
  9
$HANDLING
 70
     1
  9
$HANDSEED
  5
33DEA
  9
$SURFTAB1
 70
     6
  9
$SURFTAB2
 70
     6
  9
$SURFTYPE
 70
     6
  9
$SURFU
 70
     6
  9
$SURFV
 70
     6
  9
$UCSNAME
  2

  9
$UCSORG
 10
0.0
 20
0.0
 30
0.0
  9
$UCSXDIR
 10
1.0
 20
0.0
 30
0.0
  9
$UCSYDIR
 10
0.0
 20
1.0
 30
0.0
  9
$PUCSNAME
  2

  9
$PUCSORG
 10
0.0
 20
0.0
 30
0.0
  9
$PUCSXDIR
 10
1.0
 20
0.0
 30
0.0
  9
$PUCSYDIR
 10
0.0
 20
1.0
 30
0.0
  9
$USERI1
 70
     0
  9
$USERI2
 70
     0
  9
$USERI3
 70
     0
  9
$USERI4
 70
     0
  9
$USERI5
 70
     0
  9
$USERR1
 40
0.0
  9
$USERR2
 40
0.0
  9
$USERR3
 40
0.0
  9
$USERR4
 40
0.0
  9
$USERR5
 40
0.0
  9
$WORLDVIEW
 70
     1
  9
$SHADEDGE
 70
     3
  9
$SHADEDIF
 70
    70
  9
$TILEMODE
 70
     1
  9
$MAXACTVP
 70
    64
  9
$PLIMCHECK
 70
     0
  9
$PEXTMIN
 10
1.0000000000000000E+20
 20
1.0000000000000000E+20
 30
1.0000000000000000E+20
  9
$PEXTMAX
 10
-1.0000000000000000E+20
 20
-1.0000000000000000E+20
 30
-1.0000000000000000E+20
  9
$PLIMMIN
 10
0.0
 20
0.0
  9
$PLIMMAX
 10
12.0
 20
9.0
  9
$UNITMODE
 70
     0
  9
$VISRETAIN
 70
     1
  9
$PLINEGEN
 70
     0
  9
$PSLTSCALE
 70
     1
  0
ENDSEC
  0
SECTION
  2
TABLES
  0
TABLE
  2
VPORT
 70
     1
  0
VPORT
  2
*ACTIVE
 70
     0
 10
0.0
 20
0.0
 11
1.0
 21
1.0
 12
3421.8092102216869534
 22
277.2767791895083747
 13
0.0
 23
0.0
 14
1.0
 24
1.0
 15
0.0
 25
0.0
 16
0.0
 26
0.0
 36
60.4960186965801583
 17
3911.3653564453120453
 27
132.5796051025390057
 37
0.0
 40
10.0249544954019694
 41
2.21775147928994
 42
50.0
 43
0.0
 44
0.0
 50
0.0
 51
0.0
 71
     0
 72
   100
 73
     1
 74
     1
 75
     0
 76
     0
 77
     0
 78
     0
  0
ENDTAB
  0
TABLE
  2
LTYPE
 70
     2
  0
LTYPE
  2
CONTINUOUS
 70
     0
  3
Solid line
 72
    65
 73
     0
 40
0.0
  0
LTYPE
  2
PHANTOM2
 70
     0
  3
___ _ _ ___ _ _ ___ _ _ ___ _ _
 72
    65
 73
     6
 40
1.25
 49
0.625
 49
-0.125
 49
0.125
 49
-0.125
 49
0.125
 49
-0.125
  0
ENDTAB
  0
TABLE
  2
LAYER
 70
     2
  0
LAYER
  2
0
 70
     0
 62
   255
  6
CONTINUOUS
  0
LAYER
  2
DEFPOINTS
 70
     0
 62
     7
  6
CONTINUOUS
  0
ENDTAB
  0
TABLE
  2
STYLE
 70
     1
  0
STYLE
  2
STANDARD
 70
     0
 40
0.0
 41
0.8
 50
0.0
 71
     0
 42
0.2
  3
txt
  4

  0
ENDTAB
  0
TABLE
  2
VIEW
 70
     0
  0
ENDTAB
  0
TABLE
  2
UCS
 70
     0
  0
ENDTAB
  0
TABLE
  2
APPID
 70
    11
  0
APPID
  2
ACAD
 70
     0
  0
APPID
  2
ACAD_MLEADERVER
 70
     0
  0
APPID
  2
ACAD_EXEMPT_FROM_CAD_STANDARDS
 70
     0
  0
APPID
  2
ACAD_NAV_VCDISPLAY
 70
     0
  0
APPID
  2
ACAECLAYERSTANDARD
 70
     0
  0
APPID
  2
ACCMTRANSPARENCY
 70
     0
  0
APPID
  2
ACAD_DSTYLE_DIMJAG
 70
     0
  0
APPID
  2
ACAD_DSTYLE_DIMTALN
 70
     0
  0
APPID
  2
ACDBATTR
 70
     0
  0
APPID
  2
ACADANNOTATIVE
 70
     0
  0
APPID
  2
DCO15
 70
     0
  0
ENDTAB
  0
TABLE
  2
DIMSTYLE
 70
     1
  0
DIMSTYLE
  2
STANDARD
 70
     0
  3

  4

  5

  6

  7

 40
1.0
 41
0.1875
 42
0.0625
 43
0.38
 44
0.125
 45
0.0
 46
0.0
 47
0.01
 48
0.01
140
0.15625
141
0.09
142
0.0
143
25.3999999999999986
144
1.0
145
0.0
146
1.0
147
0.09
 71
     1
 72
     0
 73
     1
 74
     1
 75
     0
 76
     0
 77
     0
 78
     4
170
     0
171
     2
172
     0
173
     0
174
     0
175
     0
176
     0
177
     0
178
     0
  0
ENDTAB
  0
ENDSEC
  0
SECTION
  2
BLOCKS
  0
BLOCK
  8
0
  2
$MODEL_SPACE
 70
     0
 10
0.0
 20
0.0
 30
0.0
  3
$MODEL_SPACE
  1

  0
ENDBLK
  5
21
  8
0
  0
BLOCK
 67
     1
  8
0
  2
$PAPER_SPACE
 70
     0
 10
0.0
 20
0.0
 30
0.0
  3
$PAPER_SPACE
  1

  0
ENDBLK
  5
1D
 67
     1
  8
0
  0
BLOCK
  8
0
  2
_FILLED
 70
     0
 10
0.0
 20
0.0
 30
0.0
  3
_FILLED
  1

  0
SOLID
  5
2EA64
  8
0
  6
BYBLOCK
 62
     0
 10
0.0
 20
0.0
 30
0.0
 11
-1.0
 21
0.1666666667
 31
0.0
 12
-1.0
 22
-0.1666666667
 32
0.0
 13
-1.0
 23
-0.1666666667
 33
0.0
  0
ENDBLK
  5
2EA65
  8
0
  6
BYBLOCK
 62
     0
  0
ENDSEC
  0
SECTION
  2
ENTITIES
  0
ATTDEF
  5
26A5B
  8
DEFPOINTS
 10
7333.1749884116879912
 20
404.8825395132269023
 30
0.0
 40
0.001
  1
K-97347IN-4
  3

  2
MODELNUMBER
 70
     0
1001
ACDBATTR
1070
     0
1070
     1
  0
ATTDEF
  5
26A5C
  8
DEFPOINTS
 10
7333.1748626020298616
 20
404.880872672847886
 30
0.0
 40
0.001
  1
AVID
  3

  2
TRADENAME
 70
     0
1001
ACDBATTR
1070
     0
1070
     1
  0
ATTDEF
  5
26A5D
  8
DEFPOINTS
 10
7333.1749884116879912
 20
404.8792061798936857
 30
0.0
 40
0.001
  1
BATHROOM SINK FAUCET
  3

  2
PRODUCT
 70
     0
1001
ACDBATTR
1070
     0
1070
     1
  0
LINE
  5
33929
  8
0
 10
7334.1784004378987447
 20
404.8853336277676931
 30
0.0
 11
7332.1707328960992527
 21
404.8853336277676931
 31
0.0
  0
LINE
  5
3392A
  8
0
 10
7332.1707328960992527
 20
411.8685953745676898
 30
0.0
 11
7332.1707328960992527
 21
404.8853336277676931
 31
0.0
  0
LINE
  5
3392B
  8
0
 10
7333.5024122307777361
 20
414.8335624042013023
 30
0.0
 11
7332.8467211032202613
 21
414.8335624042013023
 31
0.0
  0
LINE
  5
3392C
  8
0
 10
7333.5196086300329625
 20
414.7384539553074774
 30
0.0
 11
7332.8295247039659444
 21
414.7384539553074774
 31
0.0
  0
LINE
  5
3392D
  8
0
 10
7333.7546536591198674
 20
413.6856702772324752
 30
0.0
 11
7332.59447967487813
 21
413.6856702772324752
 31
0.0
  0
ARC
  5
3392E
  8
0
 10
7332.8612268172782933
 20
413.7985648367949238
 30
0.0
 40
1.0350992127702621
 50
90.8029601317543609
 51
98.3016059161382856
  0
ARC
  5
3392F
  8
0
 10
7332.7430858654206531
 20
414.6122026462642793
 30
0.0
 40
0.2129300255766531
 50
98.4558412660732358
 51
111.1516303085406037
  0
ARC
  5
33930
  8
0
 10
7332.6825162802188061
 20
414.7687522238866222
 30
0.0
 40
0.0450716182653305
 50
111.1516303085406037
 51
161.9928326475358062
  0
ARC
  5
33931
  8
0
 10
7325.6373275357409511
 20
416.2428037257117808
 30
0.0
 40
7.152936342679955
 50
345.129297759857991
 51
348.2215123352119122
  0
ARC
  5
33932
  8
0
 10
8956.613353388142059
 20
-36.8767883105236365
 30
0.0
 40
1685.5968248893350392
 50
164.4708008963773977
 51
164.4970334937970904
  0
ARC
  5
33933
  8
0
 10
7332.4130598190422461
 20
413.6474569239393873
 30
0.0
 40
0.0706520497089689
 50
166.9023170801617084
 51
209.4975352858780013
  0
ARC
  5
33934
  8
0
 10
7332.4431081268230628
 20
413.6692875972664183
 30
0.0
 40
0.1076367126785117
 50
211.736745728117711
 51
242.054880247218307
  0
ARC
  5
33935
  8
0
 10
7332.8683763339640791
 20
413.7049954102632796
 30
0.0
 40
1.034188577329308
 50
92.152951993151774
 51
98.5639665545993751
  0
ARC
  5
33936
  8
0
 10
7332.7624472828147191
 20
414.4185640650903224
 30
0.0
 40
0.3128054403430718
 50
98.8409218132941447
 51
107.0835634334319053
  0
ARC
  5
33937
  8
0
 10
7332.6950282579009581
 20
414.637936934789991
 30
0.0
 40
0.0833064623920137
 50
107.0835634334319053
 51
116.7977370588001946
  0
ARC
  5
33938
  8
0
 10
7332.6709060873863564
 20
414.6856954026159201
 30
0.0
 40
0.0298017863400684
 50
116.7977370588001946
 51
147.727705051466188
  0
ARC
  5
33939
  8
0
 10
7262.1747819784577587
 20
433.5876496888827774
 30
0.0
 40
72.957754904223421
 50
344.1553344142639048
 51
344.9974101885496225
  0
ARC
  5
3393A
  8
0
 10
7332.457515853854602
 20
413.6333092267308871
 30
0.0
 40
0.1029859788042289
 50
160.3303211806812953
 51
182.5427569854412866
  0
ARC
  5
3393B
  8
0
 10
7332.4251651388276514
 20
413.6405741214697969
 30
0.0
 40
0.0715196899293097
 50
189.5241292737424885
 51
244.4963765655649013
  0
ARC
  5
3393C
  8
0
 10
7333.3488281626623575
 20
413.7866536182482946
 30
0.0
 40
0.7610777070617152
 50
187.6247565475318879
 51
207.8193001993176949
  0
ARC
  5
3393D
  8
0
 10
7333.136707940127053
 20
413.6828588475871129
 30
0.0
 40
0.5250834023723494
 50
208.6043891231497014
 51
243.7921455025843898
  0
ARC
  5
3393E
  8
0
 10
7333.1946795217490944
 20
413.8365609080823901
 30
0.0
 40
0.6887692743633155
 50
245.1121942187986917
 51
268.3266594911339098
  0
ARC
  5
3393F
  8
0
 10
7333.0645846068300671
 20
413.5916424671121945
 30
0.0
 40
0.520744597729948
 50
193.4530490554259075
 51
204.7142414902556879
  0
ARC
  5
33940
  8
0
 10
7332.9296429142441411
 20
413.5593627612681757
 30
0.0
 40
0.3819957605902173
 50
184.184058818678011
 51
193.4530490554259075
  0
ARC
  5
33941
  8
0
 10
7332.6533146557503642
 20
413.5391477771851214
 30
0.0
 40
0.1049290682159242
 50
173.7061572943221108
 51
184.1840588186747141
  0
ARC
  5
33942
  8
0
 10
7332.5638219993261373
 20
413.5490181239985077
 30
0.0
 40
0.0148937457022001
 50
151.1991845312061002
 51
173.7061572943252941
  0
ARC
  5
33943
  8
0
 10
7332.5522122542442958
 20
413.5554008505466754
 30
0.0
 40
0.0016451465659825
 50
45.7622838633108273
 51
151.199184531211813
  0
ARC
  5
33944
  8
0
 10
7332.4934202068252489
 20
413.5099089816931723
 30
0.0
 40
0.0759665327406244
 50
20.0631893238563386
 51
37.9051806046065423
  0
ARC
  5
33945
  8
0
 10
7333.2553076193498782
 20
413.8024135069858858
 30
0.0
 40
0.740152154968174
 50
201.0992794052822035
 51
215.5510630053161947
  0
ARC
  5
33946
  8
0
 10
7333.1603628005514111
 20
413.7440279704005093
 30
0.0
 40
0.6290054175059062
 50
216.2525849331993868
 51
235.8234832151817102
  0
ARC
  5
33947
  8
0
 10
7333.1700717295652794
 20
413.7589473388617876
 30
0.0
 40
0.6468024032382762
 50
235.8543604815318986
 51
253.4769638264637877
  0
ARC
  5
33948
  8
0
 10
7333.1920444348206729
 20
414.0502551364886017
 30
0.0
 40
0.9343746796948206
 50
257.2682477027677805
 51
268.9282021880777052
  0
ARC
  5
33949
  8
0
 10
7331.1178179308835752
 20
412.9860206845867197
 30
0.0
 40
1.5239156437945021
 50
7.8299008704851891
 51
14.7465118790304892
  0
ARC
  5
3394A
  8
0
 10
7330.3157246317132376
 20
412.8757210973814153
 30
0.0
 40
2.3335573296744081
 50
4.2991749995261621
 51
7.8299008704851891
  0
ARC
  5
3394B
  8
0
 10
7333.0677223502625566
 20
413.5736075399179867
 30
0.0
 40
0.6387212334996967
 50
185.878200400291405
 51
227.767672066791107
  0
ARC
  5
3394C
  8
0
 10
7332.9600415400582278
 20
413.5625212163874949
 30
0.0
 40
0.5304712290860369
 50
177.8636522271858951
 51
185.878200400291405
  0
ARC
  5
3394D
  8
0
 10
7332.4609971366744503
 20
413.5811373649715961
 30
0.0
 40
0.0310797218113881
 50
119.7455459133417008
 51
177.8636522271891067
  0
ARC
  5
3394E
  8
0
 10
7317.2442361029716267
 20
441.7295117114321101
 30
0.0
 40
31.9670576412486795
 50
298.3952617961754754
 51
298.6593986254978859
  0
ARC
  5
3394F
  8
0
 10
7332.6234269387778113
 20
413.5765356662309955
 30
0.0
 40
0.1129084027240378
 50
104.8552710210711041
 51
115.0084423308451989
  0
ARC
  5
33950
  8
0
 10
7343.7110297347799133
 20
411.7630206800137103
 30
0.0
 40
11.5407797457971206
 50
175.2895219489074066
 51
179.4758526783919024
  0
ARC
  5
33951
  8
0
 10
7335.9734977179195994
 20
412.3875640483419147
 30
0.0
 40
3.7781164381922641
 50
167.3756193951834916
 51
175.0927053072281865
  0
ARC
  5
33952
  8
0
 10
7341.4798935803528366
 20
411.154278351533776
 30
0.0
 40
9.4209339085494008
 50
165.5157000242415961
 51
167.3756193951834916
  0
ARC
  5
33953
  8
0
 10
7332.5052599274704335
 20
413.4726529309203897
 30
0.0
 40
0.1516885296735289
 50
143.3889658187798943
 51
165.5157000242415961
  0
ARC
  5
33954
  8
0
 10
7332.494501880109965
 20
413.480645776977326
 30
0.0
 40
0.1382862473645663
 50
132.680643251207897
 51
143.3889658187798943
  0
ARC
  5
33955
  8
0
 10
7332.4274665185139384
 20
413.55334056417189
 30
0.0
 40
0.0394011029319828
 50
111.7577287218027067
 51
132.680643251207897
  0
ARC
  5
33956
  8
0
 10
7333.1711434376629768
 20
409.3542715624366792
 30
0.0
 40
4.4077815049264517
 50
90.0341488007749149
 51
93.9545408798349371
  0
ARC
  5
33957
  8
0
 10
7333.0096630016150812
 20
411.4463060295748278
 30
0.0
 40
2.3096527448667961
 50
93.5373100211728143
 51
101.4713960949928975
  0
ARC
  5
33958
  8
0
 10
7332.6748185123060466
 20
413.0743203943640083
 30
0.0
 40
0.6475807748048453
 50
101.0840163343945051
 51
111.0774491214198036
  0
ARC
  5
33959
  8
0
 10
7332.4844408680073684
 20
413.5684453773172891
 30
0.0
 40
0.1180497318273229
 50
111.1073002194697068
 51
121.4902253155964047
  0
ARC
  5
3395A
  8
0
 10
7332.427680584679365
 20
413.6611052207562125
 30
0.0
 40
0.0093870595354178
 50
121.4902253155947989
 51
160.8280936994102035
  0
ARC
  5
3395B
  8
0
 10
7332.5843890494916195
 20
413.6156966521281788
 30
0.0
 40
0.1725295716917552
 50
163.6764687752483951
 51
169.2463565459036943
  0
ARC
  5
3395C
  8
0
 10
7332.4106796442019913
 20
413.6488986117590798
 30
0.0
 40
0.0043292338225053
 50
301.071137893917296
 51
346.5050437065206097
  0
ARC
  5
3395D
  8
0
 10
7332.487627767874983
 20
413.5302726748130908
 30
0.0
 40
0.1370702715723688
 50
123.0298984416799044
 51
130.2536127309205938
  0
ARC
  5
3395E
  8
0
 10
7332.4347041314813396
 20
413.5908225215384277
 30
0.0
 40
0.0566754770013564
 50
128.9743987501707068
 51
152.0931545788106973
  0
ARC
  5
3395F
  8
0
 10
7332.4039395884074111
 20
413.6069408343445275
 30
0.0
 40
0.0219451576517735
 50
151.6885053775961012
 51
207.5108116751414968
  0
ARC
  5
33960
  8
0
 10
7332.4180705840353767
 20
413.6170739531315235
 30
0.0
 40
0.0392361137060993
 50
211.1054189739049889
 51
243.3078702179898016
  0
ARC
  5
33961
  8
0
 10
7332.8282506291734535
 20
413.4195978465219241
 30
0.0
 40
0.4018582747134571
 50
133.7647479307753997
 51
148.4396345469779988
  0
LINE
  5
33962
  8
0
 10
7332.446217129499928
 20
413.6084778202676944
 30
0.0
 11
7332.4128612104041167
 21
413.5899347151702727
 31
0.0
  0
ARC
  5
33963
  8
0
 10
7333.0095877432049747
 20
413.0133401547813037
 30
0.0
 40
0.1580650940163329
 50
186.6540664970239902
 51
222.6359486264134091
  0
ARC
  5
33964
  8
0
 10
7332.8944407684857651
 20
412.9070107249821717
 30
0.0
 40
0.0013534549970138
 50
117.237563347866697
 51
212.8421413536021021
  0
ARC
  5
33965
  8
0
 10
7332.9144652438826597
 20
412.8654998984757185
 30
0.0
 40
0.0474412799761574
 50
96.7615005928014114
 51
115.7946417588135972
  0
ARC
  5
33966
  8
0
 10
7332.9812374410048506
 20
412.4510597477959095
 30
0.0
 40
0.4671888341521559
 50
94.6560996061489988
 51
98.9097835243329087
  0
ARC
  5
33967
  8
0
 10
7333.0873421912401682
 20
411.1406916952288952
 30
0.0
 40
1.7818456533462019
 50
91.9142508110780767
 51
94.6363451634559851
  0
ARC
  5
33968
  8
0
 10
7333.3032838633544088
 20
401.078073771676884
 30
0.0
 40
11.84667218925558
 50
90.6225459014110584
 51
91.3323770341167744
  0
ARC
  5
33969
  8
0
 10
7333.2178144922681895
 20
420.390701287138711
 30
0.0
 40
7.5009373069650689
 50
268.7287048267963883
 51
269.669650406521896
  0
ARC
  5
3396A
  8
0
 10
7333.0811173002712167
 20
414.4114530602337823
 30
0.0
 40
1.5201333202836509
 50
263.6614668195156241
 51
268.8796645093341908
  0
ARC
  5
3396B
  8
0
 10
7332.9248817849429543
 20
412.9934794037454253
 30
0.0
 40
0.0935875903390463
 50
252.4609717109424025
 51
262.8852992797868069
  0
ARC
  5
3396C
  8
0
 10
7332.898483101444981
 20
412.9110532874379942
 30
0.0
 40
0.0070457445609071
 50
222.6827063486119869
 51
255.1610170164034059
  0
ARC
  5
3396D
  8
0
 10
7333.1797555424282109
 20
410.5311402498560938
 30
0.0
 40
2.3838356403028009
 50
90.1247153504033065
 51
91.627272019865714
  0
ARC
  5
3396E
  8
0
 10
7333.1734732859986252
 20
411.9118717732091
 30
0.0
 40
0.9992771926006293
 50
89.9373085569053359
 51
91.7140423252881334
  0
ARC
  5
3396F
  8
0
 10
7333.1741669459834156
 20
411.9546302697327178
 30
0.0
 40
0.9561598805535882
 50
89.9760475958098738
 51
91.6556108166483341
  0
ARC
  5
33970
  8
0
 10
7333.1743263236985513
 20
412.4911585064116935
 30
0.0
 40
0.4174818247980945
 50
89.9670149531440444
 51
91.370939264305747
  0
ARC
  5
33971
  8
0
 10
7333.1745086463215557
 20
413.3384068655122974
 30
0.0
 40
0.4331107443144114
 50
268.6544145981366114
 51
270.0076754963894814
  0
ARC
  5
33972
  8
0
 10
7333.1736001844255952
 20
413.8195050734167921
 30
0.0
 40
0.9163592667061703
 50
268.3079118136208763
 51
270.0604297732012924
  0
ARC
  5
33973
  8
0
 10
7333.1738649176595572
 20
413.9292389828066234
 30
0.0
 40
1.026451207177735
 50
268.3094778148944783
 51
270.0391711542519033
  0
ARC
  5
33974
  8
0
 10
7333.1731345765683727
 20
414.8497749276170907
 30
0.0
 40
1.950809313008113
 50
268.205951755182582
 51
270.04206087413462
  0
ARC
  5
33975
  8
0
 10
7333.1726661884986243
 20
414.916570506308517
 30
0.0
 40
2.0179602813986341
 50
268.1950623289196187
 51
269.9421769806809834
  0
ARC
  5
33976
  8
0
 10
7333.1719281937703272
 20
415.7460691659387066
 30
0.0
 40
2.8509227835562978
 50
268.1633364050596242
 51
269.9739029925473233
  0
ARC
  5
33977
  8
0
 10
7333.1744087985980514
 20
416.1417965039747742
 30
0.0
 40
3.247010396964976
 50
269.2206703730026902
 51
269.9333144153645208
  0
ARC
  5
33978
  8
0
 10
7333.1739518043023054
 20
417.0031879832284858
 30
0.0
 40
4.1118651120127501
 50
269.1849438584964105
 51
269.9537083753053821
  0
ARC
  5
33979
  8
0
 10
7333.1576621970989436
 20
416.125668327330402
 30
0.0
 40
3.2341917579205619
 50
268.0755785549898746
 51
268.9828414793540219
  0
ARC
  5
3397A
  8
0
 10
7333.1641428317989266
 20
415.5215139554812822
 30
0.0
 40
2.626639326717223
 50
268.1119096028407967
 51
268.9286951172023237
  0
ARC
  5
3397B
  8
0
 10
7333.1050953210524312
 20
413.199452494808213
 30
0.0
 40
0.2992917968568816
 50
257.9738943446532744
 51
270.0280078276558129
  0
ARC
  5
3397C
  8
0
 10
7333.1050953211079104
 20
412.6144838877856955
 30
0.0
 40
0.2992917973824236
 50
89.9719921829746738
 51
102.0261056447428984
  0
ARC
  5
3397D
  8
0
 10
7333.1152432726794359
 20
412.8828135606211163
 30
0.0
 40
0.0261642097132502
 50
93.1710818802614966
 51
111.2001042687772951
  0
ARC
  5
3397E
  8
0
 10
7333.1462974899513938
 20
412.5932078755542989
 30
0.0
 40
0.3173982960604549
 50
91.7211093736556791
 51
95.8773849456472078
  0
ARC
  5
3397F
  8
0
 10
7333.1184155886940061
 20
412.9450343150343201
 30
0.0
 40
0.040334722050237
 50
251.7461014378642119
 51
266.3509344073231091
  0
ARC
  5
33980
  8
0
 10
7333.1489694840065567
 20
413.2665379567184232
 30
0.0
 40
0.3632696388502854
 50
264.7688089063580037
 51
268.074651544866299
  0
ARC
  5
33981
  8
0
 10
7333.1404808137067448
 20
412.7681237833193109
 30
0.0
 40
0.1420303684591107
 50
90.3058561674404956
 51
101.6922413859334
  0
ARC
  5
33982
  8
0
 10
7333.1404808137167493
 20
413.045812599889075
 30
0.0
 40
0.1420303685479922
 50
258.3077586176327145
 51
269.6941438289638882
  0
ARC
  5
33983
  8
0
 10
7333.1587717260281352
 20
412.8471556736593016
 30
0.0
 40
0.0611391245062787
 50
91.1741312403065791
 51
100.8239664516026011
  0
ARC
  5
33984
  8
0
 10
7333.158771725115912
 20
412.9667807001907818
 30
0.0
 40
0.0611391152200281
 50
259.1760327536483146
 51
268.8258694356006231
  0
ARC
  5
33985
  8
0
 10
7333.1719281937703272
 20
410.0678672171878816
 30
0.0
 40
2.8509227835494251
 50
90.0260970074527336
 51
91.8366635949403758
  0
ARC
  5
33986
  8
0
 10
7333.1726661906541267
 20
410.8973658919416039
 30
0.0
 40
2.0179602663052449
 50
90.057823079558446
 51
91.8049377455828335
  0
ARC
  5
33987
  8
0
 10
7333.1741148592982427
 20
409.7119528132059827
 30
0.0
 40
3.207197157303797
 50
90.0622622456060924
 51
90.7837529660278619
  0
ARC
  5
33988
  8
0
 10
7333.1743678927978181
 20
408.7553931945981276
 30
0.0
 40
4.1672206519116761
 50
90.0514403364215781
 51
90.8099500092179852
  0
ARC
  5
33989
  8
0
 10
7333.1615415697433491
 20
409.5371772798347934
 30
0.0
 40
3.3853278029610321
 50
91.0374110477939951
 51
91.9041689459429421
  0
ARC
  5
3398A
  8
0
 10
7333.1612777242244192
 20
410.4033382747173277
 30
0.0
 40
2.5156894237645591
 50
91.0532930709992741
 51
91.9061020779465139
  0
ARC
  5
3398B
  8
0
 10
7333.1287134450103622
 20
412.1060118662558125
 30
0.0
 40
0.8085061897496167
 50
91.8730328709170578
 51
95.0709848480391742
  0
ARC
  5
3398C
  8
0
 10
7333.1097813250344188
 20
411.7775842275852938
 30
0.0
 40
1.140072219095271
 50
91.8118026188663805
 51
95.1322149450158605
  0
ARC
  5
3398D
  8
0
 10
7333.0623070683677724
 20
412.8137257029575267
 30
0.0
 40
0.0976292940641534
 50
95.286044228502476
 51
103.1336400558430029
  0
ARC
  5
3398E
  8
0
 10
7333.063417592236874
 20
413.0074415253446887
 30
0.0
 40
0.1049326190582147
 50
257.2869536784289721
 51
264.4739023202573094
  0
ARC
  5
3398F
  8
0
 10
7333.0414515046522865
 20
412.912007408142415
 30
0.0
 40
0.0070169964166209
 50
228.7800597822241002
 51
260.7638273861621201
  0
ARC
  5
33990
  8
0
 10
7333.0410526033392671
 20
412.9026765199915872
 30
0.0
 40
0.0061948403853939
 50
98.6263800048308639
 51
133.001093368220296
  0
ARC
  5
33991
  8
0
 10
7333.1027667307598676
 20
413.2802709215170012
 30
0.0
 40
0.3804209195320995
 50
263.1281437868398143
 51
269.9278384941993068
  0
ARC
  5
33992
  8
0
 10
7333.109781325615586
 20
414.0363521651445922
 30
0.0
 40
1.1400722287191991
 50
264.8677850690058904
 51
268.1881973671090122
  0
ARC
  5
33993
  8
0
 10
7333.1343693795988656
 20
414.6476203196154984
 30
0.0
 40
1.752234909305725
 50
266.8559523466427095
 51
267.9203431004712002
  0
ARC
  5
33994
  8
0
 10
7333.1147264076753345
 20
414.9605467421615117
 30
0.0
 40
2.0682779666131839
 50
266.7612382600727869
 51
267.9914234368272901
  0
ARC
  5
33995
  8
0
 10
7332.9252573880039563
 20
412.8984314255943104
 30
0.0
 40
0.0122414266626787
 50
97.9811691786997159
 51
134.202520304585903
  0
ARC
  5
33996
  8
0
 10
7332.9252573875746748
 20
412.9155049566493858
 30
0.0
 40
0.0122414257357521
 50
225.7974782764943882
 51
262.0188322401961045
  0
ARC
  5
33997
  8
0
 10
7333.0066583968036866
 20
412.844285629254216
 30
0.0
 40
0.0684436881647288
 50
92.3433061915668389
 51
113.1735997674991978
  0
ARC
  5
33998
  8
0
 10
7333.0066583968564373
 20
412.9696507540936068
 30
0.0
 40
0.0684436883948718
 50
246.8264002678781992
 51
267.6566937730207201
  0
ARC
  5
33999
  8
0
 10
7333.0200304590925953
 20
412.7064324780354241
 30
0.0
 40
0.2075133851114879
 50
95.8875173135023005
 51
100.3332679300613961
  0
ARC
  5
3399A
  8
0
 10
7332.9801430708548651
 20
412.9006742647239889
 30
0.0
 40
0.0090931622287632
 50
98.9260867259246623
 51
134.0750479787340907
  0
ARC
  5
3399B
  8
0
 10
7332.9801430708139378
 20
412.9132621181638001
 30
0.0
 40
0.0090931619946446
 50
225.9249509563225047
 51
261.073913257882225
  0
LINE
  5
3399C
  8
0
 10
7332.9532357509979192
 20
412.9149970457098107
 30
0.0
 11
7332.986739455796851
 21
412.9176884762097757
 31
0.0
  0
LINE
  5
3399D
  8
0
 10
7332.986739455796851
 20
412.9176884762097757
 30
0.0
 11
7333.0271299778896719
 21
412.9152378916102748
 31
0.0
  0
LINE
  5
3399E
  8
0
 10
7333.0271299778896719
 20
412.9152378916102748
 30
0.0
 11
7333.0026816105983016
 21
412.9132649992097868
 31
0.0
  0
LINE
  5
3399F
  8
0
 10
7333.0026816105983016
 20
412.9132649992097868
 30
0.0
 11
7332.9532357509979192
 21
412.9149970457098107
 31
0.0
  0
LINE
  5
339A0
  8
0
 10
7332.9987446026971156
 20
412.9128512691099218
 30
0.0
 11
7332.9492987430976427
 21
412.9145833156097751
 31
0.0
  0
LINE
  5
339A1
  8
0
 10
7332.9492987430976427
 20
412.9145833156097751
 30
0.0
 11
7332.927633585399235
 21
412.9114771908098191
 31
0.0
  0
LINE
  5
339A2
  8
0
 10
7332.927633585399235
 20
412.9114771908098191
 30
0.0
 11
7332.9828080645984301
 21
412.9105802146098085
 31
0.0
  0
LINE
  5
339A3
  8
0
 10
7332.9828080645984301
 20
412.9105802146098085
 30
0.0
 11
7332.9828080645984301
 21
412.9134095125098156
 31
0.0
  0
LINE
  5
339A4
  8
0
 10
7333.0026816105983016
 20
412.9167212295097897
 30
0.0
 11
7333.0026816105983016
 21
412.9132649992097868
 31
0.0
  0
LINE
  5
339A5
  8
0
 10
7332.9235576948985909
 20
412.9105542788097978
 30
0.0
 11
7332.9787321740896004
 21
412.9096573026100145
 31
0.0
  0
LINE
  5
339A6
  8
0
 10
7332.9738178672978393
 20
412.9097371949097806
 30
0.0
 11
7332.9738178672978393
 21
412.9072070588637757
 31
0.0
  0
LINE
  5
339A7
  8
0
 10
7332.9738178672978393
 20
412.9072070588637757
 30
0.0
 11
7332.9167227064990584
 21
412.9072070588097745
 31
0.0
  0
LINE
  5
339A8
  8
0
 10
7332.9787321740977859
 20
412.9042790805098093
 30
0.0
 11
7332.9235576948985909
 21
412.9033821043099124
 31
0.0
  0
LINE
  5
339A9
  8
0
 10
7332.9235576948985909
 20
412.9033821043099124
 30
0.0
 11
7332.9235576948985909
 21
412.906729324309822
 31
0.0
  0
LINE
  5
339AA
  8
0
 10
7332.9167227064990584
 20
412.906729324309822
 30
0.0
 11
7332.9738178672978393
 21
412.906729324309822
 31
0.0
  0
LINE
  5
339AB
  8
0
 10
7332.927633585399235
 20
412.9024591923097773
 30
0.0
 11
7332.9828080645984301
 21
412.9033561685097879
 31
0.0
  0
LINE
  5
339AC
  8
0
 10
7332.9828080645984301
 20
412.9033561685097879
 30
0.0
 11
7332.9987446025343161
 21
412.9010851140041041
 31
0.0
  0
LINE
  5
339AD
  8
0
 10
7332.9987446025343161
 20
412.9010851140041041
 30
0.0
 11
7332.9492987430976427
 21
412.8993530675098214
 31
0.0
  0
LINE
  5
339AE
  8
0
 10
7332.9492987430976427
 20
412.8993530675098214
 30
0.0
 11
7332.927633585399235
 21
412.9024591923097773
 31
0.0
  0
LINE
  5
339AF
  8
0
 10
7332.9492987430976427
 20
412.8993530675098214
 30
0.0
 11
7332.9492987430976427
 21
412.9028114046097926
 31
0.0
  0
LINE
  5
339B0
  8
0
 10
7332.9532357509979192
 20
412.8989393374097858
 30
0.0
 11
7332.986739455796851
 21
412.8962479069098208
 31
0.0
  0
LINE
  5
339B1
  8
0
 10
7332.986739455796851
 20
412.8962479069098208
 30
0.0
 11
7333.0271299778887624
 21
412.898698491509208
 31
0.0
  0
LINE
  5
339B2
  8
0
 10
7333.0271299778887624
 20
412.898698491509208
 30
0.0
 11
7333.0026816105983016
 21
412.9006713839098097
 31
0.0
  0
LINE
  5
339B3
  8
0
 10
7333.0026816105983016
 20
412.9006713839098097
 30
0.0
 11
7332.9532357509979192
 21
412.8989393374097858
 31
0.0
  0
LINE
  5
339B4
  8
0
 10
7332.986739455796851
 20
412.8962479069098208
 30
0.0
 11
7332.986739455796851
 21
412.9001129437098143
 31
0.0
  0
LINE
  5
339B5
  8
0
 10
7332.9978749957126638
 20
412.8955722883969202
 30
0.0
 11
7333.0382655178273126
 21
412.8980228730176236
 31
0.0
  0
LINE
  5
339B6
  8
0
 10
7333.042235137998432
 20
412.8978066966097913
 30
0.0
 11
7333.042235137998432
 21
412.8935395426098012
 31
0.0
  0
LINE
  5
339B7
  8
0
 10
7333.042235137998432
 20
412.8935395426098012
 30
0.0
 11
7333.0707827182386609
 21
412.8965395351036136
 31
0.0
  0
LINE
  5
339B8
  8
0
 10
7333.0490542355992147
 20
412.8933006754098187
 30
0.0
 11
7333.0776018159149316
 21
412.8963006679010732
 31
0.0
  0
LINE
  5
339B9
  8
0
 10
7333.0737360591983816
 20
412.9009593133025078
 30
0.0
 11
7333.0737360591983816
 21
412.8968498942098222
 31
0.0
  0
LINE
  5
339BA
  8
0
 10
7333.0737360591983816
 20
412.8968498942098222
 30
0.0
 11
7333.102287607526705
 21
412.8998503037021806
 31
0.0
  0
LINE
  5
339BB
  8
0
 10
7333.1091067052975632
 20
412.8996114365098151
 30
0.0
 11
7333.0805551569455929
 21
412.8966110269336127
 31
0.0
  0
LINE
  5
339BC
  8
0
 10
7333.1002493662981578
 20
412.8956518536709837
 30
0.0
 11
7333.1002493662981578
 21
412.8919862010445172
 31
0.0
  0
LINE
  5
339BD
  8
0
 10
7333.1002493662981578
 20
412.8919862010445172
 30
0.0
 11
7333.1150333233908896
 21
412.8953337619603872
 31
0.0
  0
LINE
  5
339BE
  8
0
 10
7332.9797245490972273
 20
412.9072070588097745
 30
0.0
 11
7333.0368276458975743
 21
412.9072070588148904
 31
0.0
  0
LINE
  5
339BF
  8
0
 10
7333.0368276458975743
 20
412.9072070588148904
 30
0.0
 11
7333.0368276458975743
 21
412.9115172524564059
 31
0.0
  0
LINE
  5
339C0
  8
0
 10
7332.9797245490972273
 20
412.906729324309822
 30
0.0
 11
7333.0368276458975743
 21
412.906729324309822
 31
0.0
  0
LINE
  5
339C1
  8
0
 10
7333.0038599391982643
 20
412.906729324309822
 30
0.0
 11
7333.0038599391982643
 21
412.9012642999098261
 31
0.0
  0
LINE
  5
339C2
  8
0
 10
7333.0038599391982643
 20
412.9012642999098261
 30
0.0
 11
7333.053312671680942
 21
412.9029965871092145
 31
0.0
  0
LINE
  5
339C3
  8
0
 10
7333.0572496795975894
 20
412.9025828570098042
 30
0.0
 11
7333.0077969470994503
 21
412.9008505697099167
 31
0.0
  0
LINE
  5
339C4
  8
0
 10
7333.0427356776981469
 20
412.9072070588097745
 30
0.0
 11
7333.1057816071979687
 21
412.9072070588097745
 31
0.0
  0
LINE
  5
339C5
  8
0
 10
7333.1057816071979687
 20
412.9072070588097745
 30
0.0
 11
7333.1057816071979687
 21
412.9137189038978022
 31
0.0
  0
LINE
  5
339C6
  8
0
 10
7333.1052416234979319
 20
412.9137756494097857
 30
0.0
 11
7333.1367645882955912
 21
412.9104629813099905
 31
0.0
  0
LINE
  5
339C7
  8
0
 10
7333.1435836858991024
 20
412.9147014420166215
 30
0.0
 11
7333.1435836858991024
 21
412.9107018485760818
 31
0.0
  0
LINE
  5
339C8
  8
0
 10
7333.1435836858991024
 20
412.9107018485760818
 30
0.0
 11
7333.1120607211978495
 21
412.9140145166098819
 31
0.0
  0
LINE
  5
339C9
  8
0
 10
7333.1091067052975632
 20
412.9180977654596063
 30
0.0
 11
7333.1091067052875587
 21
412.9143249466479233
 31
0.0
  0
LINE
  5
339CA
  8
0
 10
7333.1091067052875587
 20
412.9143249466479233
 30
0.0
 11
7333.0805551569455929
 21
412.9173253561859838
 31
0.0
  0
LINE
  5
339CB
  8
0
 10
7333.0737360591983816
 20
412.9170864889097743
 30
0.0
 11
7333.102287607598555
 21
412.9140860794097989
 31
0.0
  0
LINE
  5
339CC
  8
0
 10
7333.0572496795975894
 20
412.9113535261097923
 30
0.0
 11
7333.057247732695032
 21
412.916445451101481
 31
0.0
  0
LINE
  5
339CD
  8
0
 10
7333.0572496795975894
 20
412.9113535261097923
 30
0.0
 11
7333.0077969470994503
 21
412.9130858134097934
 31
0.0
  0
LINE
  5
339CE
  8
0
 10
7333.0038599391982643
 20
412.9126720832098272
 30
0.0
 11
7333.053312671680942
 21
412.910939796010382
 31
0.0
  0
LINE
  5
339CF
  8
0
 10
7332.9978749956972024
 20
412.9183640947097729
 30
0.0
 11
7333.0422351374254504
 21
412.9203968405699925
 31
0.0
  0
LINE
  5
339D0
  8
0
 10
7333.0422351374254504
 20
412.9203968405699925
 30
0.0
 11
7333.0707827183096015
 21
412.9173968479752261
 31
0.0
  0
LINE
  5
339D1
  8
0
 10
7333.0707827183096015
 20
412.9173968479752261
 30
0.0
 11
7333.038265518190201
 21
412.9159135100799745
 31
0.0
  0
LINE
  5
339D2
  8
0
 10
7333.038265518190201
 20
412.9159135100799745
 30
0.0
 11
7332.9978749956972024
 21
412.9183640947097729
 31
0.0
  0
LINE
  5
339D3
  8
0
 10
7333.0382655176990738
 20
412.9202149379036086
 30
0.0
 11
7333.038265518190201
 21
412.9159135100799745
 31
0.0
  0
LINE
  5
339D4
  8
0
 10
7333.0490542355992147
 20
412.9206357077097778
 30
0.0
 11
7333.0776020422190413
 21
412.9176357227298126
 31
0.0
  0
LINE
  5
339D5
  8
0
 10
7333.0776020422190413
 20
412.9176357227298126
 30
0.0
 11
7333.0776018159986052
 21
412.9214642728721856
 31
0.0
  0
LINE
  5
339D6
  8
0
 10
7333.1002493663809219
 20
412.9219501819910079
 30
0.0
 11
7333.1150333232781122
 21
412.9186026211369835
 31
0.0
  0
LINE
  5
339D7
  8
0
 10
7333.1154607966727781
 20
412.9221974755482734
 30
0.0
 11
7333.1302447537582339
 21
412.9188499147135758
 31
0.0
  0
LINE
  5
339D8
  8
0
 10
7333.1302447537582339
 20
412.9188499147135758
 30
0.0
 11
7333.1302447537982516
 21
412.9223800393098145
 31
0.0
  0
LINE
  5
339D9
  8
0
 10
7333.0427356776981469
 20
412.906729324309822
 30
0.0
 11
7333.1057816071979687
 21
412.906729324309822
 31
0.0
  0
LINE
  5
339DA
  8
0
 10
7333.1052416234979319
 20
412.906729324309822
 30
0.0
 11
7333.1052416234979319
 21
412.9001607337098108
 31
0.0
  0
LINE
  5
339DB
  8
0
 10
7333.1052416234979319
 20
412.9001607337098108
 30
0.0
 11
7333.1367645882992292
 21
412.9034734018097765
 31
0.0
  0
LINE
  5
339DC
  8
0
 10
7333.1120607212096729
 20
412.8999218664731075
 30
0.0
 11
7333.1435836858991024
 21
412.9032345346097941
 31
0.0
  0
LINE
  5
339DD
  8
0
 10
7333.1397226311983104
 20
412.9037842550097821
 30
0.0
 11
7333.1575189228988165
 21
412.9056544219097873
 31
0.0
  0
LINE
  5
339DE
  8
0
 10
7333.1472902763971433
 20
412.906729324309822
 30
0.0
 11
7333.1116976928979057
 21
412.906729324309822
 31
0.0
  0
LINE
  5
339DF
  8
0
 10
7333.1397226312010389
 20
412.9101521281098144
 30
0.0
 11
7333.1575189228988165
 21
412.9082819612099229
 31
0.0
  0
LINE
  5
339E0
  8
0
 10
7333.1643380205587164
 20
412.908520828425992
 30
0.0
 11
7333.1465417287981836
 21
412.9103909953097968
 31
0.0
  0
LINE
  5
339E1
  8
0
 10
7333.1472902763971433
 20
412.9093568636097871
 30
0.0
 11
7333.1472902763416641
 21
412.9072070588097745
 31
0.0
  0
LINE
  5
339E2
  8
0
 10
7333.1472902763416641
 20
412.9072070588097745
 30
0.0
 11
7333.1116976928979057
 21
412.9072070588097745
 31
0.0
  0
LINE
  5
339E3
  8
0
 10
7333.1397226311983104
 20
412.906729324309822
 30
0.0
 11
7333.1397226311983104
 21
412.9037842550097821
 31
0.0
  0
LINE
  5
339E4
  8
0
 10
7333.1643380206742222
 20
412.9054155547282221
 30
0.0
 11
7333.146541728990087
 21
412.9035453878299791
 31
0.0
  0
LINE
  5
339E5
  8
0
 10
7333.1706296592201397
 20
412.9226121698055749
 30
0.0
 11
7333.1706296591992214
 21
412.9191480768589031
 31
0.0
  0
LINE
  5
339E6
  8
0
 10
7333.1706296591992214
 20
412.9187897050097718
 30
0.0
 11
7333.1706296591992214
 21
412.9153251306098014
 31
0.0
  0
LINE
  5
339E7
  8
0
 10
7333.1643380204977802
 20
412.9107385712097766
 30
0.0
 11
7333.164390784940224
 21
412.9085220878444034
 31
0.0
  0
LINE
  5
339E8
  8
0
 10
7333.1706296591992214
 20
412.8986112525097951
 30
0.0
 11
7333.1706280792386679
 21
412.8951466788299172
 31
0.0
  0
LINE
  5
339E9
  8
0
 10
7333.1706296591955834
 20
412.8947883062480742
 30
0.0
 11
7333.1706296591992214
 21
412.891324213309872
 31
0.0
  0
LINE
  5
339EA
  8
0
 10
7333.1154607965981995
 20
412.8917389076098061
 30
0.0
 11
7333.13024475372913
 21
412.8950864683941973
 31
0.0
  0
ARC
  5
339EB
  8
0
 10
7333.1864158761145518
 20
407.6165149782274284
 30
0.0
 40
5.3965074109638413
 50
90.125805482455732
 51
92.1617085981326198
  0
ARC
  5
339EC
  8
0
 10
7333.058374290332722
 20
411.1999299707694036
 30
0.0
 40
1.8108272128307299
 50
92.3900246023201532
 51
94.4890413119499044
  0
ARC
  5
339ED
  8
0
 10
7332.9651161495803535
 20
412.3877916438949001
 30
0.0
 40
0.6193103496276685
 50
94.4890413119499044
 51
99.3544153678006978
  0
ARC
  5
339EE
  8
0
 10
7332.8712415761574448
 20
412.9576553361387141
 30
0.0
 40
0.0417663571274743
 50
99.3544153678006978
 51
116.5277817298736949
  0
ARC
  5
339EF
  8
0
 10
7333.1882183660691226
 20
407.2871216602707136
 30
0.0
 40
5.7278145975546391
 50
90.1365591478332817
 51
92.4635053990698879
  0
ARC
  5
339F0
  8
0
 10
7333.0139827403982054
 20
411.520612449051896
 30
0.0
 40
1.490768114133499
 50
92.7668903985382372
 51
95.5225690974362891
  0
ARC
  5
339F1
  8
0
 10
7332.9169175465731314
 20
412.524527916806619
 30
0.0
 40
0.4821711092553524
 50
95.5225690974362891
 51
98.8938480818976728
  0
ARC
  5
339F2
  8
0
 10
7332.8629568016804114
 20
412.8693562556396159
 30
0.0
 40
0.13314626020902
 50
98.8938480818981276
 51
106.2435567597594996
  0
ARC
  5
339F3
  8
0
 10
7332.8301331423317606
 20
412.9820162867097793
 30
0.0
 40
0.0158020008105996
 50
106.2435567597594996
 51
120.6912295336470038
  0
ARC
  5
339F4
  8
0
 10
7332.8246753744097077
 20
412.9912114214930057
 30
0.0
 40
0.005109118394128
 50
120.6912295336435932
 51
148.6185695194535867
  0
ARC
  5
339F5
  8
0
 10
7332.8216642167199097
 20
412.9934152322211958
 30
0.0
 40
0.0014257154677032
 50
161.3181254168470957
 51
215.6759759692494924
  0
ARC
  5
339F6
  8
0
 10
7332.8331889591127037
 20
413.0086925089017882
 30
0.0
 40
0.0205023830859912
 50
231.7856128774539002
 51
260.1231374751300791
  0
ARC
  5
339F7
  8
0
 10
7332.8782672075531082
 20
413.1967695578206872
 30
0.0
 40
0.2138695570163809
 50
256.8666513746326245
 51
263.544474256807689
  0
ARC
  5
339F8
  8
0
 10
7333.170798849858329
 20
407.6058246650396768
 30
0.0
 40
5.4609437122613933
 50
89.9604683643369043
 51
91.746835948703847
  0
ARC
  5
339F9
  8
0
 10
7333.0916657310290248
 20
410.2005667937875728
 30
0.0
 40
2.8649951832656479
 50
91.746835948703847
 51
94.3516446215304114
  0
ARC
  5
339FA
  8
0
 10
7332.9169398247167919
 20
412.4966642304844981
 30
0.0
 40
0.5622592928208466
 50
94.3516446215304114
 51
98.9037874064461562
  0
ARC
  5
339FB
  8
0
 10
7332.848340929745973
 20
412.9345382412702747
 30
0.0
 40
0.1190443813920571
 50
98.9037874064461562
 51
107.9810675770883961
  0
ARC
  5
339FC
  8
0
 10
7332.8143612063913679
 20
413.0392347775522239
 30
0.0
 40
0.0089717403376792
 50
107.9810675770883961
 51
132.0880022432127134
  0
ARC
  5
339FD
  8
0
 10
7332.8097413999093988
 20
413.0443497714729233
 30
0.0
 40
0.0020792970301543
 50
132.0880022432127134
 51
183.1511626036507039
  0
ARC
  5
339FE
  8
0
 10
7333.4240655722987867
 20
413.1691081597675748
 30
0.0
 40
0.6289217355996161
 50
191.4522055783016867
 51
196.2507067179545004
  0
ARC
  5
339FF
  8
0
 10
7352.4614638798302622
 20
-2039.9844368656799816
 30
0.0
 40
2453.1372873437248927
 50
90.4504718104082457
 51
90.4545814819434213
  0
ARC
  5
33A00
  8
0
 10
7333.1724568554891448
 20
401.9926384501371786
 30
0.0
 40
11.0843663573453508
 50
90.8986349526624622
 51
91.8836369300056361
  0
ARC
  5
33A01
  8
0
 10
7332.8909884255617726
 20
410.5511575420779877
 30
0.0
 40
2.5212201175477178
 50
91.8836369300056361
 51
93.9648512809001488
  0
ARC
  5
33A02
  8
0
 10
7332.7648114158737371
 20
412.3716209960376773
 30
0.0
 40
0.6963892144290611
 50
93.9648512809001488
 51
97.1987529592727952
  0
ARC
  5
33A03
  8
0
 10
7332.7086978440793246
 20
412.8158834164715927
 30
0.0
 40
0.2485970403689372
 50
97.1987529592727952
 51
101.7327522377765945
  0
ARC
  5
33A04
  8
0
 10
7332.6725915437646108
 20
412.9897336244249004
 30
0.0
 40
0.0710370231135343
 50
101.7327522377765945
 51
109.9463115050065056
  0
ARC
  5
33A05
  8
0
 10
7332.6543352061617043
 20
413.0400391181756845
 30
0.0
 40
0.0175212631526152
 50
109.9463115050065056
 51
126.1067670218484977
  0
ARC
  5
33A06
  8
0
 10
7332.6462503427246702
 20
413.0511234831874958
 30
0.0
 40
0.0038016361710751
 50
126.1067670218045009
 51
159.7297253222862139
  0
ARC
  5
33A07
  8
0
 10
7332.653015222374961
 20
413.0524801521207223
 30
0.0
 40
0.0104599052654023
 50
190.0503968835039075
 51
226.3174077699503073
  0
ARC
  5
33A08
  8
0
 10
7332.6816057082660336
 20
413.1000736970083835
 30
0.0
 40
0.0657654264443983
 50
237.0038079944851859
 51
263.555076852821685
  0
ARC
  5
33A09
  8
0
 10
7332.7909411597065628
 20
413.7035707714073851
 30
0.0
 40
0.6789544306393756
 50
260.101244767443518
 51
265.2830386076486207
  0
ARC
  5
33A0A
  8
0
 10
7332.9199150826170808
 20
415.0027856673343081
 30
0.0
 40
1.9844936055070761
 50
264.6565655059396818
 51
266.9055218390196274
  0
ARC
  5
33A0B
  8
0
 10
7333.5946292186481514
 20
386.5649508643671766
 30
0.0
 40
26.5113307087567485
 50
90.9078691208317338
 51
91.1928821812425241
  0
ARC
  5
33A0C
  8
0
 10
7333.1942610938840517
 20
405.7924065353982996
 30
0.0
 40
7.2797071107141189
 50
91.1928821812425241
 51
92.6020675197770942
  0
ARC
  5
33A0D
  8
0
 10
7332.93258677429003
 20
411.5503375132385031
 30
0.0
 40
1.5158331881593201
 50
92.6020675197770942
 51
96.9419164570077925
  0
ARC
  5
33A0E
  8
0
 10
7332.7762578310166646
 20
412.8342938247484994
 30
0.0
 40
0.2223949219977225
 50
96.9419164570077925
 51
104.9767672187098952
  0
ARC
  5
33A0F
  8
0
 10
7332.7238569708306386
 20
413.0301741717636901
 30
0.0
 40
0.0196266786874401
 50
104.9767672187098952
 51
133.0818340921306913
  0
ARC
  5
33A10
  8
0
 10
7333.1308773083082997
 20
416.6700184264886957
 30
0.0
 40
3.5963941010399609
 50
269.7374117305560048
 51
270.6960520359024258
  0
ARC
  5
33A11
  8
0
 10
7333.1714722351898672
 20
405.5468336926061284
 30
0.0
 40
7.527044812656472
 50
90.434475547881334
 51
91.1168093018060858
  0
ARC
  5
33A12
  8
0
 10
7333.1414801197252018
 20
407.0853273237664212
 30
0.0
 40
5.9882588690921388
 50
91.1168093018060858
 51
92.2770763101663505
  0
ARC
  5
33A13
  8
0
 10
7333.0338883234408058
 20
409.7911259402018231
 30
0.0
 40
3.2803219888582369
 50
92.2770763101663505
 51
94.2473553460164055
  0
ARC
  5
33A14
  8
0
 10
7332.8690351248378647
 20
412.0108800303003136
 30
0.0
 40
1.054454787608627
 50
94.2473553460164055
 51
97.7499634941291617
  0
ARC
  5
33A15
  8
0
 10
7332.7584013015430173
 20
412.8238058670481792
 30
0.0
 40
0.234035224879151
 50
97.7499634941291617
 51
103.6253828967439006
  0
ARC
  5
33A16
  8
0
 10
7332.7152290618932966
 20
413.0019132401113211
 30
0.0
 40
0.0507701747036466
 50
103.6253828967439006
 51
116.4570114703166013
  0
ARC
  5
33A17
  8
0
 10
7332.69479180090093
 20
413.0429811792203054
 30
0.0
 40
0.004897990762934
 50
116.4570114703632981
 51
149.2430087999047998
  0
ARC
  5
33A18
  8
0
 10
7332.6924241612723563
 20
413.0444803845585966
 30
0.0
 40
0.0020981161141892
 50
151.3606164311171938
 51
228.4811690105998991
  0
ARC
  5
33A19
  8
0
 10
7332.7057354084854524
 20
413.062253477422928
 30
0.0
 40
0.0242969316273892
 50
232.7641275218059036
 51
257.1131495436032992
  0
ARC
  5
33A1A
  8
0
 10
7332.8412865226273425
 20
413.7428211525302117
 30
0.0
 40
0.7182230108309393
 50
258.6807238210216155
 51
267.6493799971959788
  0
ARC
  5
33A1B
  8
0
 10
7332.7056978072841957
 20
413.0486006289388001
 30
0.0
 40
0.0035797698688581
 50
131.9419545354982972
 51
176.2450793417839918
  0
ARC
  5
33A1C
  8
0
 10
7332.4950297479263099
 20
413.04667207356772
 30
0.0
 40
0.2071072694182625
 50
359.4016025188940944
 51
0.5983974811318703
  0
ARC
  5
33A1D
  8
0
 10
7332.7054413916594058
 20
413.0450311852483196
 30
0.0
 40
0.0033565242601102
 50
188.9486030703779988
 51
240.4050453255065918
  0
ARC
  5
33A1E
  8
0
 10
7332.7381915676696735
 20
413.1179597590158892
 30
0.0
 40
0.0832868402628956
 50
245.5987277376518989
 51
260.0865269767779182
  0
ARC
  5
33A1F
  8
0
 10
7332.8573456595486277
 20
413.8471623770694805
 30
0.0
 40
0.8221558421193702
 50
260.6555579953051165
 51
266.8086986409032875
  0
LINE
  5
33A20
  8
0
 10
7332.7104511202978756
 20
413.0445090832678261
 30
0.0
 11
7332.7021257220985717
 21
413.0445090832678261
 31
0.0
  0
ARC
  5
33A21
  8
0
 10
7333.0766763682768214
 20
413.5166223593881227
 30
0.0
 40
0.5995462131807723
 50
234.6949770897431904
 51
249.0150267371199959
  0
LINE
  5
33A22
  8
0
 10
7334.1784004378987447
 20
411.8685953745676898
 30
0.0
 11
7334.1784004378987447
 21
404.8853336277676931
 31
0.0
  0
ARC
  5
33A23
  8
0
 10
7333.4879065167206136
 20
413.7985648367949238
 30
0.0
 40
1.0350992127702621
 50
81.6983940838617002
 51
89.1970398682456533
  0
ARC
  5
33A24
  8
0
 10
7333.6060474685782538
 20
414.6122026462642793
 30
0.0
 40
0.2129300255766531
 50
68.8483696914593821
 51
81.5441587339267642
  0
ARC
  5
33A25
  8
0
 10
7333.6666170537782818
 20
414.7687522238866222
 30
0.0
 40
0.0450716182653305
 50
18.0071673524641191
 51
68.8483696914593821
  0
ARC
  5
33A26
  8
0
 10
7340.7118057982579558
 20
416.2428037257117808
 30
0.0
 40
7.152936342679955
 50
191.7784876647880878
 51
194.870702240142009
  0
ARC
  5
33A27
  8
0
 10
5709.7357799458568479
 20
-36.8767883105236365
 30
0.0
 40
1685.5968248893350392
 50
15.5029665062029292
 51
15.5291991036225401
  0
ARC
  5
33A28
  8
0
 10
7333.9360735149548418
 20
413.6474569239393873
 30
0.0
 40
0.0706520497089689
 50
330.5024647141220271
 51
13.0976829198382703
  0
ARC
  5
33A29
  8
0
 10
7333.9060252071758441
 20
413.6692875972664183
 30
0.0
 40
0.1076367126785117
 50
297.9451197527815793
 51
328.2632542718823174
  0
ARC
  5
33A2A
  8
0
 10
7333.4807570000348278
 20
413.7049954102632796
 30
0.0
 40
1.034188577329308
 50
81.4360334454006534
 51
87.8470480068482544
  0
ARC
  5
33A2B
  8
0
 10
7333.5866860511841878
 20
414.4185640650903224
 30
0.0
 40
0.3128054403430718
 50
72.9164365665680236
 51
81.1590781867058837
  0
ARC
  5
33A2C
  8
0
 10
7333.6541050760970393
 20
414.637936934789991
 30
0.0
 40
0.0833064623920137
 50
63.2022629411997983
 51
72.9164365665680236
  0
ARC
  5
33A2D
  8
0
 10
7333.678227246611641
 20
414.6856954026159201
 30
0.0
 40
0.0298017863400684
 50
32.2722949485338333
 51
63.2022629411997983
  0
ARC
  5
33A2E
  8
0
 10
7404.1743513555393292
 20
433.5876496888827774
 30
0.0
 40
72.957754904223421
 50
195.0025898114504059
 51
195.8446655857360952
  0
ARC
  5
33A2F
  8
0
 10
7333.8916174801443049
 20
413.6333092267308871
 30
0.0
 40
0.1029859788042289
 50
357.457243014558685
 51
19.6696788193186407
  0
ARC
  5
33A30
  8
0
 10
7333.9239681951712555
 20
413.6405741214697969
 30
0.0
 40
0.0715196899293097
 50
295.503623434434985
 51
350.4758707262574831
  0
ARC
  5
33A31
  8
0
 10
7333.0003051713347304
 20
413.7866536182482946
 30
0.0
 40
0.7610777070617152
 50
332.1806998006824188
 51
352.3752434524679984
  0
ARC
  5
33A32
  8
0
 10
7333.2124253938709444
 20
413.6828588475871129
 30
0.0
 40
0.5250834023723494
 50
296.2078544974156102
 51
331.3956108768502986
  0
ARC
  5
33A33
  8
0
 10
7333.1544538122479935
 20
413.8365609080823901
 30
0.0
 40
0.6887692743633155
 50
271.6733405088660902
 51
294.8878057812012798
  0
ARC
  5
33A34
  8
0
 10
7333.2845487271670208
 20
413.5916424671121945
 30
0.0
 40
0.520744597729948
 50
335.285758509741413
 51
346.5469509445740073
  0
ARC
  5
33A35
  8
0
 10
7333.4194904197538563
 20
413.5593627612681757
 30
0.0
 40
0.3819957605902173
 50
346.5469509445740073
 51
355.8159411813218753
  0
ARC
  5
33A36
  8
0
 10
7333.6958186782467237
 20
413.5391477771851214
 30
0.0
 40
0.1049290682159242
 50
355.8159411813218753
 51
6.2938427056778981
  0
ARC
  5
33A37
  8
0
 10
7333.7853113346709506
 20
413.5490181239985077
 30
0.0
 40
0.0148937457022001
 50
6.2938427056746589
 51
28.8008154687939104
  0
ARC
  5
33A38
  8
0
 10
7333.7969210797537016
 20
413.5554008505466754
 30
0.0
 40
0.0016451465659825
 50
28.8008154687853484
 51
134.2377161366891016
  0
ARC
  5
33A39
  8
0
 10
7333.855713127173658
 20
413.5099089816931723
 30
0.0
 40
0.0759665327406244
 50
142.0948193953933867
 51
159.9368106761436081
  0
ARC
  5
33A3A
  8
0
 10
7333.0938257146481192
 20
413.8024135069858858
 30
0.0
 40
0.740152154968174
 50
324.4489369946837769
 51
338.9007205947177113
  0
ARC
  5
33A3B
  8
0
 10
7333.1887705334484053
 20
413.7440279704005093
 30
0.0
 40
0.6290054175059062
 50
304.1765167848183182
 51
323.7474150668006132
  0
ARC
  5
33A3C
  8
0
 10
7333.1790616044336275
 20
413.7589473388617876
 30
0.0
 40
0.6468024032382762
 50
286.5230361735361839
 51
304.1456395184682151
  0
ARC
  5
33A3D
  8
0
 10
7333.1570888991773245
 20
414.0502551364886017
 30
0.0
 40
0.9343746796948206
 50
271.0717978119224085
 51
282.7317522972322195
  0
ARC
  5
33A3E
  8
0
 10
7335.2313154031126032
 20
412.9860206845867197
 30
0.0
 40
1.5239156437945021
 50
165.2534881209695072
 51
172.1700991295147958
  0
ARC
  5
33A3F
  8
0
 10
7336.0334087022856693
 20
412.8757210973814153
 30
0.0
 40
2.3335573296744081
 50
172.1700991295147958
 51
175.7008250004737988
  0
ARC
  5
33A40
  8
0
 10
7333.2814109837363503
 20
413.5736075399179867
 30
0.0
 40
0.6387212334996967
 50
312.2323279332089214
 51
354.1217995997084813
  0
ARC
  5
33A41
  8
0
 10
7333.3890917939388601
 20
413.5625212163874949
 30
0.0
 40
0.5304712290860369
 50
354.1217995997084813
 51
2.1363477728141289
  0
ARC
  5
33A42
  8
0
 10
7333.8881361973253661
 20
413.5811373649715961
 30
0.0
 40
0.0310797218113881
 50
2.1363477728108751
 51
60.2544540866582707
  0
ARC
  5
33A43
  8
0
 10
7349.1048972310263707
 20
441.7295117114321101
 30
0.0
 40
31.9670576412486795
 50
241.3406013745021141
 51
241.6047382038246099
  0
ARC
  5
33A44
  8
0
 10
7333.7257063952201861
 20
413.5765356662309955
 30
0.0
 40
0.1129084027240378
 50
64.9915576691547443
 51
75.1447289789289243
  0
ARC
  5
33A45
  8
0
 10
7322.6381035992171746
 20
411.7630206800137103
 30
0.0
 40
11.5407797457971206
 50
0.524147321611392
 51
4.7104780510958344
  0
ARC
  5
33A46
  8
0
 10
7330.375635616078398
 20
412.3875640483419147
 30
0.0
 40
3.7781164381922641
 50
4.907294692771818
 51
12.6243806048164604
  0
ARC
  5
33A47
  8
0
 10
7324.8692397536451608
 20
411.154278351533776
 30
0.0
 40
9.4209339085494008
 50
12.6243806048164604
 51
14.4842999757583506
  0
ARC
  5
33A48
  8
0
 10
7333.8438734065293829
 20
413.4726529309203897
 30
0.0
 40
0.1516885296735289
 50
14.4842999757583506
 51
36.6110341812200701
  0
ARC
  5
33A49
  8
0
 10
7333.8546314538880324
 20
413.480645776977326
 30
0.0
 40
0.1382862473645663
 50
36.6110341812200701
 51
47.319356748792103
  0
ARC
  5
33A4A
  8
0
 10
7333.9216668154831495
 20
413.55334056417189
 30
0.0
 40
0.0394011029319828
 50
47.319356748792103
 51
68.242271278197336
  0
ARC
  5
33A4B
  8
0
 10
7333.1779898963359301
 20
409.3542715624366792
 30
0.0
 40
4.4077815049264517
 50
86.0454591201650771
 51
89.9658511992250851
  0
ARC
  5
33A4C
  8
0
 10
7333.3394703323829162
 20
411.4463060295748278
 30
0.0
 40
2.3096527448667961
 50
78.5286039050070599
 51
86.4626899788271857
  0
ARC
  5
33A4D
  8
0
 10
7333.6743148216910413
 20
413.0743203943640083
 30
0.0
 40
0.6475807748048453
 50
68.9225508785801537
 51
78.9159836656054949
  0
ARC
  5
33A4E
  8
0
 10
7333.864692465990629
 20
413.5684453773172891
 30
0.0
 40
0.1180497318273229
 50
58.5097746844035314
 51
68.8926997805302364
  0
ARC
  5
33A4F
  8
0
 10
7333.9214527493186324
 20
413.6611052207562125
 30
0.0
 40
0.0093870595354178
 50
19.171906300589761
 51
58.5097746844052367
  0
ARC
  5
33A50
  8
0
 10
7333.7647442845072874
 20
413.6156966521281788
 30
0.0
 40
0.1725295716917552
 50
10.7536434540962595
 51
16.3235312247515516
  0
ARC
  5
33A51
  8
0
 10
7333.9384536897960061
 20
413.6488986117590798
 30
0.0
 40
0.0043292338225053
 50
193.4949562934793903
 51
238.9288621060825903
  0
ARC
  5
33A52
  8
0
 10
7333.8615055661230144
 20
413.5302726748130908
 30
0.0
 40
0.1370702715723688
 50
49.7463872690793707
 51
56.9701015583201382
  0
ARC
  5
33A53
  8
0
 10
7333.9144292025175673
 20
413.5908225215384277
 30
0.0
 40
0.0566754770013564
 50
27.9068454211893595
 51
51.0256012498292932
  0
ARC
  5
33A54
  8
0
 10
7333.9451937455905863
 20
413.6069408343445275
 30
0.0
 40
0.0219451576517735
 50
332.4891883248583895
 51
28.3114946224038491
  0
ARC
  5
33A55
  8
0
 10
7333.9310627499644397
 20
413.6170739531315235
 30
0.0
 40
0.0392361137060993
 50
296.6921297820102268
 51
328.8945810260948974
  0
ARC
  5
33A56
  8
0
 10
7333.5208827048263629
 20
413.4195978465219241
 30
0.0
 40
0.4018582747134571
 50
31.5603654530219515
 51
46.2352520692245506
  0
LINE
  5
33A57
  8
0
 10
7333.9029162044989789
 20
413.6084778202676944
 30
0.0
 11
7333.9362721235929712
 21
413.5899347151702727
 31
0.0
  0
ARC
  5
33A58
  8
0
 10
7333.3395455907948417
 20
413.0133401547813037
 30
0.0
 40
0.1580650940163329
 50
317.3640513735866193
 51
353.3459335029759814
  0
ARC
  5
33A59
  8
0
 10
7333.4546925655122322
 20
412.9070107249821717
 30
0.0
 40
0.0013534549970138
 50
327.1578586463979263
 51
62.7624366521332178
  0
ARC
  5
33A5A
  8
0
 10
7333.4346680901153377
 20
412.8654998984757185
 30
0.0
 40
0.0474412799761574
 50
64.2053582411863317
 51
83.2384994071985744
  0
ARC
  5
33A5B
  8
0
 10
7333.3678958929940563
 20
412.4510597477959095
 30
0.0
 40
0.4671888341521559
 50
81.0902164756671056
 51
85.3439003938510155
  0
ARC
  5
33A5C
  8
0
 10
7333.2617911427569197
 20
411.1406916952288952
 30
0.0
 40
1.7818456533462019
 50
85.3636548365440433
 51
88.0857491889219375
  0
ARC
  5
33A5D
  8
0
 10
7333.0458494706454076
 20
401.078073771676884
 30
0.0
 40
11.84667218925558
 50
88.6676229658831829
 51
89.3774540985889416
  0
ARC
  5
33A5E
  8
0
 10
7333.1313188417288984
 20
420.390701287138711
 30
0.0
 40
7.5009373069650689
 50
270.3303495934779903
 51
271.2712951732036117
  0
ARC
  5
33A5F
  8
0
 10
7333.2680160337267807
 20
414.4114530602337823
 30
0.0
 40
1.5201333202836509
 50
271.1203354906658092
 51
276.3385331804843759
  0
ARC
  5
33A60
  8
0
 10
7333.4242515490559526
 20
412.9934794037454253
 30
0.0
 40
0.0935875903390463
 50
277.1147007202133068
 51
287.5390282890575122
  0
ARC
  5
33A61
  8
0
 10
7333.4506502325539259
 20
412.9110532874379942
 30
0.0
 40
0.0070457445609071
 50
284.8389829835966225
 51
317.3172936513881268
  0
ARC
  5
33A62
  8
0
 10
7333.1693777915697865
 20
410.5311402498560938
 30
0.0
 40
2.3838356403028009
 50
88.372727980134286
 51
89.8752846495966793
  0
ARC
  5
33A63
  8
0
 10
7333.1756600480002817
 20
411.9118717732091
 30
0.0
 40
0.9992771926006293
 50
88.2859576747118524
 51
90.0626914430946641
  0
ARC
  5
33A64
  8
0
 10
7333.1749663880164007
 20
411.9546302697327178
 30
0.0
 40
0.9561598805535882
 50
88.3443891833516801
 51
90.0239524041901262
  0
ARC
  5
33A65
  8
0
 10
7333.1748070103003556
 20
412.4911585064116935
 30
0.0
 40
0.4174818247980945
 50
88.6290607356942388
 51
90.0329850468038444
  0
ARC
  5
33A66
  8
0
 10
7333.1746246876764417
 20
413.3384068655122974
 30
0.0
 40
0.4331107443144114
 50
269.9923245036105186
 51
271.3455854018635023
  0
ARC
  5
33A67
  8
0
 10
7333.1755331495705832
 20
413.8195050734167921
 30
0.0
 40
0.9163592667061703
 50
269.9395702267988213
 51
271.6920881863791237
  0
ARC
  5
33A68
  8
0
 10
7333.1752684163393496
 20
413.9292389828066234
 30
0.0
 40
1.026451207177735
 50
269.9608288457480967
 51
271.6905221851055217
  0
ARC
  5
33A69
  8
0
 10
7333.1759987574323532
 20
414.8497749276170907
 30
0.0
 40
1.950809313008113
 50
269.95793912586538
 51
271.794048244817418
  0
ARC
  5
33A6A
  8
0
 10
7333.1764671455002826
 20
414.916570506308517
 30
0.0
 40
2.0179602813986341
 50
270.0578230193190166
 51
271.8049376710803813
  0
ARC
  5
33A6B
  8
0
 10
7333.1772051402276702
 20
415.7460691659387066
 30
0.0
 40
2.8509227835562978
 50
270.0260970074526767
 51
271.8366635949403758
  0
ARC
  5
33A6C
  8
0
 10
7333.174724535399946
 20
416.1417965039747742
 30
0.0
 40
3.247010396964976
 50
270.0666855846354224
 51
270.7793296269973098
  0
ARC
  5
33A6D
  8
0
 10
7333.175181529695692
 20
417.0031879832284858
 30
0.0
 40
4.1118651120127501
 50
270.0462916246946179
 51
270.8150561415035895
  0
ARC
  5
33A6E
  8
0
 10
7333.1914711368990538
 20
416.125668327330402
 30
0.0
 40
3.2341917579205619
 50
271.0171585206459781
 51
271.9244214450101254
  0
ARC
  5
33A6F
  8
0
 10
7333.1849905021999803
 20
415.5215139554812822
 30
0.0
 40
2.626639326717223
 50
271.0713048827976763
 51
271.8880903971592033
  0
ARC
  5
33A70
  8
0
 10
7333.2440380129473851
 20
413.199452494808213
 30
0.0
 40
0.2992917968568816
 50
269.9719921723441871
 51
282.0261056553467256
  0
ARC
  5
33A71
  8
0
 10
7333.244038012891906
 20
412.6144838877856955
 30
0.0
 40
0.2992917973824236
 50
77.9738943552570447
 51
90.0280078170253404
  0
ARC
  5
33A72
  8
0
 10
7333.233890061317652
 20
412.8828135606211163
 30
0.0
 40
0.0261642097132502
 50
68.7998957312226054
 51
86.8289181197385034
  0
ARC
  5
33A73
  8
0
 10
7333.2028358440484226
 20
412.5932078755542989
 30
0.0
 40
0.3173982960604549
 50
84.1226150543528064
 51
88.2788906263443067
  0
ARC
  5
33A74
  8
0
 10
7333.2307177453030818
 20
412.9450343150343201
 30
0.0
 40
0.040334722050237
 50
273.6490655926770046
 51
288.2538985621358165
  0
ARC
  5
33A75
  8
0
 10
7333.2001638499914407
 20
413.2665379567184232
 30
0.0
 40
0.3632696388502854
 50
271.925348455133701
 51
275.2311910936419963
  0
ARC
  5
33A76
  8
0
 10
7333.2086525202912526
 20
412.7681237833193109
 30
0.0
 40
0.1420303684591107
 50
78.3077586140666142
 51
89.6941438325595044
  0
ARC
  5
33A77
  8
0
 10
7333.2086525202830671
 20
413.045812599889075
 30
0.0
 40
0.1420303685479922
 50
270.3058561710361118
 51
281.6922413823672855
  0
ARC
  5
33A78
  8
0
 10
7333.1903616079698622
 20
412.8471556736593016
 30
0.0
 40
0.0611391245062787
 50
79.1760335483973847
 51
88.8258687596934351
  0
ARC
  5
33A79
  8
0
 10
7333.1903616088811759
 20
412.9667807001907818
 30
0.0
 40
0.0611391152200281
 50
271.1741305643993769
 51
280.8239672463516854
  0
ARC
  5
33A7A
  8
0
 10
7333.1772051402276702
 20
410.0678672171878816
 30
0.0
 40
2.8509227835494251
 50
88.16333640505961
 51
89.9739029925472806
  0
ARC
  5
33A7B
  8
0
 10
7333.1764671433447802
 20
410.8973658919416039
 30
0.0
 40
2.0179602663052449
 50
88.1950622544171949
 51
89.9421769204415682
  0
ARC
  5
33A7C
  8
0
 10
7333.1750184746988452
 20
409.7119528132059827
 30
0.0
 40
3.207197157303797
 50
89.2162470339721239
 51
89.9377377543939076
  0
ARC
  5
33A7D
  8
0
 10
7333.1747654411992698
 20
408.7553931945981276
 30
0.0
 40
4.1672206519116761
 50
89.1900499907820148
 51
89.9485596635784077
  0
ARC
  5
33A7E
  8
0
 10
7333.1875917642555578
 20
409.5371772798347934
 30
0.0
 40
3.3853278029610321
 50
88.0958310540570864
 51
88.9625889522060049
  0
ARC
  5
33A7F
  8
0
 10
7333.1878556097726687
 20
410.4033382747173277
 30
0.0
 40
2.5156894237645591
 50
88.0938979220534861
 51
88.9467069290007402
  0
ARC
  5
33A80
  8
0
 10
7333.2204198889867257
 20
412.1060118662558125
 30
0.0
 40
0.8085061897496167
 50
84.9290151519608258
 51
88.1269671290829422
  0
ARC
  5
33A81
  8
0
 10
7333.2393520089653975
 20
411.7775842275852938
 30
0.0
 40
1.140072219095271
 50
84.8677850549841537
 51
88.1881973811336337
  0
ARC
  5
33A82
  8
0
 10
7333.2868262656293155
 20
412.8137257029575267
 30
0.0
 40
0.0976292940641534
 50
76.8663599441569829
 51
84.7139557714974956
  0
ARC
  5
33A83
  8
0
 10
7333.2857157417620328
 20
413.0074415253446887
 30
0.0
 40
0.1049326190582147
 50
275.5260976797426906
 51
282.7130463215710279
  0
ARC
  5
33A84
  8
0
 10
7333.3076818293457109
 20
412.912007408142415
 30
0.0
 40
0.0070169964166209
 50
279.2361726138378799
 51
311.2199402177758998
  0
ARC
  5
33A85
  8
0
 10
7333.3080807306596398
 20
412.9026765199915872
 30
0.0
 40
0.0061948403853939
 50
46.9989066317796969
 51
81.3736199951691646
  0
ARC
  5
33A86
  8
0
 10
7333.2463666032381298
 20
413.2802709215170012
 30
0.0
 40
0.3804209195320995
 50
270.0721615058006932
 51
276.8718562131601857
  0
ARC
  5
33A87
  8
0
 10
7333.2393520083805925
 20
414.0363521651445922
 30
0.0
 40
1.1400722287191991
 50
271.8118026328909878
 51
275.1322149309942233
  0
ARC
  5
33A88
  8
0
 10
7333.2147639544000413
 20
414.6476203196154984
 30
0.0
 40
1.752234909305725
 50
272.0796568995287998
 51
273.1440476533572905
  0
ARC
  5
33A89
  8
0
 10
7333.2344069263235724
 20
414.9605467421615117
 30
0.0
 40
2.0682779666131839
 50
272.0085765631205845
 51
273.2387617399272131
  0
ARC
  5
33A8A
  8
0
 10
7333.4238759459931316
 20
412.8984314255943104
 30
0.0
 40
0.0122414266626787
 50
45.7974796954141112
 51
82.0188308213002841
  0
ARC
  5
33A8B
  8
0
 10
7333.4238759464242321
 20
412.9155049566493858
 30
0.0
 40
0.0122414257357521
 50
277.9811677598038955
 51
314.2025217235055834
  0
ARC
  5
33A8C
  8
0
 10
7333.3424749371934013
 20
412.844285629254216
 30
0.0
 40
0.0684436881647288
 50
66.8264002325007738
 51
87.6566938084331611
  0
ARC
  5
33A8D
  8
0
 10
7333.3424749371415601
 20
412.9696507540936068
 30
0.0
 40
0.0684436883948718
 50
272.3433062269792799
 51
293.1735997321217724
  0
ARC
  5
33A8E
  8
0
 10
7333.3291028749054021
 20
412.7064324780354241
 30
0.0
 40
0.2075133851114879
 50
79.6667320699386181
 51
84.1124826864976853
  0
ARC
  5
33A8F
  8
0
 10
7333.3689902631422228
 20
412.9006742647239889
 30
0.0
 40
0.0090931622287632
 50
45.9249520212658595
 51
81.0739132740753092
  0
ARC
  5
33A90
  8
0
 10
7333.3689902631849691
 20
412.9132621181638001
 30
0.0
 40
0.0090931619946446
 50
278.926086742117775
 51
314.0750490436774953
  0
LINE
  5
33A91
  8
0
 10
7333.3958975830000782
 20
412.9149970457098107
 30
0.0
 11
7333.3623938782002369
 21
412.9176884762097757
 31
0.0
  0
LINE
  5
33A92
  8
0
 10
7333.3623938782002369
 20
412.9176884762097757
 30
0.0
 11
7333.322003356109235
 21
412.9152378916102748
 31
0.0
  0
LINE
  5
33A93
  8
0
 10
7333.322003356109235
 20
412.9152378916102748
 30
0.0
 11
7333.3464517233987863
 21
412.9132649992097868
 31
0.0
  0
LINE
  5
33A94
  8
0
 10
7333.3464517233987863
 20
412.9132649992097868
 30
0.0
 11
7333.3958975830000782
 21
412.9149970457098107
 31
0.0
  0
LINE
  5
33A95
  8
0
 10
7333.3503887312999723
 20
412.9128512691099218
 30
0.0
 11
7333.3998345909012642
 21
412.9145833156097751
 31
0.0
  0
LINE
  5
33A96
  8
0
 10
7333.3998345909012642
 20
412.9145833156097751
 30
0.0
 11
7333.4214997485996719
 21
412.9114771908098191
 31
0.0
  0
LINE
  5
33A97
  8
0
 10
7333.4214997485996719
 20
412.9114771908098191
 30
0.0
 11
7333.3663252694013863
 21
412.9105802146098085
 31
0.0
  0
LINE
  5
33A98
  8
0
 10
7333.3663252694013863
 20
412.9105802146098085
 30
0.0
 11
7333.3663252694013863
 21
412.9134095125098156
 31
0.0
  0
LINE
  5
33A99
  8
0
 10
7333.3464517233987863
 20
412.9167212295097897
 30
0.0
 11
7333.3464517233987863
 21
412.9132649992097868
 31
0.0
  0
LINE
  5
33A9A
  8
0
 10
7333.425575639100316
 20
412.9105542788097978
 30
0.0
 11
7333.3704011599083969
 21
412.9096573026100145
 31
0.0
  0
LINE
  5
33A9B
  8
0
 10
7333.3753154667001581
 20
412.9097371949097806
 30
0.0
 11
7333.3753154667001581
 21
412.9072070588637757
 31
0.0
  0
LINE
  5
33A9C
  8
0
 10
7333.3753154667001581
 20
412.9072070588637757
 30
0.0
 11
7333.432410627500758
 21
412.9072070588097745
 31
0.0
  0
LINE
  5
33A9D
  8
0
 10
7333.370401159901121
 20
412.9042790805098093
 30
0.0
 11
7333.425575639100316
 21
412.9033821043099124
 31
0.0
  0
LINE
  5
33A9E
  8
0
 10
7333.425575639100316
 20
412.9033821043099124
 30
0.0
 11
7333.425575639100316
 21
412.906729324309822
 31
0.0
  0
LINE
  5
33A9F
  8
0
 10
7333.432410627500758
 20
412.906729324309822
 30
0.0
 11
7333.3753154667001581
 21
412.906729324309822
 31
0.0
  0
LINE
  5
33AA0
  8
0
 10
7333.4214997485996719
 20
412.9024591923097773
 30
0.0
 11
7333.3663252694013863
 21
412.9033561685097879
 31
0.0
  0
LINE
  5
33AA1
  8
0
 10
7333.3663252694013863
 20
412.9033561685097879
 30
0.0
 11
7333.3503887314636813
 21
412.9010851140041041
 31
0.0
  0
LINE
  5
33AA2
  8
0
 10
7333.3503887314636813
 20
412.9010851140041041
 30
0.0
 11
7333.3998345909012642
 21
412.8993530675098214
 31
0.0
  0
LINE
  5
33AA3
  8
0
 10
7333.3998345909012642
 20
412.8993530675098214
 30
0.0
 11
7333.4214997485996719
 21
412.9024591923097773
 31
0.0
  0
LINE
  5
33AA4
  8
0
 10
7333.3998345909012642
 20
412.8993530675098214
 30
0.0
 11
7333.3998345909012642
 21
412.9028114046097926
 31
0.0
  0
LINE
  5
33AA5
  8
0
 10
7333.3958975830000782
 20
412.8989393374097858
 30
0.0
 11
7333.3623938782002369
 21
412.8962479069098208
 31
0.0
  0
LINE
  5
33AA6
  8
0
 10
7333.3623938782002369
 20
412.8962479069098208
 30
0.0
 11
7333.322003356109235
 21
412.898698491509208
 31
0.0
  0
LINE
  5
33AA7
  8
0
 10
7333.322003356109235
 20
412.898698491509208
 30
0.0
 11
7333.3464517233987863
 21
412.9006713839098097
 31
0.0
  0
LINE
  5
33AA8
  8
0
 10
7333.3464517233987863
 20
412.9006713839098097
 30
0.0
 11
7333.3958975830000782
 21
412.8989393374097858
 31
0.0
  0
LINE
  5
33AA9
  8
0
 10
7333.3623938782002369
 20
412.8962479069098208
 30
0.0
 11
7333.3623938782002369
 21
412.9001129437098143
 31
0.0
  0
LINE
  5
33AAA
  8
0
 10
7333.3512583382862431
 20
412.8955722883969202
 30
0.0
 11
7333.3108678161715943
 21
412.8980228730176236
 31
0.0
  0
LINE
  5
33AAB
  8
0
 10
7333.3068981960013843
 20
412.8978066966097913
 30
0.0
 11
7333.3068981960013843
 21
412.8935395426098012
 31
0.0
  0
LINE
  5
33AAC
  8
0
 10
7333.3068981960013843
 20
412.8935395426098012
 30
0.0
 11
7333.278350615760246
 21
412.8965395351036136
 31
0.0
  0
LINE
  5
33AAD
  8
0
 10
7333.3000790983996922
 20
412.8933006754098187
 30
0.0
 11
7333.2715315180830657
 21
412.8963006679010732
 31
0.0
  0
LINE
  5
33AAE
  8
0
 10
7333.2753972747996158
 20
412.9009593133025078
 30
0.0
 11
7333.2753972747996158
 21
412.8968498942098222
 31
0.0
  0
LINE
  5
33AAF
  8
0
 10
7333.2753972747996158
 20
412.8968498942098222
 30
0.0
 11
7333.2468457264722019
 21
412.8998503037021806
 31
0.0
  0
LINE
  5
33AB0
  8
0
 10
7333.2400266287013437
 20
412.8996114365098151
 30
0.0
 11
7333.2685781770524045
 21
412.8966110269336127
 31
0.0
  0
LINE
  5
33AB1
  8
0
 10
7333.2488839676998396
 20
412.8956518536709837
 30
0.0
 11
7333.2488839676998396
 21
412.8919862010445172
 31
0.0
  0
LINE
  5
33AB2
  8
0
 10
7333.2488839676998396
 20
412.8919862010445172
 30
0.0
 11
7333.2341000106061983
 21
412.8953337619603872
 31
0.0
  0
LINE
  5
33AB3
  8
0
 10
7333.3694087848998606
 20
412.9072070588097745
 30
0.0
 11
7333.3123056881004231
 21
412.9072070588148904
 31
0.0
  0
LINE
  5
33AB4
  8
0
 10
7333.3123056881004231
 20
412.9072070588148904
 30
0.0
 11
7333.3123056881004231
 21
412.9115172524564059
 31
0.0
  0
LINE
  5
33AB5
  8
0
 10
7333.3694087848998606
 20
412.906729324309822
 30
0.0
 11
7333.3123056881004231
 21
412.906729324309822
 31
0.0
  0
LINE
  5
33AB6
  8
0
 10
7333.3452733947988236
 20
412.906729324309822
 30
0.0
 11
7333.3452733947988236
 21
412.9012642999098261
 31
0.0
  0
LINE
  5
33AB7
  8
0
 10
7333.3452733947988236
 20
412.9012642999098261
 30
0.0
 11
7333.2958206623161459
 21
412.9029965871092145
 31
0.0
  0
LINE
  5
33AB8
  8
0
 10
7333.2918836544013175
 20
412.9025828570098042
 30
0.0
 11
7333.3413363869003661
 21
412.9008505697099167
 31
0.0
  0
LINE
  5
33AB9
  8
0
 10
7333.3063976562998505
 20
412.9072070588097745
 30
0.0
 11
7333.2433517268000287
 21
412.9072070588097745
 31
0.0
  0
LINE
  5
33ABA
  8
0
 10
7333.2433517268000287
 20
412.9072070588097745
 30
0.0
 11
7333.2433517268000287
 21
412.9137189038978022
 31
0.0
  0
LINE
  5
33ABB
  8
0
 10
7333.243891710500975
 20
412.9137756494097857
 30
0.0
 11
7333.2123687457024062
 21
412.9104629813099905
 31
0.0
  0
LINE
  5
33ABC
  8
0
 10
7333.2055496480998045
 20
412.9147014420166215
 30
0.0
 11
7333.2055496480998045
 21
412.9107018485760818
 31
0.0
  0
LINE
  5
33ABD
  8
0
 10
7333.2055496480998045
 20
412.9107018485760818
 30
0.0
 11
7333.2370726128001479
 21
412.9140145166098819
 31
0.0
  0
LINE
  5
33ABE
  8
0
 10
7333.2400266287013437
 20
412.9180977654596063
 30
0.0
 11
7333.2400266287086197
 21
412.9143249466479233
 31
0.0
  0
LINE
  5
33ABF
  8
0
 10
7333.2400266287086197
 20
412.9143249466479233
 30
0.0
 11
7333.2685781770524045
 21
412.9173253561859838
 31
0.0
  0
LINE
  5
33AC0
  8
0
 10
7333.2753972747996158
 20
412.9170864889097743
 30
0.0
 11
7333.2468457263994424
 21
412.9140860794097989
 31
0.0
  0
LINE
  5
33AC1
  8
0
 10
7333.2918836544013175
 20
412.9113535261097923
 30
0.0
 11
7333.2918856013038749
 21
412.916445451101481
 31
0.0
  0
LINE
  5
33AC2
  8
0
 10
7333.2918836544013175
 20
412.9113535261097923
 30
0.0
 11
7333.3413363869003661
 21
412.9130858134097934
 31
0.0
  0
LINE
  5
33AC3
  8
0
 10
7333.3452733947988236
 20
412.9126720832098272
 30
0.0
 11
7333.2958206623161459
 21
412.910939796010382
 31
0.0
  0
LINE
  5
33AC4
  8
0
 10
7333.3512583382998855
 20
412.9183640947097729
 30
0.0
 11
7333.306898196574366
 21
412.9203968405699925
 31
0.0
  0
LINE
  5
33AC5
  8
0
 10
7333.306898196574366
 20
412.9203968405699925
 30
0.0
 11
7333.2783506156893054
 21
412.9173968479752261
 31
0.0
  0
LINE
  5
33AC6
  8
0
 10
7333.2783506156893054
 20
412.9173968479752261
 30
0.0
 11
7333.3108678158077964
 21
412.9159135100799745
 31
0.0
  0
LINE
  5
33AC7
  8
0
 10
7333.3108678158077964
 20
412.9159135100799745
 30
0.0
 11
7333.3512583382998855
 21
412.9183640947097729
 31
0.0
  0
LINE
  5
33AC8
  8
0
 10
7333.3108678162998331
 20
412.9202149379036086
 30
0.0
 11
7333.3108678158077964
 21
412.9159135100799745
 31
0.0
  0
LINE
  5
33AC9
  8
0
 10
7333.3000790983996922
 20
412.9206357077097778
 30
0.0
 11
7333.2715312917780466
 21
412.9176357227298126
 31
0.0
  0
LINE
  5
33ACA
  8
0
 10
7333.2715312917780466
 20
412.9176357227298126
 30
0.0
 11
7333.2715315180012112
 21
412.9214642728721856
 31
0.0
  0
LINE
  5
33ACB
  8
0
 10
7333.2488839676170755
 20
412.9219501819910079
 30
0.0
 11
7333.2341000107198852
 21
412.9186026211369835
 31
0.0
  0
LINE
  5
33ACC
  8
0
 10
7333.2336725373270383
 20
412.9221974755482734
 30
0.0
 11
7333.2188885802397635
 21
412.9188499147135758
 31
0.0
  0
LINE
  5
33ACD
  8
0
 10
7333.2188885802397635
 20
412.9188499147135758
 30
0.0
 11
7333.2188885801997458
 21
412.9223800393098145
 31
0.0
  0
LINE
  5
33ACE
  8
0
 10
7333.3063976562998505
 20
412.906729324309822
 30
0.0
 11
7333.2433517268000287
 21
412.906729324309822
 31
0.0
  0
LINE
  5
33ACF
  8
0
 10
7333.243891710500975
 20
412.906729324309822
 30
0.0
 11
7333.243891710500975
 21
412.9001607337098108
 31
0.0
  0
LINE
  5
33AD0
  8
0
 10
7333.243891710500975
 20
412.9001607337098108
 30
0.0
 11
7333.2123687456996777
 21
412.9034734018097765
 31
0.0
  0
LINE
  5
33AD1
  8
0
 10
7333.237072612789234
 20
412.8999218664731075
 30
0.0
 11
7333.2055496480998045
 21
412.9032345346097941
 31
0.0
  0
LINE
  5
33AD2
  8
0
 10
7333.2094107027987775
 20
412.9037842550097821
 30
0.0
 11
7333.1916144111000904
 21
412.9056544219097873
 31
0.0
  0
LINE
  5
33AD3
  8
0
 10
7333.2018430575999446
 20
412.906729324309822
 30
0.0
 11
7333.2374356411010012
 21
412.906729324309822
 31
0.0
  0
LINE
  5
33AD4
  8
0
 10
7333.209410702797868
 20
412.9101521281098144
 30
0.0
 11
7333.1916144111000904
 21
412.9082819612099229
 31
0.0
  0
LINE
  5
33AD5
  8
0
 10
7333.1847953134401905
 20
412.908520828425992
 30
0.0
 11
7333.2025916051998138
 21
412.9103909953097968
 31
0.0
  0
LINE
  5
33AD6
  8
0
 10
7333.2018430575999446
 20
412.9093568636097871
 30
0.0
 11
7333.2018430576572428
 21
412.9072070588097745
 31
0.0
  0
LINE
  5
33AD7
  8
0
 10
7333.2018430576572428
 20
412.9072070588097745
 30
0.0
 11
7333.2374356411010012
 21
412.9072070588097745
 31
0.0
  0
LINE
  5
33AD8
  8
0
 10
7333.2094107027987775
 20
412.906729324309822
 30
0.0
 11
7333.2094107027987775
 21
412.9037842550097821
 31
0.0
  0
LINE
  5
33AD9
  8
0
 10
7333.1847953133246847
 20
412.9054155547282221
 30
0.0
 11
7333.2025916050079104
 21
412.9035453878299791
 31
0.0
  0
LINE
  5
33ADA
  8
0
 10
7333.1785036747769482
 20
412.9226121698055749
 30
0.0
 11
7333.1785036747996855
 21
412.9191480768589031
 31
0.0
  0
LINE
  5
33ADB
  8
0
 10
7333.1785036747996855
 20
412.9187897050097718
 30
0.0
 11
7333.1785036747996855
 21
412.9153251306098014
 31
0.0
  0
LINE
  5
33ADC
  8
0
 10
7333.1847953135011267
 20
412.9107385712097766
 30
0.0
 11
7333.1847425490586829
 21
412.9085220878444034
 31
0.0
  0
LINE
  5
33ADD
  8
0
 10
7333.1785036747996855
 20
412.8986112525097951
 30
0.0
 11
7333.178505254760239
 21
412.8951466788299172
 31
0.0
  0
LINE
  5
33ADE
  8
0
 10
7333.1785036748033235
 20
412.8947883062480742
 30
0.0
 11
7333.1785036747996855
 21
412.891324213309872
 31
0.0
  0
LINE
  5
33ADF
  8
0
 10
7333.2336725373997979
 20
412.8917389076098061
 30
0.0
 11
7333.2188885802688674
 21
412.8950864683941973
 31
0.0
  0
ARC
  5
33AE0
  8
0
 10
7333.1627174578834456
 20
407.6165149782274284
 30
0.0
 40
5.3965074109638413
 50
87.8382914018674086
 51
89.8741945175442538
  0
ARC
  5
33AE1
  8
0
 10
7333.2907590436652754
 20
411.1999299707694036
 30
0.0
 40
1.8108272128307299
 50
85.5109586880500814
 51
87.6099753976798468
  0
ARC
  5
33AE2
  8
0
 10
7333.3840171844176439
 20
412.3877916438949001
 30
0.0
 40
0.6193103496276685
 50
80.6455846321993164
 51
85.5109586880500814
  0
ARC
  5
33AE3
  8
0
 10
7333.4778917578405526
 20
412.9576553361387141
 30
0.0
 40
0.0417663571274743
 50
63.472218270126227
 51
80.6455846321993164
  0
ARC
  5
33AE4
  8
0
 10
7333.1609149679297843
 20
407.2871216602707136
 30
0.0
 40
5.7278145975546391
 50
87.5364946009301264
 51
89.8634408521667325
  0
ARC
  5
33AE5
  8
0
 10
7333.3351505936007015
 20
411.520612449051896
 30
0.0
 40
1.490768114133499
 50
84.4774309025637251
 51
87.2331096014617771
  0
ARC
  5
33AE6
  8
0
 10
7333.432215787424866
 20
412.524527916806619
 30
0.0
 40
0.4821711092553524
 50
81.106151918102384
 51
84.4774309025637251
  0
ARC
  5
33AE7
  8
0
 10
7333.486176532317586
 20
412.8693562556396159
 30
0.0
 40
0.13314626020902
 50
73.7564432402404577
 51
81.1061519181018582
  0
ARC
  5
33AE8
  8
0
 10
7333.5190001916662368
 20
412.9820162867097793
 30
0.0
 40
0.0158020008105996
 50
59.3087704663530104
 51
73.7564432402404577
  0
ARC
  5
33AE9
  8
0
 10
7333.5244579595882897
 20
412.9912114214930057
 30
0.0
 40
0.005109118394128
 50
31.3814304805463706
 51
59.3087704663563287
  0
ARC
  5
33AEA
  8
0
 10
7333.5274691172780877
 20
412.9934152322211958
 30
0.0
 40
0.0014257154677032
 50
324.3240240307505928
 51
18.6818745831528794
  0
ARC
  5
33AEB
  8
0
 10
7333.5159443748862031
 20
413.0086925089017882
 30
0.0
 40
0.0205023830859912
 50
279.8768625248699209
 51
308.2143871225460998
  0
ARC
  5
33AEC
  8
0
 10
7333.4708661264457987
 20
413.1967695578206872
 30
0.0
 40
0.2138695570163809
 50
276.455525743192311
 51
283.1333486253673755
  0
ARC
  5
33AED
  8
0
 10
7333.1783344841396683
 20
407.6058246650396768
 30
0.0
 40
5.4609437122613933
 50
88.2531640512961246
 51
90.0395316356630531
  0
ARC
  5
33AEE
  8
0
 10
7333.2574676029689726
 20
410.2005667937875728
 30
0.0
 40
2.8649951832656479
 50
85.6483553784695744
 51
88.2531640512961246
  0
ARC
  5
33AEF
  8
0
 10
7333.4321935092812055
 20
412.4966642304844981
 30
0.0
 40
0.5622592928208466
 50
81.0962125935538438
 51
85.6483553784695744
  0
ARC
  5
33AF0
  8
0
 10
7333.5007924042529339
 20
412.9345382412702747
 30
0.0
 40
0.1190443813920571
 50
72.0189324229116181
 51
81.0962125935538438
  0
ARC
  5
33AF1
  8
0
 10
7333.53477212760572
 20
413.0392347775522239
 30
0.0
 40
0.0089717403376792
 50
47.9119977567872724
 51
72.0189324229116181
  0
ARC
  5
33AF2
  8
0
 10
7333.5393919340904176
 20
413.0443497714729233
 30
0.0
 40
0.0020792970301543
 50
356.8488373963492108
 51
47.9119977567872724
  0
ARC
  5
33AF3
  8
0
 10
7332.9250677616992107
 20
413.1691081597675748
 30
0.0
 40
0.6289217355996161
 50
343.7492932820424016
 51
348.5477944216983133
  0
ARC
  5
33AF4
  8
0
 10
7313.8876694541686447
 20
-2039.9844368656799816
 30
0.0
 40
2453.1372873437248927
 50
89.5454185180565645
 51
89.5495281895917543
  0
ARC
  5
33AF5
  8
0
 10
7333.1766764785097621
 20
401.9926384501371786
 30
0.0
 40
11.0843663573453508
 50
88.1163630699943639
 51
89.1013650473375378
  0
ARC
  5
33AF6
  8
0
 10
7333.4581449084353153
 20
410.5511575420779877
 30
0.0
 40
2.5212201175477178
 50
86.035148719099837
 51
88.1163630699943639
  0
ARC
  5
33AF7
  8
0
 10
7333.5843219181233508
 20
412.3716209960376773
 30
0.0
 40
0.6963892144290611
 50
82.8012470407272332
 51
86.035148719099837
  0
ARC
  5
33AF8
  8
0
 10
7333.6404354899195823
 20
412.8158834164715927
 30
0.0
 40
0.2485970403689372
 50
78.2672477622233345
 51
82.8012470407272332
  0
ARC
  5
33AF9
  8
0
 10
7333.6765417902342961
 20
412.9897336244249004
 30
0.0
 40
0.0710370231135343
 50
70.0536884949935228
 51
78.2672477622233345
  0
ARC
  5
33AFA
  8
0
 10
7333.6947981278372026
 20
413.0400391181756845
 30
0.0
 40
0.0175212631526152
 50
53.893232978151417
 51
70.0536884949935228
  0
ARC
  5
33AFB
  8
0
 10
7333.7028829912742367
 20
413.0511234831874958
 30
0.0
 40
0.0038016361710751
 50
20.2702746777137612
 51
53.8932329781954422
  0
ARC
  5
33AFC
  8
0
 10
7333.6961181116239459
 20
413.0524801521207223
 30
0.0
 40
0.0104599052654023
 50
313.6825922300498064
 51
349.9496031164960073
  0
ARC
  5
33AFD
  8
0
 10
7333.6675276257310543
 20
413.1000736970083835
 30
0.0
 40
0.0657654264443983
 50
276.444923147178315
 51
302.9961920055147857
  0
ARC
  5
33AFE
  8
0
 10
7333.5581921742896157
 20
413.7035707714073851
 30
0.0
 40
0.6789544306393756
 50
274.7169613923513793
 51
279.8987552325565957
  0
ARC
  5
33AFF
  8
0
 10
7333.4292182513809166
 20
415.0027856673343081
 30
0.0
 40
1.9844936055070761
 50
273.0944781609803726
 51
275.3434344940603182
  0
ARC
  5
33B00
  8
0
 10
7332.7545041153507555
 20
386.5649508643671766
 30
0.0
 40
26.5113307087567485
 50
88.8071178187574901
 51
89.0921308791682662
  0
ARC
  5
33B01
  8
0
 10
7333.1548722401139457
 20
405.7924065353982996
 30
0.0
 40
7.2797071107141189
 50
87.3979324802229343
 51
88.8071178187574901
  0
ARC
  5
33B02
  8
0
 10
7333.4165465597079674
 20
411.5503375132385031
 30
0.0
 40
1.5158331881593201
 50
83.0580835429922075
 51
87.3979324802229343
  0
ARC
  5
33B03
  8
0
 10
7333.5728755029804233
 20
412.8342938247484994
 30
0.0
 40
0.2223949219977225
 50
75.0232327812900763
 51
83.0580835429922075
  0
ARC
  5
33B04
  8
0
 10
7333.6252763631682683
 20
413.0301741717636901
 30
0.0
 40
0.0196266786874401
 50
46.9181659078692803
 51
75.0232327812900763
  0
ARC
  5
33B05
  8
0
 10
7333.2182560256906072
 20
416.6700184264886957
 30
0.0
 40
3.5963941010399609
 50
269.3039479640975742
 51
270.2625882694439952
  0
ARC
  5
33B06
  8
0
 10
7333.1776610988081302
 20
405.5468336926061284
 30
0.0
 40
7.527044812656472
 50
88.8831906981939142
 51
89.565524452118666
  0
ARC
  5
33B07
  8
0
 10
7333.2076532142727956
 20
407.0853273237664212
 30
0.0
 40
5.9882588690921388
 50
87.7229236898336637
 51
88.8831906981939142
  0
ARC
  5
33B08
  8
0
 10
7333.3152450105562821
 20
409.7911259402018231
 30
0.0
 40
3.2803219888582369
 50
85.7526446539835945
 51
87.7229236898336637
  0
ARC
  5
33B09
  8
0
 10
7333.4800982091610422
 20
412.0108800303003136
 30
0.0
 40
1.054454787608627
 50
82.2500365058708525
 51
85.7526446539835945
  0
ARC
  5
33B0A
  8
0
 10
7333.5907320324558896
 20
412.8238058670481792
 30
0.0
 40
0.234035224879151
 50
76.3746171032560852
 51
82.2500365058708525
  0
ARC
  5
33B0B
  8
0
 10
7333.6339042721056103
 20
413.0019132401113211
 30
0.0
 40
0.0507701747036466
 50
63.5429885296833703
 51
76.3746171032560852
  0
ARC
  5
33B0C
  8
0
 10
7333.6543415330970674
 20
413.0429811792203054
 30
0.0
 40
0.004897990762934
 50
30.7569912000951717
 51
63.5429885296367232
  0
ARC
  5
33B0D
  8
0
 10
7333.6567091727256411
 20
413.0444803845585966
 30
0.0
 40
0.0020981161141892
 50
311.5188309894001009
 51
28.6393835688828418
  0
ARC
  5
33B0E
  8
0
 10
7333.6433979255152735
 20
413.062253477422928
 30
0.0
 40
0.0242969316273892
 50
282.8868504563967008
 51
307.2358724781940964
  0
ARC
  5
33B0F
  8
0
 10
7333.5078468113706549
 20
413.7428211525302117
 30
0.0
 40
0.7182230108309393
 50
272.3506200028040212
 51
281.3192761789783845
  0
ARC
  5
33B10
  8
0
 10
7333.6434355267128922
 20
413.0486006289388001
 30
0.0
 40
0.0035797698688581
 50
3.7549206582160131
 51
48.0580454645016317
  0
ARC
  5
33B11
  8
0
 10
7333.854103586072597
 20
413.04667207356772
 30
0.0
 40
0.2071072694182625
 50
179.4016025188680885
 51
180.5983974811057919
  0
ARC
  5
33B12
  8
0
 10
7333.6436919423385916
 20
413.0450311852483196
 30
0.0
 40
0.0033565242601102
 50
299.5949546744934082
 51
351.0513969296220012
  0
ARC
  5
33B13
  8
0
 10
7333.6109417663301429
 20
413.1179597590158892
 30
0.0
 40
0.0832868402628956
 50
279.9134730232220249
 51
294.4012722623480727
  0
ARC
  5
33B14
  8
0
 10
7333.4917876744502792
 20
413.8471623770694805
 30
0.0
 40
0.8221558421193702
 50
273.1913013590967125
 51
279.3444420046948835
  0
LINE
  5
33B15
  8
0
 10
7333.6386822136992123
 20
413.0445090832678261
 30
0.0
 11
7333.6470076119003352
 21
413.0445090832678261
 31
0.0
  0
ARC
  5
33B16
  8
0
 10
7333.2724569657220854
 20
413.5166223593881227
 30
0.0
 40
0.5995462131807723
 50
290.9849732628799757
 51
305.3050229102566959
  0
LINE
  5
33B17
  8
0
 10
7332.6396523665989662
 20
414.7826854820177118
 30
0.0
 11
7332.6457080774989663
 21
414.7016078746676726
 31
0.0
  0
LINE
  5
33B18
  8
0
 10
7333.7094809673990312
 20
414.7826854820177118
 30
0.0
 11
7333.7034252564990311
 21
414.7016078746676726
 31
0.0
  0
ENDSEC
  0
EOF
