  0
SECTION
  2
HEADER
  9
$ACADVER
  1
AC1009
  9
$INSBASE
 10
460.3159170298728213
 20
60.8712308232188519
 30
0.0
  9
$EXTMIN
 10
453.7151190399550273
 20
47.4513863815882573
 30
0.0
  9
$EXTMAX
 10
465.8853401136861976
 20
68.606067577871471
 30
0.0
  9
$LIMMIN
 10
0.0
 20
0.0
  9
$LIMMAX
 10
11.6929133858000007
 20
8.2677165353999982
  9
$ORTHOMODE
 70
     0
  9
$REGENMODE
 70
     1
  9
$FILLMODE
 70
     1
  9
$QTEXTMODE
 70
     0
  9
$MIRRTEXT
 70
     0
  9
$DRAGMODE
 70
     2
  9
$LTSCALE
 40
0.6431102362
  9
$OSMODE
 70
  4095
  9
$ATTMODE
 70
     1
  9
$TEXTSIZE
 40
0.2
  9
$TRACEWID
 40
0.05
  9
$TEXTSTYLE
  7
STANDARD
  9
$CLAYER
  8
0
  9
$CELTYPE
  6
BYLAYER
  9
$CECOLOR
 62
   256
  9
$DIMSCALE
 40
1.0
  9
$DIMASZ
 40
0.1875
  9
$DIMEXO
 40
0.0625
  9
$DIMDLI
 40
0.4443307087
  9
$DIMRND
 40
0.0
  9
$DIMDLE
 40
0.0
  9
$DIMEXE
 40
0.125
  9
$DIMTP
 40
0.01
  9
$DIMTM
 40
0.01
  9
$DIMTXT
 40
1.0
  9
$DIMCEN
 40
0.1052362205
  9
$DIMTSZ
 40
0.0
  9
$DIMTOL
 70
     1
  9
$DIMLIM
 70
     0
  9
$DIMTIH
 70
     0
  9
$DIMTOH
 70
     1
  9
$DIMSE1
 70
     0
  9
$DIMSE2
 70
     0
  9
$DIMTAD
 70
     0
  9
$DIMZIN
 70
     0
  9
$DIMBLK
  1

  9
$DIMASO
 70
     1
  9
$DIMSHO
 70
     1
  9
$DIMPOST
  1
\X
  9
$DIMAPOST
  1

  9
$DIMALT
 70
     1
  9
$DIMALTD
 70
     2
  9
$DIMALTF
 40
25.3999999999999986
  9
$DIMLFAC
 40
1.0
  9
$DIMTOFL
 70
     0
  9
$DIMTVP
 40
0.0
  9
$DIMTIX
 70
     0
  9
$DIMSOXD
 70
     0
  9
$DIMSAH
 70
     0
  9
$DIMBLK1
  1

  9
$DIMBLK2
  1

  9
$DIMSTYLE
  2
STANDARD
  9
$DIMCLRD
 70
     0
  9
$DIMCLRE
 70
     0
  9
$DIMCLRT
 70
     0
  9
$DIMTFAC
 40
1.0
  9
$DIMGAP
 40
0.09
  9
$LUNITS
 70
     2
  9
$LUPREC
 70
     4
  9
$SKETCHINC
 40
0.1
  9
$FILLETRAD
 40
0.0
  9
$AUNITS
 70
     0
  9
$AUPREC
 70
     0
  9
$MENU
  1
.
  9
$ELEVATION
 40
0.0
  9
$PELEVATION
 40
0.0
  9
$THICKNESS
 40
0.0
  9
$LIMCHECK
 70
     0
  9
$BLIPMODE
 70
     0
  9
$CHAMFERA
 40
0.0
  9
$CHAMFERB
 40
0.0
  9
$SKPOLY
 70
     0
  9
$TDCREATE
 40
2458172.5207638889551163
  9
$TDUPDATE
 40
2459113.0175462961196899
  9
$TDINDWG
 40
0.2739671065
  9
$TDUSRTIMER
 40
0.2739671065
  9
$USRTIMER
 70
     1
  9
$ANGBASE
 50
0.0
  9
$ANGDIR
 70
     0
  9
$PDMODE
 70
     0
  9
$PDSIZE
 40
0.3125
  9
$PLINEWID
 40
0.0
  9
$COORDS
 70
     1
  9
$SPLFRAME
 70
     0
  9
$SPLINETYPE
 70
     6
  9
$SPLINESEGS
 70
     8
  9
$ATTDIA
 70
     1
  9
$ATTREQ
 70
     1
  9
$HANDLING
 70
     1
  9
$HANDSEED
  5
E3C2
  9
$SURFTAB1
 70
     6
  9
$SURFTAB2
 70
     6
  9
$SURFTYPE
 70
     6
  9
$SURFU
 70
     6
  9
$SURFV
 70
     6
  9
$UCSNAME
  2

  9
$UCSORG
 10
0.0
 20
0.0
 30
0.0
  9
$UCSXDIR
 10
1.0
 20
0.0
 30
0.0
  9
$UCSYDIR
 10
0.0
 20
1.0
 30
0.0
  9
$PUCSNAME
  2

  9
$PUCSORG
 10
0.0
 20
0.0
 30
0.0
  9
$PUCSXDIR
 10
1.0
 20
0.0
 30
0.0
  9
$PUCSYDIR
 10
0.0
 20
1.0
 30
0.0
  9
$USERI1
 70
     0
  9
$USERI2
 70
     0
  9
$USERI3
 70
     0
  9
$USERI4
 70
     0
  9
$USERI5
 70
     0
  9
$USERR1
 40
0.0
  9
$USERR2
 40
0.0
  9
$USERR3
 40
0.0
  9
$USERR4
 40
0.0
  9
$USERR5
 40
0.0
  9
$WORLDVIEW
 70
     1
  9
$SHADEDGE
 70
     3
  9
$SHADEDIF
 70
    70
  9
$TILEMODE
 70
     1
  9
$MAXACTVP
 70
    64
  9
$PLIMCHECK
 70
     0
  9
$PEXTMIN
 10
1.0000000000000000E+20
 20
1.0000000000000000E+20
 30
1.0000000000000000E+20
  9
$PEXTMAX
 10
-1.0000000000000000E+20
 20
-1.0000000000000000E+20
 30
-1.0000000000000000E+20
  9
$PLIMMIN
 10
0.0
 20
0.0
  9
$PLIMMAX
 10
12.0
 20
9.0
  9
$UNITMODE
 70
     0
  9
$VISRETAIN
 70
     1
  9
$PLINEGEN
 70
     0
  9
$PSLTSCALE
 70
     1
  0
ENDSEC
  0
SECTION
  2
TABLES
  0
TABLE
  2
VPORT
 70
     1
  0
VPORT
  2
*ACTIVE
 70
     0
 10
0.0
 20
0.0
 11
1.0
 21
1.0
 12
34.5958497912261791
 22
-18.5296610314300487
 13
0.0
 23
0.0
 14
1.0
 24
1.0
 15
0.0
 25
0.0
 16
0.0
 26
0.0
 36
14.6338572656650907
 17
429.6292891080536833
 27
69.7025415122186871
 37
0.0
 40
48.5243537533939602
 41
2.005224660397074
 42
50.0
 43
0.0
 44
0.0
 50
0.0
 51
0.0
 71
     0
 72
   100
 73
     1
 74
     1
 75
     0
 76
     0
 77
     0
 78
     0
  0
ENDTAB
  0
TABLE
  2
LTYPE
 70
     2
  0
LTYPE
  2
CONTINUOUS
 70
     0
  3
Solid line
 72
    65
 73
     0
 40
0.0
  0
LTYPE
  2
PHANTOM2
 70
     0
  3
___ _ _ ___ _ _ ___ _ _ ___ _ _
 72
    65
 73
     6
 40
1.25
 49
0.625
 49
-0.125
 49
0.125
 49
-0.125
 49
0.125
 49
-0.125
  0
ENDTAB
  0
TABLE
  2
LAYER
 70
     2
  0
LAYER
  2
0
 70
     0
 62
   255
  6
CONTINUOUS
  0
LAYER
  2
DEFPOINTS
 70
     0
 62
     7
  6
CONTINUOUS
  0
ENDTAB
  0
TABLE
  2
STYLE
 70
     1
  0
STYLE
  2
STANDARD
 70
     0
 40
0.0
 41
0.8
 50
0.0
 71
     0
 42
0.2
  3
txt
  4

  0
ENDTAB
  0
TABLE
  2
VIEW
 70
     0
  0
ENDTAB
  0
TABLE
  2
UCS
 70
     0
  0
ENDTAB
  0
TABLE
  2
APPID
 70
    10
  0
APPID
  2
ACAD
 70
     0
  0
APPID
  2
ACAD_MLEADERVER
 70
     0
  0
APPID
  2
ACAD_EXEMPT_FROM_CAD_STANDARDS
 70
     0
  0
APPID
  2
ACAD_DSTYLE_DIMJAG
 70
     0
  0
APPID
  2
ACAD_DSTYLE_DIMTALN
 70
     0
  0
APPID
  2
ACAD_NAV_VCDISPLAY
 70
     0
  0
APPID
  2
ACAECLAYERSTANDARD
 70
     0
  0
APPID
  2
ACCMTRANSPARENCY
 70
     0
  0
APPID
  2
DCO15
 70
     0
  0
APPID
  2
ACDBATTR
 70
     0
  0
ENDTAB
  0
TABLE
  2
DIMSTYLE
 70
     1
  0
DIMSTYLE
  2
STANDARD
 70
     0
  3

  4

  5

  6

  7

 40
1.0
 41
0.1875
 42
0.0625
 43
0.38
 44
0.125
 45
0.0
 46
0.0
 47
0.01
 48
0.01
140
0.15625
141
0.09
142
0.0
143
25.3999999999999986
144
1.0
145
0.0
146
1.0
147
0.09
 71
     1
 72
     0
 73
     1
 74
     1
 75
     0
 76
     0
 77
     0
 78
     4
170
     0
171
     2
172
     0
173
     0
174
     0
175
     0
176
     0
177
     0
178
     0
  0
ENDTAB
  0
ENDSEC
  0
SECTION
  2
BLOCKS
  0
BLOCK
  8
0
  2
$MODEL_SPACE
 70
     0
 10
0.0
 20
0.0
 30
0.0
  3
$MODEL_SPACE
  1

  0
ENDBLK
  5
21
  8
0
  0
BLOCK
 67
     1
  8
0
  2
$PAPER_SPACE
 70
     0
 10
0.0
 20
0.0
 30
0.0
  3
$PAPER_SPACE
  1

  0
ENDBLK
  5
1D
 67
     1
  8
0
  0
BLOCK
  8
0
  2
_FILLED
 70
     0
 10
0.0
 20
0.0
 30
0.0
  3
_FILLED
  1

  0
SOLID
  5
87E2
  8
0
  6
BYBLOCK
 62
     0
 10
0.0
 20
0.0
 30
0.0
 11
-1.0
 21
0.1666666667
 31
0.0
 12
-1.0
 22
-0.1666666667
 32
0.0
 13
-1.0
 23
-0.1666666667
 33
0.0
  0
ENDBLK
  5
87E3
  8
0
  6
BYBLOCK
 62
     0
  0
ENDSEC
  0
SECTION
  2
ENTITIES
  0
ATTDEF
  5
C848
  8
DEFPOINTS
 10
460.3172351116455729
 20
60.8752641186470882
 30
0.0
 40
0.001
  1
K-97347T-4ND
  3

  2
MODELNUMBER
 70
     0
1001
ACDBATTR
1070
     0
1070
     1
  0
ATTDEF
  5
C849
  8
DEFPOINTS
 10
460.3172351116455729
 20
60.8735974519804302
 30
0.0
 40
0.001
  1
AVID
  3

  2
TRADENAME
 70
     0
1001
ACDBATTR
1070
     0
1070
     1
  0
ATTDEF
  5
C84A
  8
DEFPOINTS
 10
460.3172351116455729
 20
60.8719307853137721
 30
0.0
 40
0.001
  1
BATHROOM SINK FAUCET
  3

  2
PRODUCT
 70
     0
1001
ACDBATTR
1070
     0
1070
     1
  0
ARC
  5
E312
  8
0
 10
460.3159251985961191
 20
60.871193815318847
 30
0.0
 40
1.003937007899999
 50
215.8666291909462132
 51
215.8855827223655126
  0
ARC
  5
E313
  8
0
 10
460.3159251985961191
 20
60.871193815318847
 30
0.0
 40
1.003937007899999
 50
90.0000000028530138
 51
211.2630934999041017
  0
ARC
  5
E314
  8
0
 10
460.2706282342961117
 20
60.8348830077455887
 30
0.0
 40
0.787887601586019
 50
136.2542733958665906
 51
184.0352064114713926
  0
ARC
  5
E315
  8
0
 10
460.3137996863061971
 20
60.7917192780235212
 30
0.0
 40
0.8489223294739086
 50
89.8565439927062641
 51
136.1644496109418014
  0
ARC
  5
E316
  8
0
 10
460.3166708385821835
 20
60.6526667925253875
 30
0.0
 40
0.7176601376033122
 50
90.0595296193156685
 51
157.5612706061376116
  0
ARC
  5
E317
  8
0
 10
460.1523348422006734
 20
60.7210130304936015
 30
0.0
 40
0.5396790594016485
 50
157.6085524461676073
 51
174.4273216355464911
  0
ARC
  5
E318
  8
0
 10
461.5296984782390837
 20
60.5806969549901027
 30
0.0
 40
1.924167927321659
 50
174.2516536969619096
 51
181.988812088838813
  0
ARC
  5
E319
  8
0
 10
470.1133981741307934
 20
60.912760129915533
 30
0.0
 40
10.6295404807993794
 50
180.7186474560523095
 51
183.398072693552308
  0
ARC
  5
E31A
  8
0
 10
457.6696971041798179
 20
59.9114186985635726
 30
0.0
 40
1.841115336638516
 50
7.0912699849023149
 51
13.7870449239447694
  0
ARC
  5
E31B
  8
0
 10
454.9027808998749833
 20
59.5774580393463467
 30
0.0
 40
4.6281054432886481
 50
3.5877639190271369
 51
6.9653600050516502
  0
ARC
  5
E31C
  8
0
 10
428.3694694831693255
 20
58.6311054043365374
 30
0.0
 40
31.1768551281522406
 50
2.2720147591478579
 51
3.0366989659182551
  0
ARC
  5
E31D
  8
0
 10
294.1927808459486187
 20
52.6427494053544294
 30
0.0
 40
165.4867989998662097
 50
1.5451892384444801
 51
2.5020414062295568
  0
ARC
  5
E31E
  8
0
 10
6941.5206991153327181
 20
264.3295315904758809
 30
0.0
 40
6485.2128989021575762
 50
181.8311045949666038
 51
181.8534112232231905
  0
ARC
  5
E31F
  8
0
 10
466.9004176510703132
 20
54.744341051620097
 30
0.0
 40
7.201683991361409
 50
181.2947192116322128
 51
184.0026654781908917
  0
ARC
  5
E320
  8
0
 10
459.9851992643514791
 20
54.2685429714477223
 30
0.0
 40
0.2702414616380014
 50
185.7127633392582879
 51
205.8614127128529105
  0
ARC
  5
E321
  8
0
 10
459.861409221663223
 20
54.2088292027980785
 30
0.0
 40
0.1328021371881096
 50
205.9749518843690907
 51
266.8849351321428003
  0
ARC
  5
E322
  8
0
 10
460.0151794915154824
 20
54.6353856585119928
 30
0.0
 40
0.235325273140699
 50
182.2191240792830058
 51
270.2205188775345164
  0
ARC
  5
E323
  8
0
 10
2511.6418675492941475
 20
118.4734472456806031
 30
0.0
 40
2052.8535452480550703
 50
181.6178833879583863
 51
181.7176215601431863
  0
ARC
  5
E324
  8
0
 10
1507.2758863792419106
 20
87.1509080065474677
 30
0.0
 40
1048.0006772466811071
 50
181.6518003455443022
 51
181.7784564480114966
  0
ARC
  5
E325
  8
0
 10
460.3159088611740799
 20
60.8711938152940277
 30
0.0
 40
1.003937007899999
 50
324.1145914094163913
 51
324.1335449408359182
  0
ARC
  5
E326
  8
0
 10
460.3159088609947958
 20
60.8711938152969907
 30
0.0
 40
1.003937008054796
 50
328.7370806370428227
 51
89.9990675981371169
  0
ARC
  5
E327
  8
0
 10
460.361205935828707
 20
60.8348831453862289
 30
0.0
 40
0.787887601586019
 50
355.9649677203108808
 51
43.745900735916841
  0
ARC
  5
E328
  8
0
 10
460.3180347825687022
 20
60.7917195274774897
 30
0.0
 40
0.8489220402894261
 50
43.8357205225942224
 51
90.1423810193245032
  0
ARC
  5
E329
  8
0
 10
460.3151638403651873
 20
60.6526667534138184
 30
0.0
 40
0.7176601932179504
 50
22.4389048725705713
 51
89.9392154963326504
  0
ARC
  5
E32A
  8
0
 10
460.4794996739940984
 20
60.7210135276488501
 30
0.0
 40
0.5396790594016485
 50
5.5728524962356776
 51
22.391621685614691
  0
ARC
  5
E32B
  8
0
 10
459.1021364644070104
 20
60.5806932660997077
 30
0.0
 40
1.924167927321659
 50
358.0113620429432899
 51
5.7485204348204331
  0
ARC
  5
E32C
  8
0
 10
450.5184357593573736
 20
60.9127303536758191
 30
0.0
 40
10.6295404807993794
 50
356.6021014382300223
 51
359.2815266757298218
  0
ARC
  5
E32D
  8
0
 10
462.9621398725006998
 20
59.9114267408879826
 30
0.0
 40
1.841115336638516
 50
166.2131292078377101
 51
172.9089041468797916
  0
ARC
  5
E32E
  8
0
 10
465.7290570917568857
 20
59.577474490809152
 30
0.0
 40
4.6281054432886481
 50
173.0348141267305095
 51
176.4124102127553044
  0
ARC
  5
E32F
  8
0
 10
492.2623713844694748
 20
58.6312024951255992
 30
0.0
 40
31.1768551281522406
 50
176.9634751658639971
 51
177.7281593726343942
  0
ARC
  5
E330
  8
0
 10
626.4390782207200346
 20
52.643254282331597
 30
0.0
 40
165.4867989998662097
 50
177.4981327255528925
 51
178.4549848933378939
  0
ARC
  5
E331
  8
0
 10
-6020.8894833707017824
 20
264.3098340873841039
 30
0.0
 40
6485.2128989021575762
 50
358.1467629085591966
 51
358.1690695368155843
  0
ARC
  5
E332
  8
0
 10
453.7314350292954259
 20
54.7443210402123199
 30
0.0
 40
7.201683991361409
 50
355.9975086535914102
 51
358.705454920150089
  0
ARC
  5
E333
  8
0
 10
460.6466548620148274
 20
54.2685439765866988
 30
0.0
 40
0.2702414616380014
 50
334.1387614189293913
 51
354.2874107925240992
  0
ARC
  5
E334
  8
0
 10
460.7704450861830878
 20
54.2088305841566722
 30
0.0
 40
0.1328021371881096
 50
273.1152389996419174
 51
334.0252222474132964
  0
ARC
  5
E335
  8
0
 10
460.6166760596295831
 20
54.6353854301317412
 30
0.0
 40
0.2353226911386024
 50
269.7790407585210914
 51
357.781304051592997
  0
ARC
  5
E336
  8
0
 10
-1591.0102085432579315
 20
118.4672129111073957
 30
0.0
 40
2052.8535452480550703
 50
358.2825525716390871
 51
358.3822907438237735
  0
ARC
  5
E337
  8
0
 10
-586.6441321832336371
 20
87.1477261140244792
 30
0.0
 40
1048.0006772466811071
 50
358.2217176837709189
 51
358.3483737862380281
  0
LINE
  5
E338
  8
0
 10
460.0160852045960951
 20
54.4000621283188508
 30
0.0
 11
460.6157685478565895
 21
54.4000644888895835
 31
0.0
  0
LINE
  5
E339
  8
0
 10
459.8748209363960768
 20
54.0746770942188633
 30
0.0
 11
460.7570334394662837
 21
54.0746784279176609
 31
0.0
  0
ARC
  5
E33A
  8
0
 10
460.3158889589449814
 20
79.3623135156881858
 30
0.0
 40
25.2914826924982385
 50
269.0007459181217087
 51
270.9994273174883119
  0
ARC
  5
E33B
  8
0
 10
459.8750750152141791
 20
54.2164450531175035
 30
0.0
 40
0.1417681865805351
 50
261.5295149772919103
 51
269.8973136915491864
  0
ARC
  5
E33C
  8
0
 10
460.7555872345849934
 20
54.232348713409209
 30
0.0
 40
0.1576769178908373
 50
270.5255214195636881
 51
278.0478956340053855
  0
ENDSEC
  0
EOF
