  0
SECTION
  2
HEADER
  9
$ACADVER
  1
AC1009
  9
$INSBASE
 10
3707.8686196461439977
 20
142.9963500349936112
 30
0.0
  9
$EXTMIN
 10
3700.9242869816939674
 20
133.6834873002935922
 30
0.0
  9
$EXTMAX
 10
3714.8129523105949374
 20
143.0009713249941967
 30
0.0
  9
$LIMMIN
 10
0.0
 20
0.0
  9
$LIMMAX
 10
11.6929133858000007
 20
8.2677165353999982
  9
$ORTHOMODE
 70
     0
  9
$REGENMODE
 70
     1
  9
$FILLMODE
 70
     1
  9
$QTEXTMODE
 70
     0
  9
$MIRRTEXT
 70
     0
  9
$DRAGMODE
 70
     2
  9
$LTSCALE
 40
0.6431102362
  9
$OSMODE
 70
  3839
  9
$ATTMODE
 70
     1
  9
$TEXTSIZE
 40
0.2
  9
$TRACEWID
 40
0.05
  9
$TEXTSTYLE
  7
STANDARD
  9
$CLAYER
  8
0
  9
$CELTYPE
  6
BYLAYER
  9
$CECOLOR
 62
   256
  9
$DIMSCALE
 40
1.0
  9
$DIMASZ
 40
0.1875
  9
$DIMEXO
 40
0.0625
  9
$DIMDLI
 40
0.4443307087
  9
$DIMRND
 40
0.0
  9
$DIMDLE
 40
0.0
  9
$DIMEXE
 40
0.125
  9
$DIMTP
 40
0.01
  9
$DIMTM
 40
0.01
  9
$DIMTXT
 40
2.0
  9
$DIMCEN
 40
0.1052362205
  9
$DIMTSZ
 40
0.0
  9
$DIMTOL
 70
     1
  9
$DIMLIM
 70
     0
  9
$DIMTIH
 70
     1
  9
$DIMTOH
 70
     1
  9
$DIMSE1
 70
     0
  9
$DIMSE2
 70
     0
  9
$DIMTAD
 70
     0
  9
$DIMZIN
 70
     0
  9
$DIMBLK
  1

  9
$DIMASO
 70
     1
  9
$DIMSHO
 70
     1
  9
$DIMPOST
  1
\X
  9
$DIMAPOST
  1

  9
$DIMALT
 70
     1
  9
$DIMALTD
 70
     2
  9
$DIMALTF
 40
25.3999999999999986
  9
$DIMLFAC
 40
1.0
  9
$DIMTOFL
 70
     0
  9
$DIMTVP
 40
0.0
  9
$DIMTIX
 70
     0
  9
$DIMSOXD
 70
     0
  9
$DIMSAH
 70
     0
  9
$DIMBLK1
  1

  9
$DIMBLK2
  1

  9
$DIMSTYLE
  2
STANDARD
  9
$DIMCLRD
 70
     0
  9
$DIMCLRE
 70
     0
  9
$DIMCLRT
 70
     0
  9
$DIMTFAC
 40
1.0
  9
$DIMGAP
 40
0.09
  9
$LUNITS
 70
     2
  9
$LUPREC
 70
     4
  9
$SKETCHINC
 40
0.1
  9
$FILLETRAD
 40
0.0
  9
$AUNITS
 70
     0
  9
$AUPREC
 70
     0
  9
$MENU
  1
.
  9
$ELEVATION
 40
0.0
  9
$PELEVATION
 40
0.0
  9
$THICKNESS
 40
0.0
  9
$LIMCHECK
 70
     0
  9
$BLIPMODE
 70
     0
  9
$CHAMFERA
 40
0.0
  9
$CHAMFERB
 40
0.0
  9
$SKPOLY
 70
     0
  9
$TDCREATE
 40
2458060.468368056230247
  9
$TDUPDATE
 40
2459213.8274652780964971
  9
$TDINDWG
 40
0.7406204861
  9
$TDUSRTIMER
 40
0.7406204861
  9
$USRTIMER
 70
     1
  9
$ANGBASE
 50
0.0
  9
$ANGDIR
 70
     0
  9
$PDMODE
 70
     0
  9
$PDSIZE
 40
0.3125
  9
$PLINEWID
 40
0.0
  9
$COORDS
 70
     1
  9
$SPLFRAME
 70
     0
  9
$SPLINETYPE
 70
     6
  9
$SPLINESEGS
 70
     8
  9
$ATTDIA
 70
     1
  9
$ATTREQ
 70
     1
  9
$HANDLING
 70
     1
  9
$HANDSEED
  5
FF73
  9
$SURFTAB1
 70
     6
  9
$SURFTAB2
 70
     6
  9
$SURFTYPE
 70
     6
  9
$SURFU
 70
     6
  9
$SURFV
 70
     6
  9
$UCSNAME
  2

  9
$UCSORG
 10
0.0
 20
0.0
 30
0.0
  9
$UCSXDIR
 10
1.0
 20
0.0
 30
0.0
  9
$UCSYDIR
 10
0.0
 20
1.0
 30
0.0
  9
$PUCSNAME
  2

  9
$PUCSORG
 10
0.0
 20
0.0
 30
0.0
  9
$PUCSXDIR
 10
1.0
 20
0.0
 30
0.0
  9
$PUCSYDIR
 10
0.0
 20
1.0
 30
0.0
  9
$USERI1
 70
     0
  9
$USERI2
 70
     0
  9
$USERI3
 70
     0
  9
$USERI4
 70
     0
  9
$USERI5
 70
     0
  9
$USERR1
 40
0.0
  9
$USERR2
 40
0.0
  9
$USERR3
 40
0.0
  9
$USERR4
 40
0.0
  9
$USERR5
 40
0.0
  9
$WORLDVIEW
 70
     1
  9
$SHADEDGE
 70
     3
  9
$SHADEDIF
 70
    70
  9
$TILEMODE
 70
     1
  9
$MAXACTVP
 70
    64
  9
$PLIMCHECK
 70
     0
  9
$PEXTMIN
 10
1.0000000000000000E+20
 20
1.0000000000000000E+20
 30
1.0000000000000000E+20
  9
$PEXTMAX
 10
-1.0000000000000000E+20
 20
-1.0000000000000000E+20
 30
-1.0000000000000000E+20
  9
$PLIMMIN
 10
0.0
 20
0.0
  9
$PLIMMAX
 10
12.0
 20
9.0
  9
$UNITMODE
 70
     0
  9
$VISRETAIN
 70
     1
  9
$PLINEGEN
 70
     0
  9
$PSLTSCALE
 70
     1
  0
ENDSEC
  0
SECTION
  2
TABLES
  0
TABLE
  2
VPORT
 70
     1
  0
VPORT
  2
*ACTIVE
 70
     0
 10
0.0
 20
0.0
 11
1.0
 21
1.0
 12
-0.0055317913788722
 22
-4.6565753456835353
 13
0.0
 23
0.0
 14
1.0
 24
1.0
 15
0.0
 25
0.0
 16
0.0
 26
0.0
 36
0.0433829766133159
 17
3707.8741514375228689
 27
142.9988046583274013
 37
0.0
 40
9.4097363417768491
 41
2.9735537190082639
 42
50.0
 43
0.0
 44
0.0
 50
0.0
 51
0.0
 71
     0
 72
   100
 73
     1
 74
     1
 75
     0
 76
     0
 77
     0
 78
     0
  0
ENDTAB
  0
TABLE
  2
LTYPE
 70
     2
  0
LTYPE
  2
CONTINUOUS
 70
     0
  3
Solid line
 72
    65
 73
     0
 40
0.0
  0
LTYPE
  2
PHANTOM2
 70
     0
  3
___ _ _ ___ _ _ ___ _ _ ___ _ _
 72
    65
 73
     6
 40
1.25
 49
0.625
 49
-0.125
 49
0.125
 49
-0.125
 49
0.125
 49
-0.125
  0
ENDTAB
  0
TABLE
  2
LAYER
 70
     2
  0
LAYER
  2
0
 70
     0
 62
   255
  6
CONTINUOUS
  0
LAYER
  2
DEFPOINTS
 70
     0
 62
     7
  6
CONTINUOUS
  0
ENDTAB
  0
TABLE
  2
STYLE
 70
     1
  0
STYLE
  2
STANDARD
 70
     0
 40
0.0
 41
0.8
 50
0.0
 71
     0
 42
0.2
  3
txt
  4

  0
ENDTAB
  0
TABLE
  2
VIEW
 70
     0
  0
ENDTAB
  0
TABLE
  2
UCS
 70
     0
  0
ENDTAB
  0
TABLE
  2
APPID
 70
    10
  0
APPID
  2
ACAD
 70
     0
  0
APPID
  2
ACAD_MLEADERVER
 70
     0
  0
APPID
  2
ACAD_EXEMPT_FROM_CAD_STANDARDS
 70
     0
  0
APPID
  2
ACAD_NAV_VCDISPLAY
 70
     0
  0
APPID
  2
ACAECLAYERSTANDARD
 70
     0
  0
APPID
  2
ACCMTRANSPARENCY
 70
     0
  0
APPID
  2
ACAD_DSTYLE_DIMJAG
 70
     0
  0
APPID
  2
ACAD_DSTYLE_DIMTALN
 70
     0
  0
APPID
  2
ACDBATTR
 70
     0
  0
APPID
  2
ACAD_PSEXT
 70
     0
  0
ENDTAB
  0
TABLE
  2
DIMSTYLE
 70
     1
  0
DIMSTYLE
  2
STANDARD
 70
     0
  3

  4

  5

  6

  7

 40
1.0
 41
0.1875
 42
0.0625
 43
0.38
 44
0.125
 45
0.0
 46
0.0
 47
0.01
 48
0.01
140
0.15625
141
0.09
142
0.0
143
25.3999999999999986
144
1.0
145
0.0
146
1.0
147
0.09
 71
     1
 72
     0
 73
     1
 74
     1
 75
     0
 76
     0
 77
     0
 78
     4
170
     0
171
     2
172
     0
173
     0
174
     0
175
     0
176
     0
177
     0
178
     0
  0
ENDTAB
  0
ENDSEC
  0
SECTION
  2
BLOCKS
  0
BLOCK
  8
0
  2
$MODEL_SPACE
 70
     0
 10
0.0
 20
0.0
 30
0.0
  3
$MODEL_SPACE
  1

  0
ENDBLK
  5
21
  8
0
  0
BLOCK
 67
     1
  8
0
  2
$PAPER_SPACE
 70
     0
 10
0.0
 20
0.0
 30
0.0
  3
$PAPER_SPACE
  1

  0
ENDBLK
  5
1D
 67
     1
  8
0
  0
BLOCK
  8
0
  2
_FILLED
 70
     0
 10
0.0
 20
0.0
 30
0.0
  3
_FILLED
  1

  0
SOLID
  5
B630
  8
0
  6
BYBLOCK
 62
     0
 10
0.0
 20
0.0
 30
0.0
 11
-1.0
 21
0.1666666667
 31
0.0
 12
-1.0
 22
-0.1666666667
 32
0.0
 13
-1.0
 23
-0.1666666667
 33
0.0
  0
ENDBLK
  5
B631
  8
0
  6
BYBLOCK
 62
     0
  0
BLOCK
  8
0
  2
A$CA6EFF870
 70
     2
 10
0.0
 20
0.0
 30
0.0
  3
A$CA6EFF870
  1

  0
ATTDEF
  5
FCC1
  8
DEFPOINTS
 10
0.0000000024469955
 20
-0.0000000142802605
 30
0.0
 40
0.001
  1
BATHROOM SINK FAUCET
  3

  2
PRODUCT
 70
     0
1001
ACDBATTR
1070
     0
1070
     1
  0
ATTDEF
  5
FCC2
  8
DEFPOINTS
 10
0.0000000024469955
 20
0.0016666523864046
 30
0.0
 40
0.001
  1
AVID
  3

  2
TRADENAME
 70
     0
1001
ACDBATTR
1070
     0
1070
     1
  0
ATTDEF
  5
FCC3
  8
DEFPOINTS
 10
0.0000000024469955
 20
0.0033333190530698
 30
0.0
 40
0.001
  1
K-97359T-4
  3

  2
MODELNUMBER
 70
     0
1001
ACDBATTR
1070
     0
1070
     1
  0
ENDBLK
  5
FCC7
  8
0
  0
ENDSEC
  0
SECTION
  2
ENTITIES
  0
ATTDEF
  5
AA11
  8
DEFPOINTS
 10
3707.8688181040311065
 20
142.9999713249941067
 30
0.0
 40
0.001
  1
K-97359BR-4ND
  3

  2
MODELNUMBER
 70
     0
1001
ACDBATTR
1070
     0
1070
     1
  0
ATTDEF
  5
AA12
  8
DEFPOINTS
 10
3707.8688181040311065
 20
142.9983046583274984
 30
0.0
 40
0.001
  1
AVID
  3

  2
TRADENAME
 70
     0
1001
ACDBATTR
1070
     0
1070
     1
  0
ATTDEF
  5
AA13
  8
DEFPOINTS
 10
3707.8688181040311065
 20
142.9966379916608048
 30
0.0
 40
0.001
  1
BATHROOM SINK FAUCET
  3

  2
PRODUCT
 70
     0
1001
ACDBATTR
1070
     0
1070
     1
  0
LINE
  5
FC78
  8
0
 10
3707.1570584013438747
 20
142.6813894049936096
 30
0.0
 11
3707.2603409263979302
 21
134.1653204789485017
 31
0.0
  0
ARC
  5
FC79
  8
0
 10
3717.9223005751809978
 20
134.1653204789485017
 30
0.0
 40
10.6619596487824602
 50
180.0
 51
181.6301567706744891
  0
ARC
  5
FC7A
  8
0
 10
3707.5959392531990488
 20
133.8769388582186934
 30
0.0
 40
0.3316193574110122
 50
182.579946539927306
 51
198.8762053495132136
  0
ARC
  5
FC7B
  8
0
 10
3707.4005563651671764
 20
133.809624134206814
 30
0.0
 40
0.1249671738522242
 50
198.6545832608402122
 51
246.2981937366022009
  0
ARC
  5
FC7C
  8
0
 10
3707.4106612776840848
 20
133.8447617905740969
 30
0.0
 40
0.1612765094762858
 50
248.0292885013047908
 51
269.7132907276927085
  0
LINE
  5
FC7E
  8
0
 10
3708.5801808909441206
 20
142.6813894049936096
 30
0.0
 11
3708.4768983658900652
 21
134.1653204789485017
 31
0.0
  0
ARC
  5
FC7F
  8
0
 10
3697.8149387171069975
 20
134.1653204789485017
 30
0.0
 40
10.6619596487824602
 50
358.3698432293253973
 51
0.0
  0
ARC
  5
FC80
  8
0
 10
3708.1413000390889465
 20
133.8769388582186934
 30
0.0
 40
0.3316193574110122
 50
341.1237946504867864
 51
357.4200534600727224
  0
ARC
  5
FC81
  8
0
 10
3708.3366829271208189
 20
133.809624134206814
 30
0.0
 40
0.1249671738522242
 50
293.7018062633978275
 51
341.3454167391582246
  0
ARC
  5
FC82
  8
0
 10
3708.3265780146048201
 20
133.8447617905740969
 30
0.0
 40
0.1612765094762858
 50
270.2867092723072915
 51
291.9707114986953229
  0
ARC
  5
FC84
  8
0
 10
3708.8804306697938955
 20
142.7128854679936012
 30
0.0
 40
0.0314960630000023
 50
270.0
 51
0.0
  0
ARC
  5
FC85
  8
0
 10
3708.8805319875818896
 20
142.964955289781301
 30
0.0
 40
0.0313949086993692
 50
359.8150944869851742
 51
90.1849055130196149
  0
LINE
  5
FC86
  8
0
 10
3706.8568086224940998
 20
142.6813894049936096
 30
0.0
 11
3708.8804306697938955
 21
142.6813894049936096
 31
0.0
  0
LINE
  5
FC87
  8
0
 10
3708.8804306697938955
 20
142.6813894049936096
 30
0.0
 11
3708.8804306697938955
 21
142.6813894049936096
 31
0.0
  0
LINE
  5
FC88
  8
0
 10
3708.9119267327951093
 20
142.9648539719935911
 30
0.0
 11
3708.9119267327951093
 21
142.7128854679936012
 31
0.0
  0
LINE
  5
FC89
  8
0
 10
3706.8568086224940998
 20
142.9963500349936112
 30
0.0
 11
3708.8804306697938955
 21
142.9963500349936112
 31
0.0
  0
ARC
  5
FC8A
  8
0
 10
3710.7938172819940519
 20
142.7128854679936012
 30
0.0
 40
0.0314960629999952
 50
179.9999999999934914
 51
270.0
  0
ARC
  5
FC8B
  8
0
 10
3710.7923456341582096
 20
142.9662912439044078
 30
0.0
 40
0.0300587966570623
 50
90.0348735666918856
 51
182.740662814869097
  0
LINE
  5
FC8C
  8
0
 10
3710.7623212189942024
 20
142.7128854679936012
 30
0.0
 11
3710.7623212189942024
 21
142.9648539719935911
 31
0.0
  0
LINE
  5
FC8D
  8
0
 10
3710.7938172819940519
 20
142.6813894049936096
 30
0.0
 11
3712.8174393291938031
 21
142.6813894049936096
 31
0.0
  0
LINE
  5
FC8E
  8
0
 10
3712.8174393291938031
 20
142.9963500349936112
 30
0.0
 11
3710.7923273386149958
 21
142.9963500349936112
 31
0.0
  0
ARC
  5
FC8F
  8
0
 10
3712.8174393291938031
 20
142.7128854679936012
 30
0.0
 40
0.0314960629999952
 50
270.0
 51
0.0000000000065138
  0
ARC
  5
FC90
  8
0
 10
3712.8181892243987932
 20
142.9656038671980127
 30
0.0
 40
0.030755311361391
 50
358.6028400686079749
 51
91.3971599314018164
  0
LINE
  5
FC91
  8
0
 10
3712.8489353921941074
 20
142.7128854679936012
 30
0.0
 11
3712.8489353921941074
 21
142.9648539719935911
 31
0.0
  0
ARC
  5
FC92
  8
0
 10
3706.8568086224940998
 20
142.7128854679936012
 30
0.0
 40
0.0314960630000023
 50
180.0
 51
270.0
  0
ARC
  5
FC93
  8
0
 10
3706.8568086224940998
 20
142.9648539719935911
 30
0.0
 40
0.0314960630000023
 50
90.0
 51
179.9999999999934914
  0
LINE
  5
FC94
  8
0
 10
3706.8568086224940998
 20
142.6813894049936096
 30
0.0
 11
3706.8568086224940998
 21
142.6813894049936096
 31
0.0
  0
LINE
  5
FC95
  8
0
 10
3706.8253125594937956
 20
142.9648539719935911
 30
0.0
 11
3706.8253125594937956
 21
142.7128854679936012
 31
0.0
  0
LINE
  5
FC96
  8
0
 10
3711.3056283055939275
 20
141.965269637700203
 30
0.0
 11
3711.3056283055939275
 21
142.6184579678937041
 31
0.0
  0
LINE
  5
FC97
  8
0
 10
3712.3056283055939275
 20
142.1315836761247056
 30
0.0
 11
3712.3056283055939275
 21
142.618457967894301
 31
0.0
  0
LINE
  5
FC98
  8
0
 10
3711.4272261784381044
 20
141.4680256255936115
 30
0.0
 11
3714.5199866043158181
 21
141.4680256255936115
 31
0.0
  0
LINE
  5
FC99
  8
0
 10
3714.78175436997617
 20
141.8429542449459859
 30
0.0
 11
3712.6551433066010759
 21
141.862473067781707
 31
0.0
  0
LINE
  5
FC9A
  8
0
 10
3712.2780698354881679
 20
142.6459783814935918
 30
0.0
 11
3711.3331867756987776
 21
142.6459783814935918
 31
0.0
  0
ARC
  5
FC9B
  8
0
 10
3712.2780012430739589
 20
142.6183511978082947
 30
0.0
 40
0.0276272688353916
 50
0.2214294352372025
 51
89.857747073110815
  0
LINE
  5
FC9C
  8
0
 10
3712.1993290929672185
 20
142.6459783814935918
 30
0.0
 11
3712.1993290930950025
 21
142.6735153893936001
 31
0.0
  0
ARC
  5
FC9D
  8
0
 10
3712.2072031088450785
 20
142.6735153893571066
 30
0.0
 40
0.0078740157500388
 50
90.0
 51
179.9999997339220101
  0
ARC
  5
FC9E
  8
0
 10
3711.3332553681129866
 20
142.6183511978082947
 30
0.0
 40
0.0276272688353916
 50
90.142252926889185
 51
179.7785705647627879
  0
LINE
  5
FC9F
  8
0
 10
3711.4119275182220008
 20
142.6459783814935918
 30
0.0
 11
3711.4119275180942168
 21
142.6735153893936001
 31
0.0
  0
ARC
  5
FCA0
  8
0
 10
3711.4040535023441407
 20
142.6735153893571066
 30
0.0
 40
0.0078740157500388
 50
0.0000002660779784
 51
90.0
  0
ARC
  5
FCA1
  8
0
 10
3712.8888912756001446
 20
141.9247239925772135
 30
0.0
 40
1.583782049883407
 50
178.5330379439552075
 51
189.3196099859758874
  0
ARC
  5
FCA2
  8
0
 10
3712.5199222852288585
 20
142.1013629891112089
 30
0.0
 40
0.2164144164125924
 50
171.9728303441121113
 51
249.7670480779239881
  0
ARC
  5
FCA3
  8
0
 10
3712.6466983279210581
 20
142.4466730470865059
 30
0.0
 40
0.5842610148594742
 50
249.812949086921094
 51
270.8281888982929786
  0
ARC
  5
FCA4
  8
0
 10
3714.7814562481939902
 20
141.8114595934935949
 30
0.0
 40
0.0314960624000036
 50
0.0000000000065138
 51
89.4576663352852535
  0
ARC
  5
FCA5
  8
0
 10
3711.6526603224260725
 20
141.7076746763808899
 30
0.0
 40
0.3290170524742206
 50
186.8831202621697116
 51
226.7506560194223084
  0
ARC
  5
FCA6
  8
0
 10
3714.4625621501982096
 20
141.8136853579883905
 30
0.0
 40
0.3503972296264158
 50
279.432402366273493
 51
359.6360480090042984
  0
ARC
  5
FCA7
  8
0
 10
3704.9434220102939435
 20
142.7128854679936012
 30
0.0
 40
0.0314960629999952
 50
270.0
 51
0.0000000000065138
  0
ARC
  5
FCA8
  8
0
 10
3704.94489365813115
 20
142.9662912439044078
 30
0.0
 40
0.0300587966570623
 50
357.259337185130903
 51
89.9651264333081286
  0
LINE
  5
FCA9
  8
0
 10
3704.974918073293793
 20
142.7128854679936012
 30
0.0
 11
3704.974918073293793
 21
142.9648539719935911
 31
0.0
  0
LINE
  5
FCAA
  8
0
 10
3704.9434220102939435
 20
142.6813894049936096
 30
0.0
 11
3702.9197999630941922
 21
142.6813894049936096
 31
0.0
  0
LINE
  5
FCAB
  8
0
 10
3702.9197999630941922
 20
142.9963500349936112
 30
0.0
 11
3704.9449119536729995
 21
142.9963500349936112
 31
0.0
  0
ARC
  5
FCAC
  8
0
 10
3702.9197999630941922
 20
142.7128854679936012
 30
0.0
 40
0.0314960629999952
 50
179.9999999999934914
 51
270.0
  0
ARC
  5
FCAD
  8
0
 10
3702.9190500678901117
 20
142.9656038671980127
 30
0.0
 40
0.030755311361391
 50
88.6028400685981694
 51
181.3971599313919967
  0
LINE
  5
FCAE
  8
0
 10
3702.8883039000938879
 20
142.7128854679936012
 30
0.0
 11
3702.8883039000938879
 21
142.9648539719935911
 31
0.0
  0
LINE
  5
FCAF
  8
0
 10
3704.4316109866940678
 20
141.965269637700203
 30
0.0
 11
3704.4316109866940678
 21
142.6184579678937041
 31
0.0
  0
LINE
  5
FCB0
  8
0
 10
3703.4316109866940678
 20
142.1315836761247056
 30
0.0
 11
3703.4316109866940678
 21
142.618457967894301
 31
0.0
  0
LINE
  5
FCB1
  8
0
 10
3704.3100131138498909
 20
141.4680256255936115
 30
0.0
 11
3701.2172526879730867
 21
141.4680256255936115
 31
0.0
  0
LINE
  5
FCB2
  8
0
 10
3700.9554849223118254
 20
141.8429542449459859
 30
0.0
 11
3703.0820959856869194
 21
141.862473067781707
 31
0.0
  0
LINE
  5
FCB3
  8
0
 10
3703.4591694567998275
 20
142.6459783814935918
 30
0.0
 11
3704.4040525165892177
 21
142.6459783814935918
 31
0.0
  0
ARC
  5
FCB4
  8
0
 10
3703.4592380492140364
 20
142.6183511978082947
 30
0.0
 40
0.0276272688353916
 50
90.142252926889185
 51
179.7785705647627879
  0
LINE
  5
FCB5
  8
0
 10
3703.5379101993207769
 20
142.6459783814935918
 30
0.0
 11
3703.5379101991939024
 21
142.6735153893936001
 31
0.0
  0
ARC
  5
FCB6
  8
0
 10
3703.5300361834438263
 20
142.6735153893571066
 30
0.0
 40
0.0078740157500388
 50
0.0000002660779784
 51
90.0
  0
ARC
  5
FCB7
  8
0
 10
3704.4039839241750087
 20
142.6183511978082947
 30
0.0
 40
0.0276272688353916
 50
0.2214294352372025
 51
89.857747073110815
  0
LINE
  5
FCB8
  8
0
 10
3704.3253117740659945
 20
142.6459783814935918
 30
0.0
 11
3704.3253117741937785
 21
142.6735153893936001
 31
0.0
  0
ARC
  5
FCB9
  8
0
 10
3704.3331857899438546
 20
142.6735153893571066
 30
0.0
 40
0.0078740157500388
 50
90.0
 51
179.9999997339220101
  0
ARC
  5
FCBA
  8
0
 10
3702.8483480166878508
 20
141.9247239925772135
 30
0.0
 40
1.583782049883407
 50
350.6803900140241126
 51
1.4669620560447589
  0
ARC
  5
FCBB
  8
0
 10
3703.2173170070600463
 20
142.1013629891112089
 30
0.0
 40
0.2164144164125924
 50
290.2329519220759835
 51
8.0271696558878567
  0
ARC
  5
FCBC
  8
0
 10
3703.0905409643669373
 20
142.4466730470865059
 30
0.0
 40
0.5842610148594742
 50
269.1718111017070214
 51
290.187050913078906
  0
ARC
  5
FCBD
  8
0
 10
3700.9557830440940052
 20
141.8114595934935949
 30
0.0
 40
0.0314960624000036
 50
90.5423336647147323
 51
179.9999999999934914
  0
ARC
  5
FCBE
  8
0
 10
3704.084578969866925
 20
141.7076746763783888
 30
0.0
 40
0.3290170524689828
 50
313.2493439802415764
 51
353.1168797381558875
  0
ARC
  5
FCBF
  8
0
 10
3701.2746771420897858
 20
141.8136853579883905
 30
0.0
 40
0.3503972296264158
 50
180.3639519909957869
 51
260.567597633726507
  0
ARC
  5
FD56
  8
0
 10
3707.8686196461408144
 20
160.1437185433086086
 30
0.0
 40
26.4642079632565412
 50
269.0067098281537028
 51
270.9932901718464109
  0
ENDSEC
  0
EOF
