  0
SECTION
  2
HEADER
  9
$ACADVER
  1
AC1009
  9
$INSBASE
 10
4314.420562142307972
 20
148.1984766358673085
 30
0.0
  9
$EXTMIN
 10
4307.393197403056547
 20
148.1931564816183027
 30
0.0
  9
$EXTMAX
 10
4321.4483169584573261
 20
158.0259175806673113
 30
0.0
  9
$LIMMIN
 10
0.0
 20
0.0
  9
$LIMMAX
 10
11.6929133858000007
 20
8.2677165353999982
  9
$ORTHOMODE
 70
     1
  9
$REGENMODE
 70
     1
  9
$FILLMODE
 70
     1
  9
$QTEXTMODE
 70
     0
  9
$MIRRTEXT
 70
     0
  9
$DRAGMODE
 70
     2
  9
$LTSCALE
 40
0.6431102362
  9
$OSMODE
 70
  4095
  9
$ATTMODE
 70
     1
  9
$TEXTSIZE
 40
0.2
  9
$TRACEWID
 40
0.05
  9
$TEXTSTYLE
  7
STANDARD
  9
$CLAYER
  8
0
  9
$CELTYPE
  6
BYLAYER
  9
$CECOLOR
 62
   256
  9
$DIMSCALE
 40
1.0
  9
$DIMASZ
 40
0.1875
  9
$DIMEXO
 40
0.0625
  9
$DIMDLI
 40
0.4443307087
  9
$DIMRND
 40
0.0
  9
$DIMDLE
 40
0.0
  9
$DIMEXE
 40
0.125
  9
$DIMTP
 40
0.01
  9
$DIMTM
 40
0.01
  9
$DIMTXT
 40
2.0
  9
$DIMCEN
 40
0.1052362205
  9
$DIMTSZ
 40
0.0
  9
$DIMTOL
 70
     1
  9
$DIMLIM
 70
     0
  9
$DIMTIH
 70
     1
  9
$DIMTOH
 70
     1
  9
$DIMSE1
 70
     0
  9
$DIMSE2
 70
     0
  9
$DIMTAD
 70
     0
  9
$DIMZIN
 70
     0
  9
$DIMBLK
  1

  9
$DIMASO
 70
     1
  9
$DIMSHO
 70
     1
  9
$DIMPOST
  1
\X
  9
$DIMAPOST
  1

  9
$DIMALT
 70
     1
  9
$DIMALTD
 70
     2
  9
$DIMALTF
 40
25.3999999999999986
  9
$DIMLFAC
 40
1.0
  9
$DIMTOFL
 70
     0
  9
$DIMTVP
 40
0.0
  9
$DIMTIX
 70
     0
  9
$DIMSOXD
 70
     0
  9
$DIMSAH
 70
     0
  9
$DIMBLK1
  1

  9
$DIMBLK2
  1

  9
$DIMSTYLE
  2
STANDARD
  9
$DIMCLRD
 70
     0
  9
$DIMCLRE
 70
     0
  9
$DIMCLRT
 70
     0
  9
$DIMTFAC
 40
1.0
  9
$DIMGAP
 40
0.09
  9
$LUNITS
 70
     2
  9
$LUPREC
 70
     4
  9
$SKETCHINC
 40
0.1
  9
$FILLETRAD
 40
0.0
  9
$AUNITS
 70
     0
  9
$AUPREC
 70
     0
  9
$MENU
  1
.
  9
$ELEVATION
 40
0.0
  9
$PELEVATION
 40
0.0
  9
$THICKNESS
 40
0.0
  9
$LIMCHECK
 70
     0
  9
$BLIPMODE
 70
     0
  9
$CHAMFERA
 40
0.0
  9
$CHAMFERB
 40
0.0
  9
$SKPOLY
 70
     0
  9
$TDCREATE
 40
2458060.468368056230247
  9
$TDUPDATE
 40
2458967.6215856480412185
  9
$TDINDWG
 40
0.3074491898
  9
$TDUSRTIMER
 40
0.3074491898
  9
$USRTIMER
 70
     1
  9
$ANGBASE
 50
0.0
  9
$ANGDIR
 70
     0
  9
$PDMODE
 70
     0
  9
$PDSIZE
 40
0.3125
  9
$PLINEWID
 40
0.0
  9
$COORDS
 70
     1
  9
$SPLFRAME
 70
     0
  9
$SPLINETYPE
 70
     6
  9
$SPLINESEGS
 70
     8
  9
$ATTDIA
 70
     1
  9
$ATTREQ
 70
     1
  9
$HANDLING
 70
     1
  9
$HANDSEED
  5
71AE
  9
$SURFTAB1
 70
     6
  9
$SURFTAB2
 70
     6
  9
$SURFTYPE
 70
     6
  9
$SURFU
 70
     6
  9
$SURFV
 70
     6
  9
$UCSNAME
  2

  9
$UCSORG
 10
0.0
 20
0.0
 30
0.0
  9
$UCSXDIR
 10
1.0
 20
0.0
 30
0.0
  9
$UCSYDIR
 10
0.0
 20
1.0
 30
0.0
  9
$PUCSNAME
  2

  9
$PUCSORG
 10
0.0
 20
0.0
 30
0.0
  9
$PUCSXDIR
 10
1.0
 20
0.0
 30
0.0
  9
$PUCSYDIR
 10
0.0
 20
1.0
 30
0.0
  9
$USERI1
 70
     0
  9
$USERI2
 70
     0
  9
$USERI3
 70
     0
  9
$USERI4
 70
     0
  9
$USERI5
 70
     0
  9
$USERR1
 40
0.0
  9
$USERR2
 40
0.0
  9
$USERR3
 40
0.0
  9
$USERR4
 40
0.0
  9
$USERR5
 40
0.0
  9
$WORLDVIEW
 70
     1
  9
$SHADEDGE
 70
     3
  9
$SHADEDIF
 70
    70
  9
$TILEMODE
 70
     1
  9
$MAXACTVP
 70
    64
  9
$PLIMCHECK
 70
     0
  9
$PEXTMIN
 10
1.0000000000000000E+20
 20
1.0000000000000000E+20
 30
1.0000000000000000E+20
  9
$PEXTMAX
 10
-1.0000000000000000E+20
 20
-1.0000000000000000E+20
 30
-1.0000000000000000E+20
  9
$PLIMMIN
 10
0.0
 20
0.0
  9
$PLIMMAX
 10
12.0
 20
9.0
  9
$UNITMODE
 70
     0
  9
$VISRETAIN
 70
     1
  9
$PLINEGEN
 70
     0
  9
$PSLTSCALE
 70
     1
  0
ENDSEC
  0
SECTION
  2
TABLES
  0
TABLE
  2
VPORT
 70
     1
  0
VPORT
  2
*ACTIVE
 70
     0
 10
0.0
 20
0.0
 11
1.0
 21
1.0
 12
0.0
 22
0.0
 13
0.0
 23
0.0
 14
1.0
 24
1.0
 15
0.0
 25
0.0
 16
0.0
 26
0.0
 36
59.9936732298263991
 17
4314.420654296875
 27
153.1095405821176882
 37
0.0
 40
17.1540573029710508
 41
2.7303822937625748
 42
50.0
 43
0.0
 44
0.0
 50
0.0
 51
0.0
 71
     0
 72
   100
 73
     1
 74
     1
 75
     0
 76
     0
 77
     0
 78
     0
  0
ENDTAB
  0
TABLE
  2
LTYPE
 70
     2
  0
LTYPE
  2
CONTINUOUS
 70
     0
  3
Solid line
 72
    65
 73
     0
 40
0.0
  0
LTYPE
  2
PHANTOM2
 70
     0
  3
___ _ _ ___ _ _ ___ _ _ ___ _ _
 72
    65
 73
     6
 40
1.25
 49
0.625
 49
-0.125
 49
0.125
 49
-0.125
 49
0.125
 49
-0.125
  0
ENDTAB
  0
TABLE
  2
LAYER
 70
     2
  0
LAYER
  2
0
 70
     0
 62
   255
  6
CONTINUOUS
  0
LAYER
  2
DEFPOINTS
 70
     0
 62
     7
  6
CONTINUOUS
  0
ENDTAB
  0
TABLE
  2
STYLE
 70
     1
  0
STYLE
  2
STANDARD
 70
     0
 40
0.0
 41
0.8
 50
0.0
 71
     0
 42
0.2
  3
txt
  4

  0
ENDTAB
  0
TABLE
  2
VIEW
 70
     0
  0
ENDTAB
  0
TABLE
  2
UCS
 70
     0
  0
ENDTAB
  0
TABLE
  2
APPID
 70
     9
  0
APPID
  2
ACAD
 70
     0
  0
APPID
  2
ACAD_MLEADERVER
 70
     0
  0
APPID
  2
ACAD_EXEMPT_FROM_CAD_STANDARDS
 70
     0
  0
APPID
  2
ACAD_NAV_VCDISPLAY
 70
     0
  0
APPID
  2
ACAECLAYERSTANDARD
 70
     0
  0
APPID
  2
ACCMTRANSPARENCY
 70
     0
  0
APPID
  2
ACAD_DSTYLE_DIMJAG
 70
     0
  0
APPID
  2
ACAD_DSTYLE_DIMTALN
 70
     0
  0
APPID
  2
ACDBATTR
 70
     0
  0
ENDTAB
  0
TABLE
  2
DIMSTYLE
 70
     1
  0
DIMSTYLE
  2
STANDARD
 70
     0
  3

  4

  5

  6

  7

 40
1.0
 41
0.1875
 42
0.0625
 43
0.38
 44
0.125
 45
0.0
 46
0.0
 47
0.01
 48
0.01
140
0.15625
141
0.09
142
0.0
143
25.3999999999999986
144
1.0
145
0.0
146
1.0
147
0.09
 71
     1
 72
     0
 73
     1
 74
     1
 75
     0
 76
     0
 77
     0
 78
     4
170
     0
171
     2
172
     0
173
     0
174
     0
175
     0
176
     0
177
     0
178
     0
  0
ENDTAB
  0
ENDSEC
  0
SECTION
  2
BLOCKS
  0
BLOCK
  8
0
  2
$MODEL_SPACE
 70
     0
 10
0.0
 20
0.0
 30
0.0
  3
$MODEL_SPACE
  1

  0
ENDBLK
  5
21
  8
0
  0
BLOCK
 67
     1
  8
0
  2
$PAPER_SPACE
 70
     0
 10
0.0
 20
0.0
 30
0.0
  3
$PAPER_SPACE
  1

  0
ENDBLK
  5
1D
 67
     1
  8
0
  0
ENDSEC
  0
SECTION
  2
ENTITIES
  0
ATTDEF
  5
3930
  8
DEFPOINTS
 10
4314.4151010405221314
 20
148.1964898149516046
 30
0.0
 40
0.001
  1
K-97360T-B4
  3

  2
MODELNUMBER
 70
     0
1001
ACDBATTR
1070
     0
1070
     1
  0
ATTDEF
  5
3931
  8
DEFPOINTS
 10
4314.4151010405221314
 20
148.1948231482849963
 30
0.0
 40
0.001
  1
AVID
  3

  2
TRADENAME
 70
     0
1001
ACDBATTR
1070
     0
1070
     1
  0
ATTDEF
  5
3932
  8
DEFPOINTS
 10
4314.4151010405221314
 20
148.1931564816183027
 30
0.0
 40
0.001
  1
BATH FAUCET
  3

  2
PRODUCT
 70
     0
1001
ACDBATTR
1070
     0
1070
     1
  0
LINE
  5
6DFA
  8
0
 10
4307.393197403056547
 20
148.4937522263672918
 30
0.0
 11
4307.393197403056547
 21
148.2181616751672948
 31
0.0
  0
LINE
  5
6DFB
  8
0
 10
4308.2199690565566925
 20
148.5770986830673053
 30
0.0
 11
4308.2233054100579466
 21
148.5134372657672941
 31
0.0
  0
LINE
  5
6DFC
  8
0
 10
4308.1215438597573666
 20
148.5770986830673053
 30
0.0
 11
4308.1215438597573666
 21
158.0259175806673113
 31
0.0
  0
LINE
  5
6DFD
  8
0
 10
4308.5349296865570068
 20
157.2562325413672966
 30
0.0
 11
4308.5349296865570068
 21
157.3113506515672952
 31
0.0
  0
LINE
  5
6DFE
  8
0
 10
4308.5349296865570068
 20
157.6499333287673039
 30
0.0
 11
4308.5349296865570068
 21
157.7050514389673026
 31
0.0
  0
LINE
  5
6DFF
  8
0
 10
4309.2239060644578785
 20
148.5770986830673053
 30
0.0
 11
4309.2239060644578785
 21
158.0259175806673113
 31
0.0
  0
LINE
  5
6E00
  8
0
 10
4309.1254808676567336
 20
148.5770986830673053
 30
0.0
 11
4309.122144514158208
 21
148.5134372657672941
 31
0.0
  0
LINE
  5
6E01
  8
0
 10
4307.4128802728573646
 20
148.1984766358673085
 30
0.0
 11
4309.9325674699575757
 21
148.1984766358673085
 31
0.0
  0
LINE
  5
6E02
  8
0
 10
4313.1607196344566546
 20
148.1984766358673085
 30
0.0
 11
4315.6804046501583798
 21
148.1984766358673085
 31
0.0
  0
LINE
  5
6E03
  8
0
 10
4318.908944696357139
 20
148.1984766358673085
 30
0.0
 11
4321.4286318935573945
 21
148.1984766358673085
 31
0.0
  0
LINE
  5
6E04
  8
0
 10
4321.4286319190568975
 20
148.5134372657672941
 30
0.0
 11
4318.9089446707575917
 21
148.5134372657672941
 31
0.0
  0
LINE
  5
6E05
  8
0
 10
4315.6804046612569437
 20
148.5134372657672941
 30
0.0
 11
4313.1607196233580908
 21
148.5134372657672941
 31
0.0
  0
LINE
  5
6E06
  8
0
 10
4309.9325674813580918
 20
148.5134372657672941
 30
0.0
 11
4307.412882442056798
 21
148.5134372657672941
 31
0.0
  0
LINE
  5
6E07
  8
0
 10
4308.1215438597573666
 20
148.5770986830673053
 30
0.0
 11
4309.2239060644578785
 21
148.5770986830673053
 31
0.0
  0
LINE
  5
6E08
  8
0
 10
4309.9522525211568791
 20
148.4937522263672918
 30
0.0
 11
4309.9522525211568791
 21
148.2181616751672948
 31
0.0
  0
LINE
  5
6E09
  8
0
 10
4313.1410345832573512
 20
148.4937522263672918
 30
0.0
 11
4313.1410345832573512
 21
148.2181616751672948
 31
0.0
  0
LINE
  5
6E0A
  8
0
 10
4313.4559952131567115
 20
152.899070113067296
 30
0.0
 11
4313.4559952131567115
 21
148.5409974292672928
 31
0.0
  0
LINE
  5
6E0B
  8
0
 10
4315.1225838012569511
 20
155.0233412655801999
 30
0.0
 11
4313.7185404833580833
 21
155.0233412655801999
 31
0.0
  0
LINE
  5
6E0C
  8
0
 10
4318.8892596314581169
 20
148.2181611502672922
 30
0.0
 11
4318.8892596314581169
 21
148.4937522263672918
 31
0.0
  0
LINE
  5
6E0D
  8
0
 10
4308.4483155132566026
 20
157.3428467145672869
 30
0.0
 11
4308.503433623557612
 21
157.3428467145672869
 31
0.0
  0
LINE
  5
6E0E
  8
0
 10
4308.503433623557612
 20
157.6184372657673123
 30
0.0
 11
4308.4483155132566026
 21
157.6184372657673123
 31
0.0
  0
LINE
  5
6E0F
  8
0
 10
4319.2039520427579191
 20
148.5134372657672941
 30
0.0
 11
4319.2039520427579191
 21
151.1275729235672998
 31
0.0
  0
LINE
  5
6E10
  8
0
 10
4309.2239060644578785
 20
158.0259175806673113
 30
0.0
 11
4308.1215438597573666
 21
158.0259175806673113
 31
0.0
  0
ARC
  5
6E11
  8
0
 10
4313.4864518665208379
 20
148.5438939591342091
 30
0.0
 40
0.030594078174927
 50
185.4326811869748894
 51
264.568110171027115
  0
ARC
  5
6E12
  8
0
 10
4313.1625488211957418
 20
148.4919230276539963
 30
0.0
 40
0.0215918597237444
 50
94.8597521550543092
 51
175.1402455164320884
  0
ARC
  5
6E13
  8
0
 10
4309.9318584002758143
 20
148.4930431448715069
 30
0.0
 40
0.0204064441559506
 50
1.991310042832942
 51
88.0086911214050787
  0
ARC
  5
6E14
  8
0
 10
4307.4136696606137775
 20
148.492965008210092
 30
0.0
 40
0.0204873873862149
 50
92.2021052993385268
 51
177.7978947006662054
  0
ARC
  5
6E15
  8
0
 10
4313.1617869279198203
 20
148.2192289811746093
 30
0.0
 40
0.0207797726428857
 50
182.9441635660967052
 51
267.0558710703493261
  0
ARC
  5
6E16
  8
0
 10
4309.9317930228307887
 20
148.2189361346621865
 30
0.0
 40
0.0204741510029386
 50
272.1677646037517775
 51
357.8322007598115988
  0
ARC
  5
6E17
  8
0
 10
4307.4135057070379844
 20
148.2187848710379114
 30
0.0
 40
0.0203178636588274
 50
181.7576697476688139
 51
268.236015302117778
  0
CIRCLE
  5
6E18
  8
0
 10
4308.6727249620571456
 20
153.2365475019672942
 30
0.0
 40
0.2952755906
  0
ARC
  5
6E19
  8
0
 10
4308.4483155132566026
 20
157.2562325413672966
 30
0.0
 40
0.0866141732
 50
89.9999999993225543
 51
0.0
  0
ARC
  5
6E1A
  8
0
 10
4308.4483155132566026
 20
157.7050514389673026
 30
0.0
 40
0.0866141732
 50
0.0
 51
270.0
  0
ARC
  5
6E1B
  8
0
 10
4308.503433623557612
 20
157.3113506515672952
 30
0.0
 40
0.031496063
 50
0.0
 51
90.0
  0
ARC
  5
6E1C
  8
0
 10
4308.503433623557612
 20
157.6499333287673039
 30
0.0
 40
0.031496063
 50
270.0000000056800218
 51
0.0
  0
ARC
  5
6E1D
  8
0
 10
4318.9102723997648354
 20
148.4924244974594103
 30
0.0
 40
0.0210546739707307
 50
93.6155284700692363
 51
176.3844715299134123
  0
ARC
  5
6E1E
  8
0
 10
4318.9108942267966995
 20
148.220111285734589
 30
0.0
 40
0.0217223098176543
 50
185.1507031414707001
 51
264.8508991782347266
  0
CIRCLE
  5
6E1F
  8
0
 10
4308.4476073633850319
 20
157.7041852690281871
 30
0.0
 40
0.040205795643535
  0
CIRCLE
  5
6E20
  8
0
 10
4308.4476073633850319
 20
157.2558044067955052
 30
0.0
 40
0.040205795643535
  0
LINE
  5
6E21
  8
0
 10
4308.8105202375581939
 20
157.2562325413672966
 30
0.0
 11
4308.8105202375581939
 21
157.3113506515672952
 31
0.0
  0
LINE
  5
6E22
  8
0
 10
4308.8105202375581939
 20
157.6499333287673039
 30
0.0
 11
4308.8105202375581939
 21
157.7050514389673026
 31
0.0
  0
LINE
  5
6E23
  8
0
 10
4308.8971344108576886
 20
157.3428467145672869
 30
0.0
 11
4308.8420163005575887
 21
157.3428467145672869
 31
0.0
  0
LINE
  5
6E24
  8
0
 10
4308.8420163005575887
 20
157.6184372657673123
 30
0.0
 11
4308.8971344108576886
 21
157.6184372657673123
 31
0.0
  0
ARC
  5
6E25
  8
0
 10
4308.8971344108576886
 20
157.2562325413672966
 30
0.0
 40
0.0866141732
 50
180.0
 51
90.0000000006774314
  0
ARC
  5
6E26
  8
0
 10
4308.8971344108576886
 20
157.7050514389673026
 30
0.0
 40
0.0866141732
 50
270.0
 51
180.0
  0
ARC
  5
6E27
  8
0
 10
4308.8420163005575887
 20
157.3113506515672952
 30
0.0
 40
0.031496063
 50
90.0
 51
180.0
  0
ARC
  5
6E28
  8
0
 10
4308.8420163005575887
 20
157.6499333287673039
 30
0.0
 40
0.031496063
 50
180.0
 51
269.9999999943199782
  0
CIRCLE
  5
6E29
  8
0
 10
4308.8978425607310783
 20
157.7041852690281871
 30
0.0
 40
0.040205795643535
  0
CIRCLE
  5
6E2A
  8
0
 10
4308.8978425607310783
 20
157.2558044067955052
 30
0.0
 40
0.040205795643535
  0
CIRCLE
  5
6E2B
  8
0
 10
4308.5428119203515962
 20
156.9983117996881106
 30
0.0
 40
0.0216175107223788
  0
CIRCLE
  5
6E2C
  8
0
 10
4308.5428119203515962
 20
156.9983117996881106
 30
0.0
 40
0.0412245820280331
  0
CIRCLE
  5
6E2D
  8
0
 10
4308.5471643215150834
 20
156.9921020717881106
 30
0.0
 40
0.0551245610288439
  0
CIRCLE
  5
6E2E
  8
0
 10
4308.5481247960105975
 20
156.9920695651589995
 30
0.0
 40
0.0616092334274223
  0
CIRCLE
  5
6E2F
  8
0
 10
4308.7947722061580862
 20
156.9984146644173109
 30
0.0
 40
0.0216175107223788
  0
CIRCLE
  5
6E30
  8
0
 10
4308.7947722061580862
 20
156.9984146644173109
 30
0.0
 40
0.0412245820280331
  0
CIRCLE
  5
6E31
  8
0
 10
4308.7991246073206639
 20
156.9922049365173109
 30
0.0
 40
0.0551245610288439
  0
CIRCLE
  5
6E32
  8
0
 10
4308.800085081817997
 20
156.9921724298880861
 30
0.0
 40
0.0616092334274223
  0
CIRCLE
  5
6E33
  8
0
 10
4308.4139271872281824
 20
156.8733363778312082
 30
0.0
 40
0.0216175107223788
  0
CIRCLE
  5
6E34
  8
0
 10
4308.4139271872281824
 20
156.8733363778312082
 30
0.0
 40
0.0412245820280331
  0
CIRCLE
  5
6E35
  8
0
 10
4308.4182795883916697
 20
156.8671266499312082
 30
0.0
 40
0.0551245610288439
  0
CIRCLE
  5
6E36
  8
0
 10
4308.4192400628880932
 20
156.8670941433020971
 30
0.0
 40
0.0616092334274223
  0
CIRCLE
  5
6E37
  8
0
 10
4308.6668055043855929
 20
156.8734311916931006
 30
0.0
 40
0.0216175107223788
  0
CIRCLE
  5
6E38
  8
0
 10
4308.6668055043855929
 20
156.8734311916931006
 30
0.0
 40
0.0412245820280331
  0
CIRCLE
  5
6E39
  8
0
 10
4308.6711579055499897
 20
156.8672214637931006
 30
0.0
 40
0.0551245610288439
  0
CIRCLE
  5
6E3A
  8
0
 10
4308.6721183800473227
 20
156.8671889571639895
 30
0.0
 40
0.0616092334274223
  0
CIRCLE
  5
6E3B
  8
0
 10
4308.921044093061937
 20
156.874979496380405
 30
0.0
 40
0.0216175107223788
  0
CIRCLE
  5
6E3C
  8
0
 10
4308.921044093061937
 20
156.874979496380405
 30
0.0
 40
0.0412245820280331
  0
CIRCLE
  5
6E3D
  8
0
 10
4308.9253964942254242
 20
156.868769768480405
 30
0.0
 40
0.0551245610288439
  0
CIRCLE
  5
6E3E
  8
0
 10
4308.9263569687209383
 20
156.8687372618512086
 30
0.0
 40
0.0616092334274223
  0
CIRCLE
  5
6E3F
  8
0
 10
4308.54233741923872
 20
156.7477972607532024
 30
0.0
 40
0.0216175107223788
  0
CIRCLE
  5
6E40
  8
0
 10
4308.54233741923872
 20
156.7477972607532024
 30
0.0
 40
0.0412245820280331
  0
CIRCLE
  5
6E41
  8
0
 10
4308.5466898204022073
 20
156.7415875328532024
 30
0.0
 40
0.0551245610288439
  0
CIRCLE
  5
6E42
  8
0
 10
4308.5476502948977213
 20
156.7415550262240913
 30
0.0
 40
0.0616092334274223
  0
CIRCLE
  5
6E43
  8
0
 10
4308.7947722061580862
 20
156.7452394120172983
 30
0.0
 40
0.0216175107223788
  0
CIRCLE
  5
6E44
  8
0
 10
4308.7947722061580862
 20
156.7452394120172983
 30
0.0
 40
0.0412245820280331
  0
CIRCLE
  5
6E45
  8
0
 10
4308.7991246073206639
 20
156.7390296841172983
 30
0.0
 40
0.0551245610288439
  0
CIRCLE
  5
6E46
  8
0
 10
4308.800085081817997
 20
156.7389971774881019
 30
0.0
 40
0.0616092334274223
  0
CIRCLE
  5
6E47
  8
0
 10
4308.4144299959489217
 20
156.6201960841158893
 30
0.0
 40
0.0216175107223788
  0
CIRCLE
  5
6E48
  8
0
 10
4308.4144299959489217
 20
156.6201960841158893
 30
0.0
 40
0.0412245820280331
  0
CIRCLE
  5
6E49
  8
0
 10
4308.4187823971124089
 20
156.6139863562158894
 30
0.0
 40
0.0551245610288439
  0
CIRCLE
  5
6E4A
  8
0
 10
4308.4197428716088325
 20
156.6139538495868067
 30
0.0
 40
0.0616092334274223
  0
CIRCLE
  5
6E4B
  8
0
 10
4308.667470698186662
 20
156.6195361342172987
 30
0.0
 40
0.0216175107223788
  0
CIRCLE
  5
6E4C
  8
0
 10
4308.667470698186662
 20
156.6195361342172987
 30
0.0
 40
0.0412245820280331
  0
CIRCLE
  5
6E4D
  8
0
 10
4308.6718230993510588
 20
156.6133264063172987
 30
0.0
 40
0.0551245610288439
  0
CIRCLE
  5
6E4E
  8
0
 10
4308.6727835738483918
 20
156.6132938996881876
 30
0.0
 40
0.0616092334274223
  0
CIRCLE
  5
6E4F
  8
0
 10
4308.9209310401583934
 20
156.6204889851420035
 30
0.0
 40
0.0216175107223788
  0
CIRCLE
  5
6E50
  8
0
 10
4308.9209310401583934
 20
156.6204889851420035
 30
0.0
 40
0.0412245820280331
  0
CIRCLE
  5
6E51
  8
0
 10
4308.9252834413209712
 20
156.6142792572420035
 30
0.0
 40
0.0551245610288439
  0
CIRCLE
  5
6E52
  8
0
 10
4308.9262439158173947
 20
156.6142467506128924
 30
0.0
 40
0.0616092334274223
  0
CIRCLE
  5
6E53
  8
0
 10
4308.5416644777560577
 20
156.4951891737094911
 30
0.0
 40
0.0216175107223788
  0
CIRCLE
  5
6E54
  8
0
 10
4308.5416644777560577
 20
156.4951891737094911
 30
0.0
 40
0.0412245820280331
  0
CIRCLE
  5
6E55
  8
0
 10
4308.5460168789204545
 20
156.4889794458094912
 30
0.0
 40
0.0551245610288439
  0
CIRCLE
  5
6E56
  8
0
 10
4308.546977353415059
 20
156.4889469391802947
 30
0.0
 40
0.0616092334274223
  0
CIRCLE
  5
6E57
  8
0
 10
4308.7947722061580862
 20
156.4944403792673029
 30
0.0
 40
0.0216175107223788
  0
CIRCLE
  5
6E58
  8
0
 10
4308.7947722061580862
 20
156.4944403792673029
 30
0.0
 40
0.0412245820280331
  0
CIRCLE
  5
6E59
  8
0
 10
4308.7991246073206639
 20
156.4882306513673029
 30
0.0
 40
0.0551245610288439
  0
CIRCLE
  5
6E5A
  8
0
 10
4308.800085081817997
 20
156.4881981447381065
 30
0.0
 40
0.0616092334274223
  0
CIRCLE
  5
6E5B
  8
0
 10
4308.4159986440363355
 20
156.3652689094280106
 30
0.0
 40
0.0216175107223788
  0
CIRCLE
  5
6E5C
  8
0
 10
4308.4159986440363355
 20
156.3652689094280106
 30
0.0
 40
0.0412245820280331
  0
CIRCLE
  5
6E5D
  8
0
 10
4308.4203510451989132
 20
156.3590591815280106
 30
0.0
 40
0.0551245610288439
  0
CIRCLE
  5
6E5E
  8
0
 10
4308.4213115196971557
 20
156.3590266748988995
 30
0.0
 40
0.0616092334274223
  0
CIRCLE
  5
6E5F
  8
0
 10
4308.6727249620571456
 20
156.3690783347217064
 30
0.0
 40
0.0216175107223788
  0
CIRCLE
  5
6E60
  8
0
 10
4308.6727249620571456
 20
156.3690783347217064
 30
0.0
 40
0.0412245820280331
  0
CIRCLE
  5
6E61
  8
0
 10
4308.6770773632206328
 20
156.3628686068217917
 30
0.0
 40
0.0551245610288439
  0
CIRCLE
  5
6E62
  8
0
 10
4308.6780378377179659
 20
156.3628361001925953
 30
0.0
 40
0.0616092334274223
  0
CIRCLE
  5
6E63
  8
0
 10
4308.9194056271180671
 20
156.3670627747270032
 30
0.0
 40
0.0216175107223788
  0
CIRCLE
  5
6E64
  8
0
 10
4308.9194056271180671
 20
156.3670627747270032
 30
0.0
 40
0.0412245820280331
  0
CIRCLE
  5
6E65
  8
0
 10
4308.9237580282806448
 20
156.3608530468270033
 30
0.0
 40
0.0551245610288439
  0
CIRCLE
  5
6E66
  8
0
 10
4308.9247185027788873
 20
156.3608205401978921
 30
0.0
 40
0.0616092334274223
  0
CIRCLE
  5
6E67
  8
0
 10
4308.5401982685516487
 20
156.2429424580614921
 30
0.0
 40
0.0216175107223788
  0
CIRCLE
  5
6E68
  8
0
 10
4308.5401982685516487
 20
156.2429424580614921
 30
0.0
 40
0.0412245820280331
  0
CIRCLE
  5
6E69
  8
0
 10
4308.5445506697160454
 20
156.2367327301614921
 30
0.0
 40
0.0551245610288439
  0
CIRCLE
  5
6E6A
  8
0
 10
4308.5455111442133784
 20
156.2367002235322957
 30
0.0
 40
0.0616092334274223
  0
CIRCLE
  5
6E6B
  8
0
 10
4308.7944594678083376
 20
156.2440958942401039
 30
0.0
 40
0.0216175107223788
  0
CIRCLE
  5
6E6C
  8
0
 10
4308.7944594678083376
 20
156.2440958942401039
 30
0.0
 40
0.0412245820280331
  0
CIRCLE
  5
6E6D
  8
0
 10
4308.7988118689718249
 20
156.237886166340104
 30
0.0
 40
0.0551245610288439
  0
CIRCLE
  5
6E6E
  8
0
 10
4308.7997723434682484
 20
156.2378536597109928
 30
0.0
 40
0.0616092334274223
  0
CIRCLE
  5
6E6F
  8
0
 10
4308.414267452752938
 20
156.1178177967869942
 30
0.0
 40
0.0216175107223788
  0
CIRCLE
  5
6E70
  8
0
 10
4308.414267452752938
 20
156.1178177967869942
 30
0.0
 40
0.0412245820280331
  0
CIRCLE
  5
6E71
  8
0
 10
4308.4186198539164252
 20
156.1116080688869943
 30
0.0
 40
0.0551245610288439
  0
CIRCLE
  5
6E72
  8
0
 10
4308.4195803284128488
 20
156.1115755622579115
 30
0.0
 40
0.0616092334274223
  0
CIRCLE
  5
6E73
  8
0
 10
4308.6665269109644214
 20
156.1166292375430942
 30
0.0
 40
0.0216175107223788
  0
CIRCLE
  5
6E74
  8
0
 10
4308.6665269109644214
 20
156.1166292375430942
 30
0.0
 40
0.0412245820280331
  0
CIRCLE
  5
6E75
  8
0
 10
4308.6708793121279086
 20
156.1104195096430942
 30
0.0
 40
0.0551245610288439
  0
CIRCLE
  5
6E76
  8
0
 10
4308.6718397866243322
 20
156.1103870030138978
 30
0.0
 40
0.0616092334274223
  0
CIRCLE
  5
6E77
  8
0
 10
4308.9236537968135963
 20
156.117675746318497
 30
0.0
 40
0.0216175107223788
  0
CIRCLE
  5
6E78
  8
0
 10
4308.9236537968135963
 20
156.117675746318497
 30
0.0
 40
0.0412245820280331
  0
CIRCLE
  5
6E79
  8
0
 10
4308.928006197977993
 20
156.111466018418497
 30
0.0
 40
0.0551245610288439
  0
CIRCLE
  5
6E7A
  8
0
 10
4308.9289666724744166
 20
156.1114335117893006
 30
0.0
 40
0.0616092334274223
  0
CIRCLE
  5
6E7B
  8
0
 10
4308.5412212787487078
 20
155.9920834312833051
 30
0.0
 40
0.0216175107223788
  0
CIRCLE
  5
6E7C
  8
0
 10
4308.5412212787487078
 20
155.9920834312833051
 30
0.0
 40
0.0412245820280331
  0
CIRCLE
  5
6E7D
  8
0
 10
4308.5455736799121951
 20
155.9858737033833052
 30
0.0
 40
0.0551245610288439
  0
CIRCLE
  5
6E7E
  8
0
 10
4308.5465341544077091
 20
155.9858411967541088
 30
0.0
 40
0.0616092334274223
  0
CIRCLE
  5
6E7F
  8
0
 10
4308.7943280734543805
 20
155.990810540993607
 30
0.0
 40
0.0216175107223788
  0
CIRCLE
  5
6E80
  8
0
 10
4308.7943280734543805
 20
155.990810540993607
 30
0.0
 40
0.0412245820280331
  0
CIRCLE
  5
6E81
  8
0
 10
4308.7986804746178677
 20
155.984600813093607
 30
0.0
 40
0.0551245610288439
  0
CIRCLE
  5
6E82
  8
0
 10
4308.7996409491142913
 20
155.9845683064644959
 30
0.0
 40
0.0616092334274223
  0
CIRCLE
  5
6E83
  8
0
 10
4308.4167378563543025
 20
155.8643654689489892
 30
0.0
 40
0.0216175107223788
  0
CIRCLE
  5
6E84
  8
0
 10
4308.4167378563543025
 20
155.8643654689489892
 30
0.0
 40
0.0412245820280331
  0
CIRCLE
  5
6E85
  8
0
 10
4308.4210902575168802
 20
155.8581557410489893
 30
0.0
 40
0.0551245610288439
  0
CIRCLE
  5
6E86
  8
0
 10
4308.4220507320133038
 20
155.8581232344199066
 30
0.0
 40
0.0616092334274223
  0
CIRCLE
  5
6E87
  8
0
 10
4308.666929783523301
 20
155.8648058140466048
 30
0.0
 40
0.0216175107223788
  0
CIRCLE
  5
6E88
  8
0
 10
4308.666929783523301
 20
155.8648058140466048
 30
0.0
 40
0.0412245820280331
  0
CIRCLE
  5
6E89
  8
0
 10
4308.6712821846858787
 20
155.8585960861466049
 30
0.0
 40
0.0551245610288439
  0
CIRCLE
  5
6E8A
  8
0
 10
4308.6722426591832118
 20
155.8585635795174085
 30
0.0
 40
0.0616092334274223
  0
CIRCLE
  5
6E8B
  8
0
 10
4308.9228089832940896
 20
155.8619511787314877
 30
0.0
 40
0.0216175107223788
  0
CIRCLE
  5
6E8C
  8
0
 10
4308.9228089832940896
 20
155.8619511787314877
 30
0.0
 40
0.0412245820280331
  0
CIRCLE
  5
6E8D
  8
0
 10
4308.9271613844566673
 20
155.8557414508314878
 30
0.0
 40
0.0551245610288439
  0
CIRCLE
  5
6E8E
  8
0
 10
4308.9281218589530909
 20
155.8557089442022914
 30
0.0
 40
0.0616092334274223
  0
CIRCLE
  5
6E8F
  8
0
 10
4308.5411379516417583
 20
155.7387069545347913
 30
0.0
 40
0.0216175107223788
  0
CIRCLE
  5
6E90
  8
0
 10
4308.5411379516417583
 20
155.7387069545347913
 30
0.0
 40
0.0412245820280331
  0
CIRCLE
  5
6E91
  8
0
 10
4308.5454903528052455
 20
155.7324972266347913
 30
0.0
 40
0.0551245610288439
  0
CIRCLE
  5
6E92
  8
0
 10
4308.5464508273025785
 20
155.7324647200055949
 30
0.0
 40
0.0616092334274223
  0
CIRCLE
  5
6E93
  8
0
 10
4308.7942096446076903
 20
155.740478440833499
 30
0.0
 40
0.0216175107223788
  0
CIRCLE
  5
6E94
  8
0
 10
4308.7942096446076903
 20
155.740478440833499
 30
0.0
 40
0.0412245820280331
  0
CIRCLE
  5
6E95
  8
0
 10
4308.798562045772087
 20
155.734268712933499
 30
0.0
 40
0.0551245610288439
  0
CIRCLE
  5
6E96
  8
0
 10
4308.7995225202676011
 20
155.7342362063043879
 30
0.0
 40
0.0616092334274223
  0
CIRCLE
  5
6E97
  8
0
 10
4308.4151827859859623
 20
155.6142170351621132
 30
0.0
 40
0.0216175107223788
  0
CIRCLE
  5
6E98
  8
0
 10
4308.4151827859859623
 20
155.6142170351621132
 30
0.0
 40
0.0412245820280331
  0
CIRCLE
  5
6E99
  8
0
 10
4308.4195351871494495
 20
155.6080073072621133
 30
0.0
 40
0.0551245610288439
  0
CIRCLE
  5
6E9A
  8
0
 10
4308.420495661645873
 20
155.6079748006330021
 30
0.0
 40
0.0616092334274223
  0
CIRCLE
  5
6E9B
  8
0
 10
4308.6670877413571361
 20
155.6109402226751115
 30
0.0
 40
0.0216175107223788
  0
CIRCLE
  5
6E9C
  8
0
 10
4308.6670877413571361
 20
155.6109402226751115
 30
0.0
 40
0.0412245820280331
  0
CIRCLE
  5
6E9D
  8
0
 10
4308.6714401425206233
 20
155.6047304947751968
 30
0.0
 40
0.0551245610288439
  0
CIRCLE
  5
6E9E
  8
0
 10
4308.6724006170170469
 20
155.6046979881460004
 30
0.0
 40
0.0616092334274223
  0
CIRCLE
  5
6E9F
  8
0
 10
4308.9211795984310811
 20
155.6096567722786972
 30
0.0
 40
0.0216175107223788
  0
CIRCLE
  5
6EA0
  8
0
 10
4308.9211795984310811
 20
155.6096567722786972
 30
0.0
 40
0.0412245820280331
  0
CIRCLE
  5
6EA1
  8
0
 10
4308.9255319995936588
 20
155.6034470443786972
 30
0.0
 40
0.0551245610288439
  0
CIRCLE
  5
6EA2
  8
0
 10
4308.9264924740909919
 20
155.6034145377495861
 30
0.0
 40
0.0616092334274223
  0
CIRCLE
  5
6EA3
  8
0
 10
4308.5428119203515962
 20
155.4885160058672966
 30
0.0
 40
0.0216175107223788
  0
CIRCLE
  5
6EA4
  8
0
 10
4308.5428119203515962
 20
155.4885160058672966
 30
0.0
 40
0.0412245820280331
  0
CIRCLE
  5
6EA5
  8
0
 10
4308.5471643215150834
 20
155.4823062779672966
 30
0.0
 40
0.0551245610288439
  0
CIRCLE
  5
6EA6
  8
0
 10
4308.5481247960105975
 20
155.4822737713381002
 30
0.0
 40
0.0616092334274223
  0
CIRCLE
  5
6EA7
  8
0
 10
4308.7947722061580862
 20
155.4885160058672966
 30
0.0
 40
0.0216175107223788
  0
CIRCLE
  5
6EA8
  8
0
 10
4308.7947722061580862
 20
155.4885160058672966
 30
0.0
 40
0.0412245820280331
  0
CIRCLE
  5
6EA9
  8
0
 10
4308.7991246073206639
 20
155.4823062779672966
 30
0.0
 40
0.0551245610288439
  0
CIRCLE
  5
6EAA
  8
0
 10
4308.800085081817997
 20
155.4822737713381002
 30
0.0
 40
0.0616092334274223
  0
CIRCLE
  5
6EAB
  8
0
 10
4308.4145594929123035
 20
155.3605405037667992
 30
0.0
 40
0.0216175107223788
  0
CIRCLE
  5
6EAC
  8
0
 10
4308.4145594929123035
 20
155.3605405037667992
 30
0.0
 40
0.0412245820280331
  0
CIRCLE
  5
6EAD
  8
0
 10
4308.4189118940748813
 20
155.3543307758667993
 30
0.0
 40
0.0551245610288439
  0
CIRCLE
  5
6EAE
  8
0
 10
4308.4198723685722143
 20
155.3542982692376881
 30
0.0
 40
0.0616092334274223
  0
CIRCLE
  5
6EAF
  8
0
 10
4308.6676953809528641
 20
155.3613397789451085
 30
0.0
 40
0.0216175107223788
  0
CIRCLE
  5
6EB0
  8
0
 10
4308.6676953809528641
 20
155.3613397789451085
 30
0.0
 40
0.0412245820280331
  0
CIRCLE
  5
6EB1
  8
0
 10
4308.6720477821163513
 20
155.3551300510451085
 30
0.0
 40
0.0551245610288439
  0
CIRCLE
  5
6EB2
  8
0
 10
4308.6730082566118654
 20
155.3550975444159974
 30
0.0
 40
0.0616092334274223
  0
CIRCLE
  5
6EB3
  8
0
 10
4308.9188986177368861
 20
155.3611177328290012
 30
0.0
 40
0.0216175107223788
  0
CIRCLE
  5
6EB4
  8
0
 10
4308.9188986177368861
 20
155.3611177328290012
 30
0.0
 40
0.0412245820280331
  0
CIRCLE
  5
6EB5
  8
0
 10
4308.9232510189012828
 20
155.3549080049290865
 30
0.0
 40
0.0551245610288439
  0
CIRCLE
  5
6EB6
  8
0
 10
4308.9242114933977064
 20
155.3548754982998901
 30
0.0
 40
0.0616092334274223
  0
CIRCLE
  5
6EB7
  8
0
 10
4308.539919984482367
 20
155.2375488137363959
 30
0.0
 40
0.0216175107223788
  0
CIRCLE
  5
6EB8
  8
0
 10
4308.539919984482367
 20
155.2375488137363959
 30
0.0
 40
0.0412245820280331
  0
CIRCLE
  5
6EB9
  8
0
 10
4308.5442723856449447
 20
155.231339085836396
 30
0.0
 40
0.0551245610288439
  0
CIRCLE
  5
6EBA
  8
0
 10
4308.5452328601413683
 20
155.2313065792073132
 30
0.0
 40
0.0616092334274223
  0
CIRCLE
  5
6EBB
  8
0
 10
4308.7947722061580862
 20
155.2322215049173053
 30
0.0
 40
0.0216175107223788
  0
CIRCLE
  5
6EBC
  8
0
 10
4308.7947722061580862
 20
155.2322215049173053
 30
0.0
 40
0.0412245820280331
  0
CIRCLE
  5
6EBD
  8
0
 10
4308.7991246073206639
 20
155.2260117770173053
 30
0.0
 40
0.0551245610288439
  0
CIRCLE
  5
6EBE
  8
0
 10
4308.800085081817997
 20
155.2259792703881089
 30
0.0
 40
0.0616092334274223
  0
CIRCLE
  5
6EBF
  8
0
 10
4308.4143522029007727
 20
155.1102053377692869
 30
0.0
 40
0.0216175107223788
  0
CIRCLE
  5
6EC0
  8
0
 10
4308.4143522029007727
 20
155.1102053377692869
 30
0.0
 40
0.0412245820280331
  0
CIRCLE
  5
6EC1
  8
0
 10
4308.4187046040651694
 20
155.1039956098692869
 30
0.0
 40
0.0551245610288439
  0
CIRCLE
  5
6EC2
  8
0
 10
4308.4196650785606835
 20
155.1039631032400905
 30
0.0
 40
0.0616092334274223
  0
CIRCLE
  5
6EC3
  8
0
 10
4308.6727249620571456
 20
155.1083150218819071
 30
0.0
 40
0.0216175107223788
  0
CIRCLE
  5
6EC4
  8
0
 10
4308.6727249620571456
 20
155.1083150218819071
 30
0.0
 40
0.0412245820280331
  0
CIRCLE
  5
6EC5
  8
0
 10
4308.6770773632206328
 20
155.1021052939819072
 30
0.0
 40
0.0551245610288439
  0
CIRCLE
  5
6EC6
  8
0
 10
4308.6780378377179659
 20
155.102072787352796
 30
0.0
 40
0.0616092334274223
  0
CIRCLE
  5
6EC7
  8
0
 10
4308.9201647893878544
 20
155.1071402680408085
 30
0.0
 40
0.0216175107223788
  0
CIRCLE
  5
6EC8
  8
0
 10
4308.9201647893878544
 20
155.1071402680408085
 30
0.0
 40
0.0412245820280331
  0
CIRCLE
  5
6EC9
  8
0
 10
4308.9245171905522511
 20
155.1009305401408085
 30
0.0
 40
0.0551245610288439
  0
CIRCLE
  5
6ECA
  8
0
 10
4308.9254776650495842
 20
155.1008980335116973
 30
0.0
 40
0.0616092334274223
  0
CIRCLE
  5
6ECB
  8
0
 10
4308.5422906169178532
 20
154.9831541383057072
 30
0.0
 40
0.0216175107223788
  0
CIRCLE
  5
6ECC
  8
0
 10
4308.5422906169178532
 20
154.9831541383057072
 30
0.0
 40
0.0412245820280331
  0
CIRCLE
  5
6ECD
  8
0
 10
4308.5466430180813404
 20
154.9769444104057072
 30
0.0
 40
0.0551245610288439
  0
CIRCLE
  5
6ECE
  8
0
 10
4308.5476034925768545
 20
154.9769119037765961
 30
0.0
 40
0.0616092334274223
  0
CIRCLE
  5
6ECF
  8
0
 10
4308.7904422506580886
 20
154.9815563260210922
 30
0.0
 40
0.0216175107223788
  0
CIRCLE
  5
6ED0
  8
0
 10
4308.7904422506580886
 20
154.9815563260210922
 30
0.0
 40
0.0412245820280331
  0
CIRCLE
  5
6ED1
  8
0
 10
4308.7947946518197568
 20
154.9753465981210923
 30
0.0
 40
0.0551245610288439
  0
CIRCLE
  5
6ED2
  8
0
 10
4308.7957551263170899
 20
154.9753140914920095
 30
0.0
 40
0.0616092334274223
  0
CIRCLE
  5
6ED3
  8
0
 10
4308.4152994755568216
 20
154.8572731803519957
 30
0.0
 40
0.0216175107223788
  0
CIRCLE
  5
6ED4
  8
0
 10
4308.4152994755568216
 20
154.8572731803519957
 30
0.0
 40
0.0412245820280331
  0
CIRCLE
  5
6ED5
  8
0
 10
4308.4196518767212183
 20
154.8510634524521095
 30
0.0
 40
0.0551245610288439
  0
CIRCLE
  5
6ED6
  8
0
 10
4308.4206123512167323
 20
154.8510309458229131
 30
0.0
 40
0.0616092334274223
  0
CIRCLE
  5
6ED7
  8
0
 10
4308.6678324674812757
 20
154.8568543528913892
 30
0.0
 40
0.0216175107223788
  0
CIRCLE
  5
6ED8
  8
0
 10
4308.6678324674812757
 20
154.8568543528913892
 30
0.0
 40
0.0412245820280331
  0
CIRCLE
  5
6ED9
  8
0
 10
4308.6721848686447629
 20
154.8506446249913893
 30
0.0
 40
0.0551245610288439
  0
CIRCLE
  5
6EDA
  8
0
 10
4308.6731453431411865
 20
154.8506121183623065
 30
0.0
 40
0.0616092334274223
  0
CIRCLE
  5
6EDB
  8
0
 10
4308.9197858063325839
 20
154.8583680817451977
 30
0.0
 40
0.0216175107223788
  0
CIRCLE
  5
6EDC
  8
0
 10
4308.9197858063325839
 20
154.8583680817451977
 30
0.0
 40
0.0412245820280331
  0
CIRCLE
  5
6EDD
  8
0
 10
4308.9241382074960711
 20
154.8521583538453115
 30
0.0
 40
0.0551245610288439
  0
CIRCLE
  5
6EDE
  8
0
 10
4308.9250986819934042
 20
154.8521258472160866
 30
0.0
 40
0.0616092334274223
  0
CIRCLE
  5
6EDF
  8
0
 10
4308.5428119203515962
 20
154.7365475019672942
 30
0.0
 40
0.0216175107223788
  0
CIRCLE
  5
6EE0
  8
0
 10
4308.5428119203515962
 20
154.7365475019672942
 30
0.0
 40
0.0412245820280331
  0
CIRCLE
  5
6EE1
  8
0
 10
4308.5471643215150834
 20
154.7303377740672943
 30
0.0
 40
0.0551245610288439
  0
CIRCLE
  5
6EE2
  8
0
 10
4308.5481247960105975
 20
154.7303052674380979
 30
0.0
 40
0.0616092334274223
  0
CIRCLE
  5
6EE3
  8
0
 10
4308.7947722061580862
 20
154.7304250642322074
 30
0.0
 40
0.0216175107223788
  0
CIRCLE
  5
6EE4
  8
0
 10
4308.7947722061580862
 20
154.7304250642322074
 30
0.0
 40
0.0412245820280331
  0
CIRCLE
  5
6EE5
  8
0
 10
4308.7991246073206639
 20
154.7242153363322075
 30
0.0
 40
0.0551245610288439
  0
CIRCLE
  5
6EE6
  8
0
 10
4308.800085081817997
 20
154.7241828297030963
 30
0.0
 40
0.0616092334274223
  0
CIRCLE
  5
6EE7
  8
0
 10
4308.4172153665213045
 20
154.6048755573717983
 30
0.0
 40
0.0216175107223788
  0
CIRCLE
  5
6EE8
  8
0
 10
4308.4172153665213045
 20
154.6048755573717983
 30
0.0
 40
0.0412245820280331
  0
CIRCLE
  5
6EE9
  8
0
 10
4308.4215677676847918
 20
154.5986658294717984
 30
0.0
 40
0.0551245610288439
  0
CIRCLE
  5
6EEA
  8
0
 10
4308.4225282421812153
 20
154.598633322842602
 30
0.0
 40
0.0616092334274223
  0
CIRCLE
  5
6EEB
  8
0
 10
4308.6727249620571456
 20
154.6005902546878872
 30
0.0
 40
0.0216175107223788
  0
CIRCLE
  5
6EEC
  8
0
 10
4308.6727249620571456
 20
154.6005902546878872
 30
0.0
 40
0.0412245820280331
  0
CIRCLE
  5
6EED
  8
0
 10
4308.6770773632206328
 20
154.5943805267878872
 30
0.0
 40
0.0551245610288439
  0
CIRCLE
  5
6EEE
  8
0
 10
4308.6780378377179659
 20
154.5943480201588045
 30
0.0
 40
0.0616092334274223
  0
CIRCLE
  5
6EEF
  8
0
 10
4308.9202040230202329
 20
154.6047725111685907
 30
0.0
 40
0.0216175107223788
  0
CIRCLE
  5
6EF0
  8
0
 10
4308.9202040230202329
 20
154.6047725111685907
 30
0.0
 40
0.0412245820280331
  0
CIRCLE
  5
6EF1
  8
0
 10
4308.9245564241828106
 20
154.5985627832685907
 30
0.0
 40
0.0551245610288439
  0
CIRCLE
  5
6EF2
  8
0
 10
4308.9255168986801436
 20
154.5985302766393943
 30
0.0
 40
0.0616092334274223
  0
CIRCLE
  5
6EF3
  8
0
 10
4308.539951291439138
 20
154.4791912104383016
 30
0.0
 40
0.0216175107223788
  0
CIRCLE
  5
6EF4
  8
0
 10
4308.539951291439138
 20
154.4791912104383016
 30
0.0
 40
0.0412245820280331
  0
CIRCLE
  5
6EF5
  8
0
 10
4308.5443036926017157
 20
154.4729814825383016
 30
0.0
 40
0.0551245610288439
  0
CIRCLE
  5
6EF6
  8
0
 10
4308.5452641670990488
 20
154.4729489759091905
 30
0.0
 40
0.0616092334274223
  0
CIRCLE
  5
6EF7
  8
0
 10
4308.7947722061580862
 20
154.4782288781273962
 30
0.0
 40
0.0216175107223788
  0
CIRCLE
  5
6EF8
  8
0
 10
4308.7947722061580862
 20
154.4782288781273962
 30
0.0
 40
0.0412245820280331
  0
CIRCLE
  5
6EF9
  8
0
 10
4308.7991246073206639
 20
154.4720191502273963
 30
0.0
 40
0.0551245610288439
  0
CIRCLE
  5
6EFA
  8
0
 10
4308.800085081817997
 20
154.4719866435983135
 30
0.0
 40
0.0616092334274223
  0
CIRCLE
  5
6EFB
  8
0
 10
4308.4166135772156849
 20
154.3540724537396045
 30
0.0
 40
0.0216175107223788
  0
CIRCLE
  5
6EFC
  8
0
 10
4308.4166135772156849
 20
154.3540724537396045
 30
0.0
 40
0.0412245820280331
  0
CIRCLE
  5
6EFD
  8
0
 10
4308.4209659783800817
 20
154.3478627258396045
 30
0.0
 40
0.0551245610288439
  0
CIRCLE
  5
6EFE
  8
0
 10
4308.4219264528755957
 20
154.3478302192104934
 30
0.0
 40
0.0616092334274223
  0
CIRCLE
  5
6EFF
  8
0
 10
4308.6686130859252444
 20
154.3550020270095899
 30
0.0
 40
0.0216175107223788
  0
CIRCLE
  5
6F00
  8
0
 10
4308.6686130859252444
 20
154.3550020270095899
 30
0.0
 40
0.0412245820280331
  0
CIRCLE
  5
6F01
  8
0
 10
4308.6729654870887316
 20
154.34879229910959
 30
0.0
 40
0.0551245610288439
  0
CIRCLE
  5
6F02
  8
0
 10
4308.6739259615860647
 20
154.3487597924805073
 30
0.0
 40
0.0616092334274223
  0
CIRCLE
  5
6F03
  8
0
 10
4308.9176788625800327
 20
154.3578427068352994
 30
0.0
 40
0.0216175107223788
  0
CIRCLE
  5
6F04
  8
0
 10
4308.9176788625800327
 20
154.3578427068352994
 30
0.0
 40
0.0412245820280331
  0
CIRCLE
  5
6F05
  8
0
 10
4308.9220312637426105
 20
154.3516329789352994
 30
0.0
 40
0.0551245610288439
  0
CIRCLE
  5
6F06
  8
0
 10
4308.922991738240853
 20
154.351600472306103
 30
0.0
 40
0.0616092334274223
  0
CIRCLE
  5
6F07
  8
0
 10
4308.5391676687913787
 20
154.2269828745332063
 30
0.0
 40
0.0216175107223788
  0
CIRCLE
  5
6F08
  8
0
 10
4308.5391676687913787
 20
154.2269828745332063
 30
0.0
 40
0.0412245820280331
  0
CIRCLE
  5
6F09
  8
0
 10
4308.5435200699548659
 20
154.2207731466332064
 30
0.0
 40
0.0551245610288439
  0
CIRCLE
  5
6F0A
  8
0
 10
4308.544480544452199
 20
154.2207406400040099
 30
0.0
 40
0.0616092334274223
  0
CIRCLE
  5
6F0B
  8
0
 10
4308.7947722061580862
 20
154.2278354044435105
 30
0.0
 40
0.0216175107223788
  0
CIRCLE
  5
6F0C
  8
0
 10
4308.7947722061580862
 20
154.2278354044435105
 30
0.0
 40
0.0412245820280331
  0
CIRCLE
  5
6F0D
  8
0
 10
4308.7991246073206639
 20
154.2216256765435105
 30
0.0
 40
0.0551245610288439
  0
CIRCLE
  5
6F0E
  8
0
 10
4308.800085081817997
 20
154.2215931699143994
 30
0.0
 40
0.0616092334274223
  0
CIRCLE
  5
6F0F
  8
0
 10
4308.6727249620571456
 20
153.2365475019672942
 30
0.0
 40
0.2773494607281948
  0
CIRCLE
  5
6F10
  8
0
 10
4308.6727249620571456
 20
152.4491459271673079
 30
0.0
 40
0.2952755906
  0
CIRCLE
  5
6F11
  8
0
 10
4308.6727249620571456
 20
152.4491459271673079
 30
0.0
 40
0.2773494607281948
  0
LINE
  5
6F12
  8
0
 10
4314.1695531702080189
 20
154.1726635478673018
 30
0.0
 11
4314.1695531702080189
 21
154.1693163277672909
 31
0.0
  0
LINE
  5
6F13
  8
0
 10
4314.1952942184079802
 20
154.1687456280673132
 30
0.0
 11
4314.1952942184079802
 21
154.1652872909673135
 31
0.0
  0
LINE
  5
6F14
  8
0
 10
4314.2198133426081768
 20
154.1731412822672951
 30
0.0
 11
4314.2198133426081768
 21
154.1756714183673012
 31
0.0
  0
LINE
  5
6F15
  8
0
 10
4314.2288035398069042
 20
154.1765144380673007
 30
0.0
 11
4314.2288035398069042
 21
154.1793437359673078
 31
0.0
  0
LINE
  5
6F16
  8
0
 10
4314.232734931108098
 20
154.1660471671673065
 30
0.0
 11
4314.232734931108098
 21
154.162182130367313
 31
0.0
  0
LINE
  5
6F17
  8
0
 10
4314.2486770859077296
 20
154.1791992227672949
 30
0.0
 11
4314.2486770859077296
 21
154.1826554529673103
 31
0.0
  0
LINE
  5
6F18
  8
0
 10
4314.2498554145076923
 20
154.1726635478673018
 30
0.0
 11
4314.2498554145076923
 21
154.1671985233672899
 31
0.0
  0
LINE
  5
6F19
  8
0
 10
4314.2828231212079118
 20
154.1731412822672951
 30
0.0
 11
4314.2828231212079118
 21
154.1774514759673025
 31
0.0
  0
LINE
  5
6F1A
  8
0
 10
4314.2842609930075923
 20
154.1818477335673094
 30
0.0
 11
4314.2842609930075923
 21
154.186183097867314
 31
0.0
  0
LINE
  5
6F1B
  8
0
 10
4314.2882306132069061
 20
154.1637409200673119
 30
0.0
 11
4314.2882306132069061
 21
154.1594737660672934
 31
0.0
  0
LINE
  5
6F1C
  8
0
 10
4314.3032451549079269
 20
154.1772877495673129
 30
0.0
 11
4314.3032451549079269
 21
154.1823418282673117
 31
0.0
  0
LINE
  5
6F1D
  8
0
 10
4314.3197315345069001
 20
154.1672067808673035
 30
0.0
 11
4314.3197315345069001
 21
154.162784117667286
 31
0.0
  0
LINE
  5
6F1E
  8
0
 10
4314.3235972913080332
 20
154.18356993866729
 30
0.0
 11
4314.3235972913080332
 21
154.1873029122193941
 31
0.0
  0
LINE
  5
6F1F
  8
0
 10
4314.3462448416066763
 20
154.1615861984672904
 30
0.0
 11
4314.3462448416066763
 21
154.157920424567294
 31
0.0
  0
LINE
  5
6F20
  8
0
 10
4314.3512370988073599
 20
154.1726635478673018
 30
0.0
 11
4314.3512370988073599
 21
154.1660949571673029
 31
0.0
  0
LINE
  5
6F21
  8
0
 10
4314.3517770824073523
 20
154.1731412822672951
 30
0.0
 11
4314.3517770824073523
 21
154.1796531273674873
 31
0.0
  0
LINE
  5
6F22
  8
0
 10
4314.3551021806079007
 20
154.180259170067302
 30
0.0
 11
4314.3551021806079007
 21
154.1840392822672925
 31
0.0
  0
LINE
  5
6F23
  8
0
 10
4314.3762402290076352
 20
154.1847841381672879
 30
0.0
 11
4314.3762402290076352
 21
154.1883142627673067
 31
0.0
  0
LINE
  5
6F24
  8
0
 10
4314.3857181064067845
 20
154.1726635478673018
 30
0.0
 11
4314.3857181064067845
 21
154.1697184784673027
 31
0.0
  0
LINE
  5
6F25
  8
0
 10
4314.3895791612067114
 20
154.1766360720673106
 30
0.0
 11
4314.3895791612067114
 21
154.1806776901673004
 31
0.0
  0
LINE
  5
6F26
  8
0
 10
4314.3932857517083903
 20
154.1731412822672951
 30
0.0
 11
4314.3932857517083903
 21
154.1752910870673077
 31
0.0
  0
LINE
  5
6F27
  8
0
 10
4314.4103334958081177
 20
154.1744550518673122
 30
0.0
 11
4314.4103334958081177
 21
154.1766727946672972
 31
0.0
  0
LINE
  5
6F28
  8
0
 10
4314.4166251345077399
 20
154.1610809015672885
 30
0.0
 11
4314.4166251345077399
 21
154.1645454760673033
 31
0.0
  0
LINE
  5
6F29
  8
0
 10
4314.4166251345077399
 20
154.1572584367673073
 30
0.0
 11
4314.4166251345077399
 21
154.1607225297672983
 31
0.0
  0
LINE
  5
6F2A
  8
0
 10
4314.4166251345077399
 20
154.1812593540672935
 30
0.0
 11
4314.4166251345077399
 21
154.1847239284672924
 31
0.0
  0
LINE
  5
6F2B
  8
0
 10
4314.4166251345077399
 20
154.185082300267311
 30
0.0
 11
4314.4166251345077399
 21
154.1885463932673019
 31
0.0
  0
LINE
  5
6F2C
  8
0
 10
4314.3762402290076352
 20
154.161020691867293
 30
0.0
 11
4314.3614562719076275
 21
154.1576731310672983
 31
0.0
  0
LINE
  5
6F2D
  8
0
 10
4314.3462448416066763
 20
154.157920424567294
 30
0.0
 11
4314.3610287987075935
 21
154.1612679854673047
 31
0.0
  0
LINE
  5
6F2E
  8
0
 10
4314.4103334958081177
 20
154.171349778267313
 30
0.0
 11
4314.3925372041067021
 21
154.1694796112672918
 31
0.0
  0
LINE
  5
6F2F
  8
0
 10
4314.3895791612067114
 20
154.1691687580672863
 30
0.0
 11
4314.358056196508187
 21
154.1658560899672921
 31
0.0
  0
LINE
  5
6F30
  8
0
 10
4314.3551021806079007
 20
154.1655456599673073
 30
0.0
 11
4314.3265506322077272
 21
154.1625452504673035
 31
0.0
  0
LINE
  5
6F31
  8
0
 10
4314.3235972913080332
 20
154.1622348913672909
 30
0.0
 11
4314.2950497109068237
 21
154.1592348988673109
 31
0.0
  0
LINE
  5
6F32
  8
0
 10
4314.2882306132069061
 20
154.1594737660672934
 30
0.0
 11
4314.3167781936081155
 21
154.1624737585673017
 31
0.0
  0
LINE
  5
6F33
  8
0
 10
4314.3197315345069001
 20
154.162784117667286
 30
0.0
 11
4314.348283082907983
 21
154.1657845271672898
 31
0.0
  0
LINE
  5
6F34
  8
0
 10
4314.3512370988073599
 20
154.1660949571673029
 30
0.0
 11
4314.3827600636068382
 21
154.1694076252672971
 31
0.0
  0
LINE
  5
6F35
  8
0
 10
4314.3857181064067845
 20
154.1697184784673027
 30
0.0
 11
4314.403514398207335
 21
154.1715886454672955
 31
0.0
  0
LINE
  5
6F36
  8
0
 10
4314.403514398207335
 20
154.1742161846673014
 30
0.0
 11
4314.3857181064067845
 21
154.1760863516672941
 31
0.0
  0
LINE
  5
6F37
  8
0
 10
4314.3827600636068382
 20
154.1763972048672997
 30
0.0
 11
4314.3512370988073599
 21
154.1797098728673063
 31
0.0
  0
LINE
  5
6F38
  8
0
 10
4314.348283082907983
 20
154.1800203028672911
 30
0.0
 11
4314.3197315345069001
 21
154.1830207123672949
 31
0.0
  0
LINE
  5
6F39
  8
0
 10
4314.3167781936081155
 20
154.1833310714673075
 30
0.0
 11
4314.2882306132069061
 21
154.1863310639672875
 31
0.0
  0
LINE
  5
6F3A
  8
0
 10
4314.2950497109068237
 20
154.1865699311672984
 30
0.0
 11
4314.3235972913080332
 21
154.18356993866729
 31
0.0
  0
LINE
  5
6F3B
  8
0
 10
4314.3265506322077272
 20
154.1832595796672933
 30
0.0
 11
4314.3551021806079007
 21
154.180259170067302
 31
0.0
  0
LINE
  5
6F3C
  8
0
 10
4314.358056196508187
 20
154.1799487400672888
 30
0.0
 11
4314.3895791612067114
 21
154.1766360720673106
 31
0.0
  0
LINE
  5
6F3D
  8
0
 10
4314.3925372041067021
 20
154.176325218867305
 30
0.0
 11
4314.4103334958081177
 21
154.1744550518673122
 31
0.0
  0
LINE
  5
6F3E
  8
0
 10
4314.3610287987075935
 20
154.1845368446672921
 30
0.0
 11
4314.3462448416066763
 21
154.1878844054672868
 31
0.0
  0
LINE
  5
6F3F
  8
0
 10
4314.3614562719076275
 20
154.1881316990672985
 30
0.0
 11
4314.3762402290076352
 21
154.1847841381672879
 31
0.0
  0
LINE
  5
6F40
  8
0
 10
4314.2842609930075923
 20
154.1639570964672998
 30
0.0
 11
4314.2438704710066304
 21
154.1615065118672874
 31
0.0
  0
LINE
  5
6F41
  8
0
 10
4314.232734931108098
 20
154.162182130367313
 30
0.0
 11
4314.2731254531081504
 21
154.164632714967297
 31
0.0
  0
LINE
  5
6F42
  8
0
 10
4314.3032451549079269
 20
154.1685170804672964
 30
0.0
 11
4314.2537924224079688
 21
154.1667847932673112
 31
0.0
  0
LINE
  5
6F43
  8
0
 10
4314.2486770859077296
 20
154.1666056073673019
 30
0.0
 11
4314.1992312263073472
 21
154.1648735608673064
 31
0.0
  0
LINE
  5
6F44
  8
0
 10
4314.1952942184079802
 20
154.1652872909673135
 30
0.0
 11
4314.2447400780083626
 21
154.167019337467309
 31
0.0
  0
LINE
  5
6F45
  8
0
 10
4314.2498554145076923
 20
154.1671985233672899
 30
0.0
 11
4314.2993081470067409
 21
154.1689308105673035
 31
0.0
  0
LINE
  5
6F46
  8
0
 10
4314.2288035398069042
 20
154.1692903919673086
 30
0.0
 11
4314.173629060706844
 21
154.1683934157672979
 31
0.0
  0
LINE
  5
6F47
  8
0
 10
4314.1695531702080189
 20
154.1693163277672909
 30
0.0
 11
4314.2247276494081234
 21
154.1702133039673015
 31
0.0
  0
LINE
  5
6F48
  8
0
 10
4314.3932857517083903
 20
154.1726635478673018
 30
0.0
 11
4314.3576931682073337
 21
154.1726635478673018
 31
0.0
  0
LINE
  5
6F49
  8
0
 10
4314.3517770824073523
 20
154.1726635478673018
 30
0.0
 11
4314.2887311530066654
 21
154.1726635478673018
 31
0.0
  0
LINE
  5
6F4A
  8
0
 10
4314.2828231212079118
 20
154.1726635478673018
 30
0.0
 11
4314.2257200244066553
 21
154.1726635478673018
 31
0.0
  0
LINE
  5
6F4B
  8
0
 10
4314.2198133426081768
 20
154.1726635478673018
 30
0.0
 11
4314.1627181818066674
 21
154.1726635478673018
 31
0.0
  0
LINE
  5
6F4C
  8
0
 10
4314.1627181818066674
 20
154.1731412822672951
 30
0.0
 11
4314.2198133426081768
 21
154.1731412822672951
 31
0.0
  0
LINE
  5
6F4D
  8
0
 10
4314.2257200244066553
 20
154.1731412822672951
 30
0.0
 11
4314.2828231212079118
 21
154.1731412822672951
 31
0.0
  0
LINE
  5
6F4E
  8
0
 10
4314.2887311530066654
 20
154.1731412822672951
 30
0.0
 11
4314.3517770824073523
 21
154.1731412822672951
 31
0.0
  0
LINE
  5
6F4F
  8
0
 10
4314.3576931682073337
 20
154.1731412822672951
 30
0.0
 11
4314.3932857517083903
 21
154.1731412822672951
 31
0.0
  0
LINE
  5
6F50
  8
0
 10
4314.2247276494081234
 20
154.1755915260673078
 30
0.0
 11
4314.1695531702080189
 21
154.176488502367306
 31
0.0
  0
LINE
  5
6F51
  8
0
 10
4314.173629060706844
 20
154.1774114143672989
 30
0.0
 11
4314.2288035398069042
 21
154.1765144380673007
 31
0.0
  0
LINE
  5
6F52
  8
0
 10
4314.2993081470067409
 20
154.1768740194673057
 30
0.0
 11
4314.2498554145076923
 21
154.1786063066672909
 31
0.0
  0
LINE
  5
6F53
  8
0
 10
4314.2447400780083626
 20
154.1787854925673003
 30
0.0
 11
4314.1952942184079802
 21
154.1805175390672957
 31
0.0
  0
LINE
  5
6F54
  8
0
 10
4314.1992312263073472
 20
154.1809312692672904
 30
0.0
 11
4314.2486770859077296
 21
154.1791992227672949
 31
0.0
  0
LINE
  5
6F55
  8
0
 10
4314.2537924224079688
 20
154.179020036867314
 30
0.0
 11
4314.3032451549079269
 21
154.1772877495673129
 31
0.0
  0
LINE
  5
6F56
  8
0
 10
4314.2731254531081504
 20
154.1811721150673122
 30
0.0
 11
4314.232734931108098
 21
154.1836226997673123
 31
0.0
  0
LINE
  5
6F57
  8
0
 10
4314.2438704710066304
 20
154.1842983181672935
 30
0.0
 11
4314.2842609930075923
 21
154.1818477335673094
 31
0.0
  0
ARC
  5
6F58
  8
0
 10
4314.4203633680081111
 20
150.0213274179673135
 30
0.0
 40
4.1672206520000001
 50
90.0513975749240956
 51
90.8099500092179568
  0
ARC
  5
6F59
  8
0
 10
4314.4201103346076707
 20
150.9778870367672994
 30
0.0
 40
3.2071971572
 50
90.0622622456060924
 51
90.7837529660799873
  0
ARC
  5
6F5A
  8
0
 10
4314.4072732152080789
 20
151.6692719678673029
 30
0.0
 40
2.5156899542999991
 50
91.0532932061959883
 51
91.9061020350882103
  0
ARC
  5
6F5B
  8
0
 10
4314.4203217990079793
 20
153.7570927298673098
 30
0.0
 40
0.4174818247000001
 50
89.9670149445979632
 51
91.3709392644099978
  0
ARC
  5
6F5C
  8
0
 10
4314.2546308337068695
 20
154.2806856330672929
 30
0.0
 40
0.1583581502
 50
187.799843688501511
 51
223.3767327755045926
  0
ARC
  5
6F5D
  8
0
 10
4314.4205046183078593
 20
154.604369284867289
 30
0.0
 40
0.4331389441
 50
268.654436486082318
 51
270.0076093049084989
  0
ARC
  5
6F5E
  8
0
 10
4314.6703210288078481
 20
154.4351070332672862
 30
0.0
 40
0.6291892721
 50
191.4532858310996062
 51
196.2561556093017998
  0
ARC
  5
6F5F
  8
0
 10
4314.4199472877080552
 20
158.2691241521673078
 30
0.0
 40
4.1118670573999996
 50
269.184944131477323
 51
269.9537082844250904
  0
ARC
  5
6F60
  8
0
 10
4314.4204042739065699
 20
157.4077307274673103
 30
0.0
 40
3.247010396999999
 50
269.2206703730026902
 51
269.933314415312509
  0
ARC
  5
6F61
  8
0
 10
4314.410138312107847
 20
156.7874484034672946
 30
0.0
 40
2.6266395512999989
 50
268.1119096547186018
 51
268.9286951040160716
  0
LINE
  5
6F62
  8
0
 10
4314.3462448416066763
 20
154.1878844054672868
 30
0.0
 11
4314.2950497109068237
 21
154.1865699311672984
 31
0.0
  0
LINE
  5
6F63
  8
0
 10
4314.3167781936081155
 20
154.1624737585673017
 30
0.0
 11
4314.2842609930075923
 21
154.1639570964672998
 31
0.0
  0
LINE
  5
6F64
  8
0
 10
4314.2842609930075923
 20
154.1818477335673094
 30
0.0
 11
4314.3167781936081155
 21
154.1833310714673075
 31
0.0
  0
ARC
  5
6F65
  8
0
 10
4314.4132520895827838
 20
149.2239391190749984
 30
0.0
 40
5.1087723599079711
 50
89.918016447063934
 51
92.3157203349457376
  0
ARC
  5
6F66
  8
0
 10
4314.2050664918297116
 20
153.6954884316537004
 30
0.0
 40
0.6330533992986374
 50
89.8406313879364831
 51
103.8373962370210961
  0
ARC
  5
6F67
  8
0
 10
4314.1029123727412298
 20
154.3313330195657898
 30
0.0
 40
0.0810978441990062
 50
243.1522633032469116
 51
267.3843208902761148
  0
ARC
  5
6F68
  8
0
 10
4314.0772760281042792
 20
154.2504516807254902
 30
0.0
 40
0.0139081903516365
 50
97.2029926835666913
 51
142.1967930125416899
  0
ARC
  5
6F69
  8
0
 10
4314.2915536510308812
 20
152.6898387003537891
 30
0.0
 40
1.5891622244101691
 50
90.690359678700375
 51
97.8126438426222222
  0
ARC
  5
6F6A
  8
0
 10
4313.0176105694299622
 20
254.2455052111947964
 30
0.0
 40
99.974494521216613
 50
270.7191472487364194
 51
270.8040635052246898
  0
ARC
  5
6F6B
  8
0
 10
4314.28073027154187
 20
153.2986386755619037
 30
0.0
 40
0.9778310388064859
 50
91.8057047770013952
 51
100.7859957574447947
  0
ARC
  5
6F6C
  8
0
 10
4315.0920990728063771
 20
110.6444015693547982
 30
0.0
 40
43.6397097447066997
 50
90.8817141727896427
 51
91.1057907079176346
  0
ARC
  5
6F6D
  8
0
 10
4314.1520138547612078
 20
154.1913710125286059
 30
0.0
 40
0.0231083596058086
 50
237.2936655767516072
 51
260.7860610847063185
  0
ARC
  5
6F6E
  8
0
 10
4314.3051133696008037
 20
155.2953496924938008
 30
0.0
 40
1.137646391840236
 50
262.0778120275406877
 51
269.1496951925229837
  0
ARC
  5
6F6F
  8
0
 10
4314.4177062340841076
 20
158.3349743732898958
 30
0.0
 40
4.1791519390440941
 50
268.2246173394296989
 51
270.0391542351578096
  0
ARC
  5
6F70
  8
0
 10
4314.1407835072614034
 20
154.1729229451923118
 30
0.0
 40
0.0016031823879628
 50
113.815701595863203
 51
218.4306941130024029
  0
ARC
  5
6F71
  8
0
 10
4314.176198558946453
 20
154.0739703912109917
 30
0.0
 40
0.1066982566028034
 50
95.7027235355696462
 51
109.7541568850809028
  0
ARC
  5
6F72
  8
0
 10
4314.3946134049710963
 20
151.5544155390836067
 30
0.0
 40
2.6356936182810391
 50
89.4359066844908597
 51
94.9847535779328069
  0
ARC
  5
6F73
  8
0
 10
4312.9051782732831271
 20
154.1677331674248137
 30
0.0
 40
0.994986913765463
 50
8.7081155728586204
 51
25.8984368453055005
  0
ARC
  5
6F74
  8
0
 10
4313.9017492897655757
 20
154.3191695511318073
 30
0.0
 40
0.0130780201304154
 50
183.4830693510272965
 51
257.5585384690862725
  0
ARC
  5
6F75
  8
0
 10
4314.0022237546354518
 20
154.6710673125807034
 30
0.0
 40
0.3790151409799929
 50
254.1852811742267022
 51
266.0625365627457768
  0
ARC
  5
6F76
  8
0
 10
4314.3338533353389721
 20
158.754642439558296
 30
0.0
 40
4.4760077669385856
 50
265.4168916522264112
 51
266.4767786634698723
  0
ARC
  5
6F77
  8
0
 10
4314.1102151756831518
 20
155.2503401317628118
 30
0.0
 40
0.9607250354766925
 50
260.8823397143891043
 51
266.8752959680742833
  0
ARC
  5
6F78
  8
0
 10
4313.9607271379800295
 20
154.3399666353139139
 30
0.0
 40
0.0383116683080817
 50
230.4073970874094073
 51
265.8826360810575125
  0
ARC
  5
6F79
  8
0
 10
4313.9507712925260421
 20
154.298122392013795
 30
0.0
 40
0.0189984720430399
 50
99.2260392040767556
 51
139.5676966576853886
  0
ARC
  5
6F7A
  8
0
 10
4314.3596037907191203
 20
150.7132679773326913
 30
0.0
 40
3.6270688082442768
 50
89.0370128341438232
 51
96.5203935367913033
  0
ARC
  5
6F7B
  8
0
 10
4314.4013018585328609
 20
154.9277581810183051
 30
0.0
 40
0.7640019927294392
 50
236.1915872877382014
 51
247.3452998917402113
  0
ARC
  5
6F7C
  8
0
 10
4314.3647137510470202
 20
152.0322102652907006
 30
0.0
 40
2.1554781570836639
 50
92.0334611471383539
 51
93.2138771992696888
  0
ARC
  5
6F7D
  8
0
 10
4314.291371197636181
 20
153.2438238897605061
 30
0.0
 40
0.9416262608076932
 50
93.5701910650023763
 51
95.6154899119632233
  0
ARC
  5
6F7E
  8
0
 10
4314.221762114168996
 20
153.9187944118264966
 30
0.0
 40
0.2630580636261891
 50
95.7746535787262445
 51
100.5430942734238045
  0
ARC
  5
6F7F
  8
0
 10
4314.171398235775996
 20
154.1640688003685966
 30
0.0
 40
0.0125560051244632
 50
98.4500340268759544
 51
133.7336568086805926
  0
ARC
  5
6F80
  8
0
 10
4314.1711019108388427
 20
154.1811309373501047
 30
0.0
 40
0.0119156870192903
 50
225.2844530078527043
 51
262.5318561565935056
  0
ARC
  5
6F81
  8
0
 10
4314.2235694744958892
 20
154.4396167116225058
 30
0.0
 40
0.2757827426505176
 50
259.5669731465325754
 51
264.1152784830430278
  0
ARC
  5
6F82
  8
0
 10
4314.2913711475739547
 20
155.1019803171843989
 30
0.0
 40
0.9416256357100483
 50
264.3845094091174133
 51
266.4298096139564791
  0
ARC
  5
6F83
  8
0
 10
4314.3647481682837679
 20
156.3143456441763135
 30
0.0
 40
2.156229984788316
 50
266.7863285999397931
 51
267.9663330536408807
  0
ARC
  5
6F84
  8
0
 10
4314.4036576724083716
 20
157.3916025507793961
 30
0.0
 40
3.2341917578121429
 50
268.0755785576490098
 51
268.9828414833149282
  0
ARC
  5
6F85
  8
0
 10
4314.3175506557927292
 20
154.8676265273880119
 30
0.0
 40
0.7043961235948184
 50
264.3888393228106111
 51
266.3840416067671981
  0
ARC
  5
6F86
  8
0
 10
4314.2634120691245698
 20
154.3550960061490116
 30
0.0
 40
0.1890012607444491
 50
259.4488820233697197
 51
264.3303328335321112
  0
ARC
  5
6F87
  8
0
 10
4314.2257468947291272
 20
154.1784108297158866
 30
0.0
 40
0.0082606470342461
 50
224.0864011949151973
 51
262.9124612251766848
  0
ARC
  5
6F88
  8
0
 10
4314.2261385459942176
 20
154.1666084885295049
 30
0.0
 40
0.0090931618597274
 50
98.9260860485734952
 51
134.0750487295291009
  0
ARC
  5
6F89
  8
0
 10
4314.2655622533493442
 20
153.9756204597968008
 30
0.0
 40
0.204229267066696
 50
95.851753696159733
 51
100.3690312422881021
  0
ARC
  5
6F8A
  8
0
 10
4314.3196851400971354
 20
153.4517274283927009
 30
0.0
 40
0.7309291042025516
 50
93.652174892003174
 51
95.5749437127468013
  0
ARC
  5
6F8B
  8
0
 10
4314.4187273167208332
 20
156.1865432022935067
 30
0.0
 40
2.0219988189992231
 50
268.1968072446812812
 51
269.9404321164050771
  0
ARC
  5
6F8C
  8
0
 10
4314.4177439235172642
 20
157.0009467998962975
 30
0.0
 40
2.83986611870725
 50
268.1598114538961113
 51
269.9774278478590759
  0
ARC
  5
6F8D
  8
0
 10
4314.3747035564992984
 20
154.9737703367638062
 30
0.0
 40
0.8084176581038679
 50
264.9288400115631816
 51
268.1271422996763931
  0
ARC
  5
6F8E
  8
0
 10
4314.3557768098407905
 20
155.3022865071480965
 30
0.0
 40
1.140072347487765
 50
264.8677851552814104
 51
268.1881971076788886
  0
ARC
  5
6F8F
  8
0
 10
4314.2526307432717658
 20
154.2354828314107067
 30
0.0
 40
0.0683406846228522
 50
246.8105265939344974
 51
267.6725669953203237
  0
ARC
  5
6F90
  8
0
 10
4314.2523190128185888
 20
154.1116987042449864
 30
0.0
 40
0.0669529430162198
 50
92.1087296703562828
 51
113.4081762887227995
  0
ARC
  5
6F91
  8
0
 10
4314.3570258302461298
 20
153.02293194689139
 30
0.0
 40
1.160688075357843
 50
91.8412988294733736
 51
95.1027187344152054
  0
ARC
  5
6F92
  8
0
 10
4314.4179329472854079
 20
151.333230673587309
 30
0.0
 40
2.8514935547885321
 50
90.026278213059399
 51
91.8364823580029963
  0
ARC
  5
6F93
  8
0
 10
4314.4187273270281366
 20
152.1592611959048895
 30
0.0
 40
2.0219992509457652
 50
90.0595681629579161
 51
91.8031926622037844
  0
ARC
  5
6F94
  8
0
 10
4314.3747089193730062
 20
153.3719461023991073
 30
0.0
 40
0.808506177029729
 50
91.8730328281117039
 51
95.0709848606468881
  0
ARC
  5
6F95
  8
0
 10
4314.3015418698387293
 20
154.1287410623000085
 30
0.0
 40
0.0481847598673188
 50
92.6570387793611587
 51
112.8598672677500048
  0
ARC
  5
6F96
  8
0
 10
4314.3005264764888125
 20
154.2125794473411133
 30
0.0
 40
0.0436656365923489
 50
246.0819294430413038
 51
268.4011638485404205
  0
ARC
  5
6F97
  8
0
 10
4314.4191894166451675
 20
156.1195918022609987
 30
0.0
 40
1.9546919205072719
 50
268.2077754911363172
 51
270.0402372310816759
  0
ARC
  5
6F98
  8
0
 10
4314.3967014720083171
 20
154.5625029587658901
 30
0.0
 40
0.3933424768399307
 50
265.0458060139714007
 51
267.9688153526161045
  0
ARC
  5
6F99
  8
0
 10
4314.3644426190603554
 20
154.2103699635574969
 30
0.0
 40
0.0397767470126593
 50
251.4328660523958092
 51
267.5362071462902804
  0
ARC
  5
6F9A
  8
0
 10
4314.3667823699606743
 20
154.1256366618383993
 30
0.0
 40
0.0498181454559809
 50
91.0145577244810653
 51
107.5297671122442011
  0
ARC
  5
6F9B
  8
0
 10
4314.3991947045342386
 20
153.7347437320215136
 30
0.0
 40
0.4419591468666554
 50
92.1310854605064549
 51
94.320398640907797
  0
ARC
  5
6F9C
  8
0
 10
4314.3993169385794317
 20
153.8046006089153082
 30
0.0
 40
0.3717345629671405
 50
92.0964679001999826
 51
94.712348254705816
  0
ARC
  5
6F9D
  8
0
 10
4314.3704624548263382
 20
154.1327598811838868
 30
0.0
 40
0.0423522400138983
 50
92.2797804246560247
 51
107.5478412760780031
  0
ARC
  5
6F9E
  8
0
 10
4314.3668045954391346
 20
154.1964192455278919
 30
0.0
 40
0.0254430988195675
 50
249.0158322012125041
 51
268.2972001850168908
  0
ARC
  5
6F9F
  8
0
 10
4314.4030374288659004
 20
154.5781358736325899
 30
0.0
 40
0.408825233038291
 50
264.8090076104675745
 51
267.5720159676259868
  0
ARC
  5
6FA0
  8
0
 10
4314.4199103143737375
 20
155.1986371429721032
 30
0.0
 40
1.02991511027408
 50
268.3123867646967255
 51
270.0362622042350154
  0
ARC
  5
6FA1
  8
0
 10
4314.4199540637619066
 20
155.1106081756892081
 30
0.0
 40
0.9415278322833424
 50
268.3313372379683983
 51
270.037004040251702
  0
ARC
  5
6FA2
  8
0
 10
4314.4200746418082417
 20
153.2267287801853968
 30
0.0
 40
0.9499956351649235
 50
89.9705980549059774
 51
91.661060257974313
  0
ARC
  5
6FA3
  8
0
 10
4314.4198741045429415
 20
153.1496799777632134
 30
0.0
 40
1.0274028436888689
 50
89.9616297925938824
 51
91.689720871288344
  0
ARC
  5
6FA4
  8
0
 10
4314.4195491553682587
 20
152.202685775726394
 30
0.0
 40
1.9782189500011329
 50
89.9706605383885289
 51
91.7813269212664977
  0
ARC
  5
6FA5
  8
0
 10
4314.384450942413423
 20
153.2445426857121049
 30
0.0
 40
0.9357568206210677
 50
92.0340892247696303
 51
94.0102198671005453
  0
ARC
  5
6FA6
  8
0
 10
4314.332715629766426
 20
153.996128299644198
 30
0.0
 40
0.1823958064563109
 50
94.3096022767129654
 51
103.9543361941772019
  0
ARC
  5
6FA7
  8
0
 10
4314.3191252228998565
 20
154.2677618764346903
 30
0.0
 40
0.0998373255898618
 50
252.2757681698548993
 51
268.7821070496967764
  0
ARC
  5
6FA8
  8
0
 10
4314.3826565507106352
 20
155.0641359769749954
 30
0.0
 40
0.8985904824864656
 50
265.8100894479620138
 51
267.9962296087722962
  0
ARC
  5
6FA9
  8
0
 10
4314.4047045126699231
 20
154.1136864351990141
 30
0.0
 40
0.0605414481419171
 50
91.1263841618570751
 51
100.8717135290619069
  0
ARC
  5
6FAA
  8
0
 10
4314.4045011833140961
 20
154.2301835357660025
 30
0.0
 40
0.0586031988373662
 50
258.9667180188437214
 51
269.0351841693972119
  0
ARC
  5
6FAB
  8
0
 10
4313.7205239000259098
 20
154.9844631169081026
 30
0.0
 40
0.0389287090184662
 50
92.9204828884883653
 51
137.9306886283997926
  0
ARC
  5
6FAC
  8
0
 10
4314.5193346941287018
 20
154.3938508138413965
 30
0.0
 40
1.0321897231883721
 50
143.3115515362964061
 51
151.1225832359104118
  0
ARC
  5
6FAD
  8
0
 10
4313.6317875322502005
 20
154.853718475971192
 30
0.0
 40
0.0419125195516949
 50
112.8787937438150948
 51
166.7443719631147871
  0
ARC
  5
6FAE
  8
0
 10
4352.3756753243851563
 20
151.2110278190978931
 30
0.0
 40
38.9562701852539206
 50
174.6203983827574007
 51
177.5164975744945082
  0
ARC
  5
6FAF
  8
0
 10
4313.6441554511102368
 20
154.8791925027007892
 30
0.0
 40
0.0315316833131993
 50
155.3696711220611917
 51
177.6881368266583081
  0
ARC
  5
6FB0
  8
0
 10
4314.4555381769478117
 20
154.8400549804796071
 30
0.0
 40
0.8438568365370142
 50
177.2552479351649879
 51
238.0431462335228048
  0
ARC
  5
6FB1
  8
0
 10
4314.4216711641365691
 20
154.7967533846855872
 30
0.0
 40
0.7892140100756575
 50
238.4653593248021934
 51
269.9194866153906105
  0
ARC
  5
6FB2
  8
0
 10
4314.4292345363310233
 20
155.2511636866551044
 30
0.0
 40
0.8866824394741628
 50
257.7175789600785833
 51
269.4395970007922188
  0
ARC
  5
6FB3
  8
0
 10
4314.4136687853233525
 20
155.1158210252496872
 30
0.0
 40
0.751249126815455
 50
215.3700089720572066
 51
256.6816546644756727
  0
ARC
  5
6FB4
  8
0
 10
4314.7454714769392012
 20
155.3156976866605135
 30
0.0
 40
1.1378824293148291
 50
203.2834414977751862
 51
213.9055923151246077
  0
ARC
  5
6FB5
  8
0
 10
4315.9336151742163565
 20
155.562264808288603
 30
0.0
 40
2.3393993155643038
 50
197.3172075880260934
 51
204.2260573886294992
  0
ARC
  5
6FB6
  8
0
 10
4313.71305880633372
 20
154.9950439555283879
 30
0.0
 40
0.0264519138209267
 50
144.1217672399764922
 51
192.4202710472739
  0
ARC
  5
6FB7
  8
0
 10
4314.4667204677989503
 20
155.1404389073063044
 30
0.0
 40
0.7940013404103216
 50
190.969248392048911
 51
223.2002224174682112
  0
ARC
  5
6FB8
  8
0
 10
4314.4288729934132789
 20
155.1350329187129091
 30
0.0
 40
0.7630274431247156
 50
224.8500067134104938
 51
269.3759253190120262
  0
LINE
  5
6FB9
  8
0
 10
4315.7000897013567737
 20
148.4937522263672918
 30
0.0
 11
4315.7000897013567737
 21
148.2181616751672948
 31
0.0
  0
LINE
  5
6FBA
  8
0
 10
4315.3851290714574134
 20
152.899070113067296
 30
0.0
 11
4315.3851290714574134
 21
148.5409974292672928
 31
0.0
  0
ARC
  5
6FBB
  8
0
 10
4315.3546724180941965
 20
148.5438939591342091
 30
0.0
 40
0.030594078174927
 50
275.4318898289728281
 51
354.5673188130251106
  0
ARC
  5
6FBC
  8
0
 10
4315.6785754634183832
 20
148.4919230276539963
 30
0.0
 40
0.0215918597237444
 50
4.8597544835678761
 51
85.1402478449456908
  0
ARC
  5
6FBD
  8
0
 10
4315.6793373566952141
 20
148.2192289811746093
 30
0.0
 40
0.0207797726428857
 50
272.944128929650617
 51
357.0558364339033233
  0
LINE
  5
6FBE
  8
0
 10
4314.6715711144079251
 20
154.1726635478673018
 30
0.0
 11
4314.6715711144079251
 21
154.1693163277672909
 31
0.0
  0
LINE
  5
6FBF
  8
0
 10
4314.6458300662079637
 20
154.1687456280673132
 30
0.0
 11
4314.6458300662079637
 21
154.1652872909673135
 31
0.0
  0
LINE
  5
6FC0
  8
0
 10
4314.6213109420068577
 20
154.1731412822672951
 30
0.0
 11
4314.6213109420068577
 21
154.1756714183673012
 31
0.0
  0
LINE
  5
6FC1
  8
0
 10
4314.6123207448081303
 20
154.1765144380673007
 30
0.0
 11
4314.6123207448081303
 21
154.1793437359673078
 31
0.0
  0
LINE
  5
6FC2
  8
0
 10
4314.608389353507846
 20
154.1660471671673065
 30
0.0
 11
4314.608389353507846
 21
154.162182130367313
 31
0.0
  0
LINE
  5
6FC3
  8
0
 10
4314.5924471987073048
 20
154.1791992227672949
 30
0.0
 11
4314.5924471987073048
 21
154.1826554529673103
 31
0.0
  0
LINE
  5
6FC4
  8
0
 10
4314.5912688701073421
 20
154.1726635478673018
 30
0.0
 11
4314.5912688701073421
 21
154.1671985233672899
 31
0.0
  0
LINE
  5
6FC5
  8
0
 10
4314.5583011634071227
 20
154.1731412822672951
 30
0.0
 11
4314.5583011634071227
 21
154.1774514759673025
 31
0.0
  0
LINE
  5
6FC6
  8
0
 10
4314.5568632916074421
 20
154.1818477335673094
 30
0.0
 11
4314.5568632916074421
 21
154.186183097867314
 31
0.0
  0
LINE
  5
6FC7
  8
0
 10
4314.5528936714072188
 20
154.1637409200673119
 30
0.0
 11
4314.5528936714072188
 21
154.1594737660672934
 31
0.0
  0
LINE
  5
6FC8
  8
0
 10
4314.537879129708017
 20
154.1772877495673129
 30
0.0
 11
4314.537879129708017
 21
154.1823418282673117
 31
0.0
  0
LINE
  5
6FC9
  8
0
 10
4314.5213927501081344
 20
154.1672067808673035
 30
0.0
 11
4314.5213927501081344
 21
154.162784117667286
 31
0.0
  0
LINE
  5
6FCA
  8
0
 10
4314.5175269933079107
 20
154.18356993866729
 30
0.0
 11
4314.5175269933079107
 21
154.1873029122193941
 31
0.0
  0
LINE
  5
6FCB
  8
0
 10
4314.4948794430083581
 20
154.1615861984672904
 30
0.0
 11
4314.4948794430083581
 21
154.157920424567294
 31
0.0
  0
LINE
  5
6FCC
  8
0
 10
4314.489887185806765
 20
154.1726635478673018
 30
0.0
 11
4314.489887185806765
 21
154.1660949571673029
 31
0.0
  0
LINE
  5
6FCD
  8
0
 10
4314.4893472022067726
 20
154.1731412822672951
 30
0.0
 11
4314.4893472022067726
 21
154.1796531273674873
 31
0.0
  0
LINE
  5
6FCE
  8
0
 10
4314.4860221040080432
 20
154.180259170067302
 30
0.0
 11
4314.4860221040080432
 21
154.1840392822672925
 31
0.0
  0
LINE
  5
6FCF
  8
0
 10
4314.4648840556073992
 20
154.1847841381672879
 30
0.0
 11
4314.4648840556073992
 21
154.1883142627673067
 31
0.0
  0
LINE
  5
6FD0
  8
0
 10
4314.4554061782073404
 20
154.1726635478673018
 30
0.0
 11
4314.4554061782073404
 21
154.1697184784673027
 31
0.0
  0
LINE
  5
6FD1
  8
0
 10
4314.4515451234074135
 20
154.1766360720673106
 30
0.0
 11
4314.4515451234074135
 21
154.1806776901673004
 31
0.0
  0
LINE
  5
6FD2
  8
0
 10
4314.4478385329066441
 20
154.1731412822672951
 30
0.0
 11
4314.4478385329066441
 21
154.1752910870673077
 31
0.0
  0
LINE
  5
6FD3
  8
0
 10
4314.4307907888069167
 20
154.1744550518673122
 30
0.0
 11
4314.4307907888069167
 21
154.1766727946672972
 31
0.0
  0
LINE
  5
6FD4
  8
0
 10
4314.4244991501072946
 20
154.1610809015672885
 30
0.0
 11
4314.4244991501072946
 21
154.1645454760673033
 31
0.0
  0
LINE
  5
6FD5
  8
0
 10
4314.4244991501072946
 20
154.1572584367673073
 30
0.0
 11
4314.4244991501072946
 21
154.1607225297672983
 31
0.0
  0
LINE
  5
6FD6
  8
0
 10
4314.4244991501072946
 20
154.1812593540672935
 30
0.0
 11
4314.4244991501072946
 21
154.1847239284672924
 31
0.0
  0
LINE
  5
6FD7
  8
0
 10
4314.4244991501072946
 20
154.185082300267311
 30
0.0
 11
4314.4244991501072946
 21
154.1885463932673019
 31
0.0
  0
LINE
  5
6FD8
  8
0
 10
4314.4648840556073992
 20
154.161020691867293
 30
0.0
 11
4314.4796680127074069
 21
154.1576731310672983
 31
0.0
  0
LINE
  5
6FD9
  8
0
 10
4314.4948794430083581
 20
154.157920424567294
 30
0.0
 11
4314.4800954859074409
 21
154.1612679854673047
 31
0.0
  0
LINE
  5
6FDA
  8
0
 10
4314.4307907888069167
 20
154.171349778267313
 30
0.0
 11
4314.4485870805083323
 21
154.1694796112672918
 31
0.0
  0
LINE
  5
6FDB
  8
0
 10
4314.4515451234074135
 20
154.1691687580672863
 30
0.0
 11
4314.4830680881068474
 21
154.1658560899672921
 31
0.0
  0
LINE
  5
6FDC
  8
0
 10
4314.4860221040080432
 20
154.1655456599673073
 30
0.0
 11
4314.5145736524073072
 21
154.1625452504673035
 31
0.0
  0
LINE
  5
6FDD
  8
0
 10
4314.5175269933079107
 20
154.1622348913672909
 30
0.0
 11
4314.5460745737082107
 21
154.1592348988673109
 31
0.0
  0
LINE
  5
6FDE
  8
0
 10
4314.5528936714072188
 20
154.1594737660672934
 30
0.0
 11
4314.5243460910069189
 21
154.1624737585673017
 31
0.0
  0
LINE
  5
6FDF
  8
0
 10
4314.5213927501081344
 20
154.162784117667286
 30
0.0
 11
4314.4928412017070514
 21
154.1657845271672898
 31
0.0
  0
LINE
  5
6FE0
  8
0
 10
4314.489887185806765
 20
154.1660949571673029
 30
0.0
 11
4314.4583642210072867
 21
154.1694076252672971
 31
0.0
  0
LINE
  5
6FE1
  8
0
 10
4314.4554061782073404
 20
154.1697184784673027
 30
0.0
 11
4314.4376098864067899
 21
154.1715886454672955
 31
0.0
  0
LINE
  5
6FE2
  8
0
 10
4314.4376098864067899
 20
154.1742161846673014
 30
0.0
 11
4314.4554061782073404
 21
154.1760863516672941
 31
0.0
  0
LINE
  5
6FE3
  8
0
 10
4314.4583642210072867
 20
154.1763972048672997
 30
0.0
 11
4314.489887185806765
 21
154.1797098728673063
 31
0.0
  0
LINE
  5
6FE4
  8
0
 10
4314.4928412017070514
 20
154.1800203028672911
 30
0.0
 11
4314.5213927501081344
 21
154.1830207123672949
 31
0.0
  0
LINE
  5
6FE5
  8
0
 10
4314.5243460910069189
 20
154.1833310714673075
 30
0.0
 11
4314.5528936714072188
 21
154.1863310639672875
 31
0.0
  0
LINE
  5
6FE6
  8
0
 10
4314.5460745737082107
 20
154.1865699311672984
 30
0.0
 11
4314.5175269933079107
 21
154.18356993866729
 31
0.0
  0
LINE
  5
6FE7
  8
0
 10
4314.5145736524073072
 20
154.1832595796672933
 30
0.0
 11
4314.4860221040080432
 21
154.180259170067302
 31
0.0
  0
LINE
  5
6FE8
  8
0
 10
4314.4830680881068474
 20
154.1799487400672888
 30
0.0
 11
4314.4515451234074135
 21
154.1766360720673106
 31
0.0
  0
LINE
  5
6FE9
  8
0
 10
4314.4485870805083323
 20
154.176325218867305
 30
0.0
 11
4314.4307907888069167
 21
154.1744550518673122
 31
0.0
  0
LINE
  5
6FEA
  8
0
 10
4314.4800954859074409
 20
154.1845368446672921
 30
0.0
 11
4314.4948794430083581
 21
154.1878844054672868
 31
0.0
  0
LINE
  5
6FEB
  8
0
 10
4314.4796680127074069
 20
154.1881316990672985
 30
0.0
 11
4314.4648840556073992
 21
154.1847841381672879
 31
0.0
  0
LINE
  5
6FEC
  8
0
 10
4314.5568632916074421
 20
154.1639570964672998
 30
0.0
 11
4314.597253813608404
 21
154.1615065118672874
 31
0.0
  0
LINE
  5
6FED
  8
0
 10
4314.608389353507846
 20
154.162182130367313
 30
0.0
 11
4314.5679988315077935
 21
154.164632714967297
 31
0.0
  0
LINE
  5
6FEE
  8
0
 10
4314.537879129708017
 20
154.1685170804672964
 30
0.0
 11
4314.5873318622079751
 21
154.1667847932673112
 31
0.0
  0
LINE
  5
6FEF
  8
0
 10
4314.5924471987073048
 20
154.1666056073673019
 30
0.0
 11
4314.6418930583067777
 21
154.1648735608673064
 31
0.0
  0
LINE
  5
6FF0
  8
0
 10
4314.6458300662079637
 20
154.1652872909673135
 30
0.0
 11
4314.5963842066066718
 21
154.167019337467309
 31
0.0
  0
LINE
  5
6FF1
  8
0
 10
4314.5912688701073421
 20
154.1671985233672899
 30
0.0
 11
4314.5418161376082935
 21
154.1689308105673035
 31
0.0
  0
LINE
  5
6FF2
  8
0
 10
4314.6123207448081303
 20
154.1692903919673086
 30
0.0
 11
4314.6674952239072809
 21
154.1683934157672979
 31
0.0
  0
LINE
  5
6FF3
  8
0
 10
4314.6715711144079251
 20
154.1693163277672909
 30
0.0
 11
4314.6163966352078205
 21
154.1702133039673015
 31
0.0
  0
LINE
  5
6FF4
  8
0
 10
4314.4478385329066441
 20
154.1726635478673018
 30
0.0
 11
4314.4834311164067913
 21
154.1726635478673018
 31
0.0
  0
LINE
  5
6FF5
  8
0
 10
4314.4893472022067726
 20
154.1726635478673018
 30
0.0
 11
4314.552393131608369
 21
154.1726635478673018
 31
0.0
  0
LINE
  5
6FF6
  8
0
 10
4314.5583011634071227
 20
154.1726635478673018
 30
0.0
 11
4314.6154042602083791
 21
154.1726635478673018
 31
0.0
  0
LINE
  5
6FF7
  8
0
 10
4314.6213109420068577
 20
154.1726635478673018
 30
0.0
 11
4314.678406102808367
 21
154.1726635478673018
 31
0.0
  0
LINE
  5
6FF8
  8
0
 10
4314.678406102808367
 20
154.1731412822672951
 30
0.0
 11
4314.6213109420068577
 21
154.1731412822672951
 31
0.0
  0
LINE
  5
6FF9
  8
0
 10
4314.6154042602083791
 20
154.1731412822672951
 30
0.0
 11
4314.5583011634071227
 21
154.1731412822672951
 31
0.0
  0
LINE
  5
6FFA
  8
0
 10
4314.552393131608369
 20
154.1731412822672951
 30
0.0
 11
4314.4893472022067726
 21
154.1731412822672951
 31
0.0
  0
LINE
  5
6FFB
  8
0
 10
4314.4834311164067913
 20
154.1731412822672951
 30
0.0
 11
4314.4478385329066441
 21
154.1731412822672951
 31
0.0
  0
LINE
  5
6FFC
  8
0
 10
4314.6163966352078205
 20
154.1755915260673078
 30
0.0
 11
4314.6715711144079251
 21
154.176488502367306
 31
0.0
  0
LINE
  5
6FFD
  8
0
 10
4314.6674952239072809
 20
154.1774114143672989
 30
0.0
 11
4314.6123207448081303
 21
154.1765144380673007
 31
0.0
  0
LINE
  5
6FFE
  8
0
 10
4314.5418161376082935
 20
154.1768740194673057
 30
0.0
 11
4314.5912688701073421
 21
154.1786063066672909
 31
0.0
  0
LINE
  5
6FFF
  8
0
 10
4314.5963842066066718
 20
154.1787854925673003
 30
0.0
 11
4314.6458300662079637
 21
154.1805175390672957
 31
0.0
  0
LINE
  5
7000
  8
0
 10
4314.6418930583067777
 20
154.1809312692672904
 30
0.0
 11
4314.5924471987073048
 21
154.1791992227672949
 31
0.0
  0
LINE
  5
7001
  8
0
 10
4314.5873318622079751
 20
154.179020036867314
 30
0.0
 11
4314.537879129708017
 21
154.1772877495673129
 31
0.0
  0
LINE
  5
7002
  8
0
 10
4314.5679988315077935
 20
154.1811721150673122
 30
0.0
 11
4314.608389353507846
 21
154.1836226997673123
 31
0.0
  0
LINE
  5
7003
  8
0
 10
4314.597253813608404
 20
154.1842983181672935
 30
0.0
 11
4314.5568632916074421
 21
154.1818477335673094
 31
0.0
  0
ARC
  5
7004
  8
0
 10
4314.4207609166078328
 20
150.0213274179673135
 30
0.0
 40
4.1672206520000001
 50
89.1900499907820574
 51
89.9486024250759044
  0
ARC
  5
7005
  8
0
 10
4314.4210139500073637
 20
150.9778870367672994
 30
0.0
 40
3.2071971572
 50
89.2162470339200127
 51
89.9377377543939076
  0
ARC
  5
7006
  8
0
 10
4314.433851069407865
 20
151.6692719678673029
 30
0.0
 40
2.5156899542999991
 50
88.0938979649117755
 51
88.9467067938040259
  0
ARC
  5
7007
  8
0
 10
4314.4208024856070551
 20
153.7570927298673098
 30
0.0
 40
0.4174818247000001
 50
88.6290607355900164
 51
90.0329850554020368
  0
ARC
  5
7008
  8
0
 10
4314.586493450908165
 20
154.2806856330672929
 30
0.0
 40
0.1583581502
 50
316.6232672244954074
 51
352.2001563114985174
  0
ARC
  5
7009
  8
0
 10
4314.4206196663080846
 20
154.604369284867289
 30
0.0
 40
0.4331389441
 50
269.9923906950913874
 51
271.3455635139176252
  0
ARC
  5
700A
  8
0
 10
4314.1708032558080959
 20
154.4351070332672862
 30
0.0
 40
0.6291892721
 50
343.7438443906982002
 51
348.5467141689002801
  0
ARC
  5
700B
  8
0
 10
4314.4211769969078887
 20
158.2691241521673078
 30
0.0
 40
4.1118670573999996
 50
270.0462917155749096
 51
270.815055868522677
  0
ARC
  5
700C
  8
0
 10
4314.420720010707555
 20
157.4077307274673103
 30
0.0
 40
3.247010396999999
 50
270.066685584687491
 51
270.7793296269973098
  0
ARC
  5
700D
  8
0
 10
4314.4309859725080969
 20
156.7874484034672946
 30
0.0
 40
2.6266395512999989
 50
271.0713048959838147
 51
271.8880903452813982
  0
LINE
  5
700E
  8
0
 10
4314.4948794430083581
 20
154.1878844054672868
 30
0.0
 11
4314.5460745737082107
 21
154.1865699311672984
 31
0.0
  0
LINE
  5
700F
  8
0
 10
4314.5243460910069189
 20
154.1624737585673017
 30
0.0
 11
4314.5568632916074421
 21
154.1639570964672998
 31
0.0
  0
LINE
  5
7010
  8
0
 10
4314.5568632916074421
 20
154.1818477335673094
 30
0.0
 11
4314.5243460910069189
 21
154.1833310714673075
 31
0.0
  0
ARC
  5
7011
  8
0
 10
4314.4278721950313411
 20
149.2239391190749984
 30
0.0
 40
5.1087723599079711
 50
87.6842796650542766
 51
90.081983552936066
  0
ARC
  5
7012
  8
0
 10
4314.6360577927844133
 20
153.6954884316537004
 30
0.0
 40
0.6330533992986374
 50
76.1626037629788755
 51
90.1593686120635169
  0
ARC
  5
7013
  8
0
 10
4314.7382119118728951
 20
154.3313330195657898
 30
0.0
 40
0.0810978441990062
 50
272.6156791097238852
 51
296.8477366967530884
  0
ARC
  5
7014
  8
0
 10
4314.7638482565116647
 20
154.2504516807254902
 30
0.0
 40
0.0139081903516365
 50
37.8032069874582817
 51
82.7970073164333229
  0
ARC
  5
7015
  8
0
 10
4314.5495706335841533
 20
152.6898387003537891
 30
0.0
 40
1.5891622244101691
 50
82.1873561573777636
 51
89.309640321299625
  0
ARC
  5
7016
  8
0
 10
4315.8235137151850722
 20
254.2455052111947964
 30
0.0
 40
99.974494521216613
 50
269.1959364947753102
 51
269.2808527512635806
  0
ARC
  5
7017
  8
0
 10
4314.5603940130731644
 20
153.2986386755619037
 30
0.0
 40
0.9778310388064859
 50
79.2140042425551485
 51
88.1942952229986048
  0
ARC
  5
7018
  8
0
 10
4313.7490252118077478
 20
110.6444015693547982
 30
0.0
 40
43.6397097447066997
 50
88.8942092920823796
 51
89.1182858272103715
  0
ARC
  5
7019
  8
0
 10
4314.6891104298538266
 20
154.1913710125286059
 30
0.0
 40
0.0231083596058086
 50
279.2139389152937952
 51
302.7063344232483928
  0
ARC
  5
701A
  8
0
 10
4314.5360109150142307
 20
155.2953496924938008
 30
0.0
 40
1.137646391840236
 50
270.8503048074770163
 51
277.9221879724593123
  0
ARC
  5
701B
  8
0
 10
4314.4234180505300174
 20
158.3349743732898958
 30
0.0
 40
4.1791519390440941
 50
269.9608457648421904
 51
271.7753826605703011
  0
ARC
  5
701C
  8
0
 10
4314.700340777353631
 20
154.1729229451923118
 30
0.0
 40
0.0016031823879628
 50
321.5693058869974834
 51
66.1842984041367828
  0
ARC
  5
701D
  8
0
 10
4314.6649257256676719
 20
154.0739703912109917
 30
0.0
 40
0.1066982566028034
 50
70.2458431149190972
 51
84.2972764644303538
  0
ARC
  5
701E
  8
0
 10
4314.4465108796430286
 20
151.5544155390836067
 30
0.0
 40
2.6356936182810391
 50
85.0152464220672357
 51
90.5640933155091545
  0
ARC
  5
701F
  8
0
 10
4315.9359460113319074
 20
154.1677331674248137
 30
0.0
 40
0.994986913765463
 50
154.1015631546945031
 51
171.2918844271414116
  0
ARC
  5
7020
  8
0
 10
4314.9393749948485492
 20
154.3191695511318073
 30
0.0
 40
0.0130780201304154
 50
282.4414615309137275
 51
356.5169306489710266
  0
ARC
  5
7021
  8
0
 10
4314.8389005299795826
 20
154.6710673125807034
 30
0.0
 40
0.3790151409799929
 50
273.9374634372541095
 51
285.8147188257732978
  0
ARC
  5
7022
  8
0
 10
4314.5072709492769718
 20
158.754642439558296
 30
0.0
 40
4.4760077669385856
 50
273.5232213364780023
 51
274.5831083477737025
  0
ARC
  5
7023
  8
0
 10
4314.7309091089318827
 20
155.2503401317628118
 30
0.0
 40
0.9607250354766925
 50
273.124704031925603
 51
279.1176602856108957
  0
ARC
  5
7024
  8
0
 10
4314.8803971466350049
 20
154.3399666353139139
 30
0.0
 40
0.0383116683080817
 50
274.1173639189424875
 51
309.5926029125906211
  0
ARC
  5
7025
  8
0
 10
4314.8903529920889923
 20
154.298122392013795
 30
0.0
 40
0.0189984720430399
 50
40.4323033423145333
 51
80.7739607959232444
  0
ARC
  5
7026
  8
0
 10
4314.4815204938968236
 20
150.7132679773326913
 30
0.0
 40
3.6270688082442768
 50
83.4796064632086967
 51
90.9629871658561626
  0
ARC
  5
7027
  8
0
 10
4314.439822426081264
 20
154.9277581810183051
 30
0.0
 40
0.7640019927294392
 50
292.654700108259874
 51
303.8084127122617133
  0
ARC
  5
7028
  8
0
 10
4314.4764105335680142
 20
152.0322102652907006
 30
0.0
 40
2.1554781570836639
 50
86.7861228007303254
 51
87.9665388528616461
  0
ARC
  5
7029
  8
0
 10
4314.5497530869779439
 20
153.2438238897605061
 30
0.0
 40
0.9416262608076932
 50
84.3845100880367625
 51
86.4298089349976237
  0
ARC
  5
702A
  8
0
 10
4314.6193621704460384
 20
153.9187944118264966
 30
0.0
 40
0.2630580636261891
 50
79.4569057265761529
 51
84.2253464212737697
  0
ARC
  5
702B
  8
0
 10
4314.6697260488399479
 20
154.1640688003685966
 30
0.0
 40
0.0125560051244632
 50
46.2663431913194287
 51
81.5499659731240456
  0
ARC
  5
702C
  8
0
 10
4314.6700223737752822
 20
154.1811309373501047
 30
0.0
 40
0.0119156870192903
 50
277.4681438434066081
 51
314.7155469921472104
  0
ARC
  5
702D
  8
0
 10
4314.6175548101200548
 20
154.4396167116225058
 30
0.0
 40
0.2757827426505176
 50
275.8847215169569722
 51
280.4330268534674246
  0
ARC
  5
702E
  8
0
 10
4314.5497531370401703
 20
155.1019803171843989
 30
0.0
 40
0.9416256357100483
 50
273.5701903860435209
 51
275.615490590882473
  0
ARC
  5
702F
  8
0
 10
4314.476376116330357
 20
156.3143456441763135
 30
0.0
 40
2.156229984788316
 50
272.0336669463591193
 51
273.2136714000600932
  0
ARC
  5
7030
  8
0
 10
4314.4374666122066628
 20
157.3916025507793961
 30
0.0
 40
3.2341917578121429
 50
271.0171585166850718
 51
271.9244214423508765
  0
ARC
  5
7031
  8
0
 10
4314.5235736288223052
 20
154.8676265273880119
 30
0.0
 40
0.7043961235948184
 50
273.6159583932328019
 51
275.6111606771893889
  0
ARC
  5
7032
  8
0
 10
4314.5777122154895551
 20
154.3550960061490116
 30
0.0
 40
0.1890012607444491
 50
275.6696671664680025
 51
280.5511179766302803
  0
ARC
  5
7033
  8
0
 10
4314.6153773898859072
 20
154.1784108297158866
 30
0.0
 40
0.0082606470342461
 50
277.0875387748233152
 51
315.913598805084689
  0
ARC
  5
7034
  8
0
 10
4314.6149857386208168
 20
154.1666084885295049
 30
0.0
 40
0.0090931618597274
 50
45.9249512704708565
 51
81.0739139514264906
  0
ARC
  5
7035
  8
0
 10
4314.5755620312647807
 20
153.9756204597968008
 30
0.0
 40
0.204229267066696
 50
79.6309687577118552
 51
84.1482463038402813
  0
ARC
  5
7036
  8
0
 10
4314.5214391445188085
 20
153.4517274283927009
 30
0.0
 40
0.7309291042025516
 50
84.4250562872532129
 51
86.347825107996826
  0
ARC
  5
7037
  8
0
 10
4314.4223969678942012
 20
156.1865432022935067
 30
0.0
 40
2.0219988189992231
 50
270.0595678835949229
 51
271.8031927553187188
  0
ARC
  5
7038
  8
0
 10
4314.4233803610968607
 20
157.0009467998962975
 30
0.0
 40
2.83986611870725
 50
270.0225721521409241
 51
271.8401885461038887
  0
ARC
  5
7039
  8
0
 10
4314.466420728115736
 20
154.9737703367638062
 30
0.0
 40
0.8084176581038679
 50
271.8728577003234932
 51
275.0711599884368184
  0
ARC
  5
703A
  8
0
 10
4314.4853474747751534
 20
155.3022865071480965
 30
0.0
 40
1.140072347487765
 50
271.8118028923209977
 51
275.1322148447185896
  0
ARC
  5
703B
  8
0
 10
4314.5884935413432686
 20
154.2354828314107067
 30
0.0
 40
0.0683406846228522
 50
272.3274330046796763
 51
293.1894734060654741
  0
ARC
  5
703C
  8
0
 10
4314.5888052717964456
 20
154.1116987042449864
 30
0.0
 40
0.0669529430162198
 50
66.591823711277172
 51
87.8912703296437314
  0
ARC
  5
703D
  8
0
 10
4314.4840984543698141
 20
153.02293194689139
 30
0.0
 40
1.160688075357843
 50
84.8972812655847946
 51
88.1587011705266548
  0
ARC
  5
703E
  8
0
 10
4314.4231913373296265
 20
151.333230673587309
 30
0.0
 40
2.8514935547885321
 50
88.1635176419970037
 51
89.9737217869405725
  0
ARC
  5
703F
  8
0
 10
4314.4223969575878073
 20
152.1592611959048895
 30
0.0
 40
2.0219992509457652
 50
88.1968073377962298
 51
89.9404318370420981
  0
ARC
  5
7040
  8
0
 10
4314.4664153652420282
 20
153.3719461023991073
 30
0.0
 40
0.808506177029729
 50
84.9290151393531261
 51
88.1269671718882819
  0
ARC
  5
7041
  8
0
 10
4314.5395824147763051
 20
154.1287410623000085
 30
0.0
 40
0.0481847598673188
 50
67.140132732249981
 51
87.3429612206388413
  0
ARC
  5
7042
  8
0
 10
4314.5405978081262219
 20
154.2125794473411133
 30
0.0
 40
0.0436656365923489
 50
271.5988361514595795
 51
293.9180705569586962
  0
ARC
  5
7043
  8
0
 10
4314.4219348679689574
 20
156.1195918022609987
 30
0.0
 40
1.9546919205072719
 50
269.9597627689183241
 51
271.7922245088636259
  0
ARC
  5
7044
  8
0
 10
4314.4444228126067173
 20
154.5625029587658901
 30
0.0
 40
0.3933424768399307
 50
272.0311846473838955
 51
274.954193986028713
  0
ARC
  5
7045
  8
0
 10
4314.4766816655546791
 20
154.2103699635574969
 30
0.0
 40
0.0397767470126593
 50
272.4637928537097196
 51
288.5671339476040771
  0
ARC
  5
7046
  8
0
 10
4314.4743419146534507
 20
154.1256366618383993
 30
0.0
 40
0.0498181454559809
 50
72.470232887755742
 51
88.9854422755189347
  0
ARC
  5
7047
  8
0
 10
4314.4419295800807959
 20
153.7347437320215136
 30
0.0
 40
0.4419591468666554
 50
85.6796013590922172
 51
87.8689145394935451
  0
ARC
  5
7048
  8
0
 10
4314.4418073460356027
 20
153.8046006089153082
 30
0.0
 40
0.3717345629671405
 50
85.2876517452941982
 51
87.9035320998000174
  0
ARC
  5
7049
  8
0
 10
4314.4706618297896057
 20
154.1327598811838868
 30
0.0
 40
0.0423522400138983
 50
72.4521587239220111
 51
87.7202195753440037
  0
ARC
  5
704A
  8
0
 10
4314.4743196891758998
 20
154.1964192455278919
 30
0.0
 40
0.0254430988195675
 50
271.7027998149831092
 51
290.9841677987876096
  0
ARC
  5
704B
  8
0
 10
4314.4380868557482245
 20
154.5781358736325899
 30
0.0
 40
0.408825233038291
 50
272.4279840323740132
 51
275.1909923895323118
  0
ARC
  5
704C
  8
0
 10
4314.4212139702422064
 20
155.1986371429721032
 30
0.0
 40
1.02991511027408
 50
269.9637377957649278
 51
271.6876132353032745
  0
ARC
  5
704D
  8
0
 10
4314.4211702208522183
 20
155.1106081756892081
 30
0.0
 40
0.9415278322833424
 50
269.962995959748298
 51
271.6686627620317154
  0
ARC
  5
704E
  8
0
 10
4314.4210496428077022
 20
153.2267287801853968
 30
0.0
 40
0.9499956351649235
 50
88.338939742025687
 51
90.0294019450940226
  0
ARC
  5
704F
  8
0
 10
4314.4212501800730024
 20
153.1496799777632134
 30
0.0
 40
1.0274028436888689
 50
88.3102791287116702
 51
90.0383702073540064
  0
ARC
  5
7050
  8
0
 10
4314.4215751292467758
 20
152.202685775726394
 30
0.0
 40
1.9782189500011329
 50
88.2186730787334881
 51
90.0293394616114853
  0
ARC
  5
7051
  8
0
 10
4314.4566733422016114
 20
153.2445426857121049
 30
0.0
 40
0.9357568206210677
 50
85.9897801328994547
 51
87.9659107752303839
  0
ARC
  5
7052
  8
0
 10
4314.5084086548476989
 20
153.996128299644198
 30
0.0
 40
0.1823958064563109
 50
76.0456638058228123
 51
85.6903977232870346
  0
ARC
  5
7053
  8
0
 10
4314.521999061715178
 20
154.2677618764346903
 30
0.0
 40
0.0998373255898618
 50
271.2178929503032236
 51
287.7242318301450723
  0
ARC
  5
7054
  8
0
 10
4314.4584677339053087
 20
155.0641359769749954
 30
0.0
 40
0.8985904824864656
 50
272.0037703912277038
 51
274.1899105520379862
  0
ARC
  5
7055
  8
0
 10
4314.4364197719451113
 20
154.1136864351990141
 30
0.0
 40
0.0605414481419171
 50
79.1282864709380931
 51
88.8736158381429107
  0
ARC
  5
7056
  8
0
 10
4314.4366231013009383
 20
154.2301835357660025
 30
0.0
 40
0.0586031988373662
 50
270.9648158306027881
 51
281.0332819811562786
  0
ARC
  5
7057
  8
0
 10
4315.1205669291866798
 20
154.9843927411162099
 30
0.0
 40
0.0390007093636777
 50
42.1131290793188526
 51
87.0356994037464062
  0
ARC
  5
7058
  8
0
 10
4314.3217895904854231
 20
154.3938508138413965
 30
0.0
 40
1.0321897231883721
 50
28.8774167640896096
 51
36.6884484637036223
  0
ARC
  5
7059
  8
0
 10
4315.2093367523639245
 20
154.853718475971192
 30
0.0
 40
0.0419125195516949
 50
13.2556280368852093
 51
67.121206256184891
  0
ARC
  5
705A
  8
0
 10
4276.4654489602289686
 20
151.2110278190978931
 30
0.0
 40
38.9562701852539206
 50
2.483502425505447
 51
5.3796016172425389
  0
ARC
  5
705B
  8
0
 10
4315.1969688335057072
 20
154.8791925027007892
 30
0.0
 40
0.0315316833131993
 50
2.3118631733417438
 51
24.6303288779387586
  0
ARC
  5
705C
  8
0
 10
4314.3855861076672227
 20
154.8400549804796071
 30
0.0
 40
0.8438568365370142
 50
301.9568537664773089
 51
2.7447520648349562
  0
ARC
  5
705D
  8
0
 10
4314.4194531204775558
 20
154.7967533846855872
 30
0.0
 40
0.7892140100756575
 50
270.0805133846093895
 51
301.5346406751976929
  0
ARC
  5
705E
  8
0
 10
4314.4118897482840111
 20
155.2511636866551044
 30
0.0
 40
0.8866824394741628
 50
270.5604029992077812
 51
282.2824210399214167
  0
ARC
  5
705F
  8
0
 10
4314.4274554992916819
 20
155.1158210252496872
 30
0.0
 40
0.751249126815455
 50
283.3183453355243273
 51
324.6299910279427081
  0
ARC
  5
7060
  8
0
 10
4314.0956528076767427
 20
155.3156976866605135
 30
0.0
 40
1.1378824293148291
 50
326.094407684875307
 51
336.7165585022247001
  0
ARC
  5
7061
  8
0
 10
4312.9075091103995874
 20
155.562264808288603
 30
0.0
 40
2.3393993155643038
 50
335.7739426113705008
 51
342.6827924119738782
  0
ARC
  5
7062
  8
0
 10
4315.1280654782804049
 20
154.9950439555283879
 30
0.0
 40
0.0264519138209267
 50
347.5797289527261
 51
35.8782327600234794
  0
ARC
  5
7063
  8
0
 10
4314.3744038168160841
 20
155.1404389073063044
 30
0.0
 40
0.7940013404103216
 50
316.7997775825317035
 51
349.0307516079511174
  0
ARC
  5
7064
  8
0
 10
4314.412251291200846
 20
155.1350329187129091
 30
0.0
 40
0.7630274431247156
 50
270.6240746809879738
 51
315.1499932865896199
  0
ARC
  5
7065
  8
0
 10
4320.3365635683458095
 20
146.2434280353400879
 30
0.0
 40
5.5139397398068981
 50
91.7436351232153697
 51
99.3479362393278365
  0
ARC
  5
7066
  8
0
 10
4319.5745011169656209
 20
151.127780141267209
 30
0.0
 40
0.5721708530291402
 50
103.499269690779002
 51
114.7567712655890944
  0
ARC
  5
7067
  8
0
 10
4319.4090179592640197
 20
151.4744505365480052
 30
0.0
 40
0.1881319008166057
 50
113.203349228363507
 51
137.7117963865906063
  0
ARC
  5
7068
  8
0
 10
4319.3512043843538777
 20
151.5333071867866011
 30
0.0
 40
0.1058626059201267
 50
140.2238482841293887
 51
166.7633498952378091
  0
ARC
  5
7069
  8
0
 10
4335.8110446632108506
 20
149.6375881415781919
 30
0.0
 40
16.6737992057861106
 50
173.3878240942273123
 51
174.8731619663728054
  0
ARC
  5
706A
  8
0
 10
4319.6916343066623085
 20
151.6051296813525084
 30
0.0
 40
0.3592309561635751
 50
156.3681335477934056
 51
173.248051901991488
  0
ARC
  5
706B
  8
0
 10
4321.5246961645316333
 20
150.7128393117226892
 30
0.0
 40
2.3976798196984541
 50
148.8510192481901981
 51
154.3923706474390087
  0
ARC
  5
706C
  8
0
 10
4319.4936810516519472
 20
152.1372370389877915
 30
0.0
 40
0.4096677600711963
 50
241.8976359734421919
 51
251.3283825479022937
  0
ARC
  5
706D
  8
0
 10
4319.3411685413593659
 20
151.8630451383816933
 30
0.0
 40
0.096110696675181
 50
206.735494649021291
 51
245.1034589597445859
  0
ARC
  5
706E
  8
0
 10
4319.2914875874748759
 20
151.8363770151113101
 30
0.0
 40
0.0397708060490452
 50
162.3551353758412858
 51
204.6215497229495952
  0
ARC
  5
706F
  8
0
 10
4320.2945900236409216
 20
151.5865215077920141
 30
0.0
 40
1.0734443264410589
 50
142.4305502531144043
 51
165.877791177190602
  0
ARC
  5
7070
  8
0
 10
4315.1889187903161655
 20
154.9507157966467901
 30
0.0
 40
5.0444144214379509
 50
327.5090347768704078
 51
331.3631987361683855
  0
ARC
  5
7071
  8
0
 10
4319.6680548478561832
 20
152.4832632102585137
 30
0.0
 40
0.0719013052972244
 50
99.0005254210561532
 51
136.0648510422645927
  0
ARC
  5
7072
  8
0
 10
4319.873707320183712
 20
150.1719771265017016
 30
0.0
 40
2.3921557518900629
 50
91.578572148460097
 51
95.2022539639723959
  0
ARC
  5
7073
  8
0
 10
4319.810559061413187
 20
151.6895424601574121
 30
0.0
 40
0.7318284660014234
 50
90.8255654106469876
 51
106.4028162537776012
  0
ARC
  5
7074
  8
0
 10
4266.2694528414167507
 20
186.5576375338673074
 30
0.0
 40
63.3394210380271616
 50
326.7992592502532148
 51
327.356371111979513
  0
ARC
  5
7075
  8
0
 10
4319.4443119571151328
 20
151.7526430383967977
 30
0.0
 40
0.2134273762685112
 50
145.1457687266124026
 51
153.3323960465828861
  0
ARC
  5
7076
  8
0
 10
4320.2359065128803195
 20
146.4606845617653903
 30
0.0
 40
5.5451636920581961
 50
90.6935204684428555
 51
97.9109809741628823
  0
ARC
  5
7077
  8
0
 10
4319.5481828552283332
 20
151.5837726062152058
 30
0.0
 40
0.376937776071685
 50
101.5515341416176938
 51
112.6480681852978023
  0
ARC
  5
7078
  8
0
 10
4319.4197876412499681
 20
151.8830672072429877
 30
0.0
 40
0.0513839948759932
 50
109.0272615565302061
 51
152.0188508349471874
  0
ARC
  5
7079
  8
0
 10
4319.1900563128647264
 20
152.0631499388611871
 30
0.0
 40
0.241483742353862
 50
299.7800638658740127
 51
319.7668162974321717
  0
ARC
  5
707A
  8
0
 10
4319.3355981820132001
 20
151.8053764262812138
 30
0.0
 40
0.0545610633038555
 50
117.9866688322935033
 51
145.3382375264139057
  0
ARC
  5
707B
  8
0
 10
4319.3102661423472455
 20
151.8272140479080008
 30
0.0
 40
0.0215996675016048
 50
154.8110222105756861
 51
216.6009546130439105
  0
ARC
  5
707C
  8
0
 10
4319.4022598441852097
 20
151.9192532754412923
 30
0.0
 40
0.1515311195236708
 50
223.8191483476136057
 51
258.7333627097988256
  0
LINE
  5
707D
  8
0
 10
4321.4483169584573261
 20
148.2181611502672922
 30
0.0
 11
4321.4483169584573261
 21
148.4937522263672918
 31
0.0
  0
LINE
  5
707E
  8
0
 10
4321.1336245471566144
 20
148.5134372657672941
 30
0.0
 11
4321.1336245471566144
 21
151.1275729235672998
 31
0.0
  0
ARC
  5
707F
  8
0
 10
4321.4273041901496981
 20
148.4924244974594103
 30
0.0
 40
0.0210546739707307
 50
3.6155284700866108
 51
86.3844715299307495
  0
ARC
  5
7080
  8
0
 10
4321.426682363117834
 20
148.220111285734589
 30
0.0
 40
0.0217223098176543
 50
275.1491008217652734
 51
354.8492968585292147
  0
ARC
  5
7081
  8
0
 10
4320.0010130215687241
 20
146.2434280353400879
 30
0.0
 40
5.5139397398068981
 50
80.652063760672192
 51
88.2563648767846445
  0
ARC
  5
7082
  8
0
 10
4320.7630754729498221
 20
151.127780141267209
 30
0.0
 40
0.5721708530291402
 50
65.2432287344108914
 51
76.5007303092209412
  0
ARC
  5
7083
  8
0
 10
4320.9285586306514233
 20
151.4744505365480052
 30
0.0
 40
0.1881319008166057
 50
42.2882036134093511
 51
66.7966507716365214
  0
ARC
  5
7084
  8
0
 10
4320.9863722055606559
 20
151.5333071867866011
 30
0.0
 40
0.1058626059201267
 50
13.2366501047621892
 51
39.7761517158705828
  0
ARC
  5
7085
  8
0
 10
4304.526531926703683
 20
149.6375881415781919
 30
0.0
 40
16.6737992057861106
 50
5.1268380336271751
 51
6.6121759057726441
  0
ARC
  5
7086
  8
0
 10
4320.6459422832531345
 20
151.6051296813525084
 30
0.0
 40
0.3592309561635751
 50
6.7519480980084534
 51
23.63186645220663
  0
ARC
  5
7087
  8
0
 10
4318.8128804253829003
 20
150.7128393117226892
 30
0.0
 40
2.3976798196984541
 50
25.6076293525609699
 51
31.1489807518097805
  0
ARC
  5
7088
  8
0
 10
4320.8438955382625863
 20
152.1372370389877915
 30
0.0
 40
0.4096677600711963
 50
288.6716174520976779
 51
298.1023640265577228
  0
ARC
  5
7089
  8
0
 10
4320.9964080485560771
 20
151.8630451383816933
 30
0.0
 40
0.096110696675181
 50
294.8965410402553857
 51
333.264505350978709
  0
ARC
  5
708A
  8
0
 10
4321.0460890024396576
 20
151.8363770151113101
 30
0.0
 40
0.0397708060490452
 50
335.3784502770503764
 51
17.6448646241586502
  0
ARC
  5
708B
  8
0
 10
4320.042986566273612
 20
151.5865215077920141
 30
0.0
 40
1.0734443264410589
 50
14.1222088228093892
 51
37.5694497468856028
  0
ARC
  5
708C
  8
0
 10
4325.1486577996010965
 20
154.9507157966467901
 30
0.0
 40
5.0444144214379509
 50
208.6368012638315008
 51
212.4909652231295922
  0
ARC
  5
708D
  8
0
 10
4320.6695217420592599
 20
152.4832632102585137
 30
0.0
 40
0.0719013052972244
 50
43.9351489577354002
 51
80.9994745789438468
  0
ARC
  5
708E
  8
0
 10
4320.4638692697308215
 20
150.1719771265017016
 30
0.0
 40
2.3921557518900629
 50
84.7977460360276041
 51
88.421427851539903
  0
ARC
  5
708F
  8
0
 10
4320.527017528502256
 20
151.6895424601574121
 30
0.0
 40
0.7318284660014234
 50
73.5971837462223135
 51
89.1744345893529982
  0
ARC
  5
7090
  8
0
 10
4374.0681237484977828
 20
186.5576375338673074
 30
0.0
 40
63.3394210380271616
 50
212.643628888020487
 51
213.2007407497467
  0
ARC
  5
7091
  8
0
 10
4320.8932646327994007
 20
151.7526430383967977
 30
0.0
 40
0.2134273762685112
 50
26.6676039534170286
 51
34.8542312733876329
  0
ARC
  5
7092
  8
0
 10
4320.1016700770351235
 20
146.4606845617653903
 30
0.0
 40
5.5451636920581651
 50
82.0890190258371462
 51
89.3064795315571587
  0
ARC
  5
7093
  8
0
 10
4320.7893937346871098
 20
151.5837726062152058
 30
0.0
 40
0.376937776071685
 50
67.3519318147021835
 51
78.4484658583822778
  0
ARC
  5
7094
  8
0
 10
4320.9177889486645654
 20
151.8830672072429877
 30
0.0
 40
0.0513839948759932
 50
27.9811491650527699
 51
70.9727384434697655
  0
ARC
  5
7095
  8
0
 10
4321.1475202770507167
 20
152.0631499388611871
 30
0.0
 40
0.241483742353862
 50
220.2331837025664925
 51
240.2199361341259873
  0
ARC
  5
7096
  8
0
 10
4321.0019784079022429
 20
151.8053764262812138
 30
0.0
 40
0.0545610633038555
 50
34.6617624735861369
 51
62.0133311677064825
  0
ARC
  5
7097
  8
0
 10
4321.0273104475681976
 20
151.8272140479080008
 30
0.0
 40
0.0215996675016048
 50
323.3990453869560042
 51
25.1889777894242997
  0
ARC
  5
7098
  8
0
 10
4320.9353167457311429
 20
151.9192532754412923
 30
0.0
 40
0.1515311195236708
 50
281.2666372902011176
 51
316.1808516523863091
  0
LINE
  5
7099
  8
0
 10
4319.8078087014573612
 20
152.5632250252672861
 30
0.0
 11
4320.5297678884580819
 21
152.5632250252672861
 31
0.0
  0
LINE
  5
709A
  8
0
 10
4319.8000146309577758
 20
152.421294958367298
 30
0.0
 11
4320.5375619589567577
 21
152.421294958367298
 31
0.0
  0
ENDSEC
  0
EOF
