  0
SECTION
  2
HEADER
  9
$ACADVER
  1
AC1009
  9
$INSBASE
 10
96.1441365234231569
 20
-7.9362047723397282
 30
0.0
  9
$EXTMIN
 10
86.1327519391679743
 20
-16.8803979749916415
 30
-0.0015258207003583
  9
$EXTMAX
 10
106.1523240242777035
 20
-6.656230140287156
 30
0.0000000349246037
  9
$LIMMIN
 10
0.0
 20
0.0
  9
$LIMMAX
 10
11.6929133858000007
 20
8.2677165353999982
  9
$ORTHOMODE
 70
     0
  9
$REGENMODE
 70
     1
  9
$FILLMODE
 70
     1
  9
$QTEXTMODE
 70
     0
  9
$MIRRTEXT
 70
     0
  9
$DRAGMODE
 70
     2
  9
$LTSCALE
 40
0.6431102362
  9
$OSMODE
 70
  4095
  9
$ATTMODE
 70
     1
  9
$TEXTSIZE
 40
0.2
  9
$TRACEWID
 40
0.05
  9
$TEXTSTYLE
  7
STANDARD
  9
$CLAYER
  8
0
  9
$CELTYPE
  6
BYLAYER
  9
$CECOLOR
 62
   256
  9
$DIMSCALE
 40
1.0
  9
$DIMASZ
 40
0.1875
  9
$DIMEXO
 40
0.0625
  9
$DIMDLI
 40
0.4443307087
  9
$DIMRND
 40
0.0
  9
$DIMDLE
 40
0.0
  9
$DIMEXE
 40
0.125
  9
$DIMTP
 40
0.01
  9
$DIMTM
 40
0.01
  9
$DIMTXT
 40
1.0
  9
$DIMCEN
 40
0.1052362205
  9
$DIMTSZ
 40
0.0
  9
$DIMTOL
 70
     1
  9
$DIMLIM
 70
     0
  9
$DIMTIH
 70
     1
  9
$DIMTOH
 70
     1
  9
$DIMSE1
 70
     0
  9
$DIMSE2
 70
     0
  9
$DIMTAD
 70
     0
  9
$DIMZIN
 70
     0
  9
$DIMBLK
  1

  9
$DIMASO
 70
     1
  9
$DIMSHO
 70
     1
  9
$DIMPOST
  1
\X
  9
$DIMAPOST
  1

  9
$DIMALT
 70
     1
  9
$DIMALTD
 70
     2
  9
$DIMALTF
 40
25.3999999999999986
  9
$DIMLFAC
 40
1.0
  9
$DIMTOFL
 70
     0
  9
$DIMTVP
 40
0.0
  9
$DIMTIX
 70
     0
  9
$DIMSOXD
 70
     0
  9
$DIMSAH
 70
     0
  9
$DIMBLK1
  1

  9
$DIMBLK2
  1

  9
$DIMSTYLE
  2
STANDARD
  9
$DIMCLRD
 70
     0
  9
$DIMCLRE
 70
     0
  9
$DIMCLRT
 70
     0
  9
$DIMTFAC
 40
1.0
  9
$DIMGAP
 40
0.09
  9
$LUNITS
 70
     2
  9
$LUPREC
 70
     4
  9
$SKETCHINC
 40
0.1
  9
$FILLETRAD
 40
0.0
  9
$AUNITS
 70
     0
  9
$AUPREC
 70
     0
  9
$MENU
  1
.
  9
$ELEVATION
 40
0.0
  9
$PELEVATION
 40
0.0
  9
$THICKNESS
 40
0.0
  9
$LIMCHECK
 70
     0
  9
$BLIPMODE
 70
     0
  9
$CHAMFERA
 40
0.0
  9
$CHAMFERB
 40
0.0
  9
$SKPOLY
 70
     0
  9
$TDCREATE
 40
2458172.4620254631154239
  9
$TDUPDATE
 40
2459058.7606828701682389
  9
$TDINDWG
 40
0.0983276968
  9
$TDUSRTIMER
 40
0.0983276968
  9
$USRTIMER
 70
     1
  9
$ANGBASE
 50
0.0
  9
$ANGDIR
 70
     0
  9
$PDMODE
 70
     0
  9
$PDSIZE
 40
0.3125
  9
$PLINEWID
 40
0.0
  9
$COORDS
 70
     1
  9
$SPLFRAME
 70
     0
  9
$SPLINETYPE
 70
     6
  9
$SPLINESEGS
 70
     8
  9
$ATTDIA
 70
     1
  9
$ATTREQ
 70
     1
  9
$HANDLING
 70
     1
  9
$HANDSEED
  5
C5AE
  9
$SURFTAB1
 70
     6
  9
$SURFTAB2
 70
     6
  9
$SURFTYPE
 70
     6
  9
$SURFU
 70
     6
  9
$SURFV
 70
     6
  9
$UCSNAME
  2

  9
$UCSORG
 10
0.0
 20
0.0
 30
0.0
  9
$UCSXDIR
 10
1.0
 20
0.0
 30
0.0
  9
$UCSYDIR
 10
0.0
 20
1.0
 30
0.0
  9
$PUCSNAME
  2

  9
$PUCSORG
 10
0.0
 20
0.0
 30
0.0
  9
$PUCSXDIR
 10
1.0
 20
0.0
 30
0.0
  9
$PUCSYDIR
 10
0.0
 20
1.0
 30
0.0
  9
$USERI1
 70
     0
  9
$USERI2
 70
     0
  9
$USERI3
 70
     0
  9
$USERI4
 70
     0
  9
$USERI5
 70
     0
  9
$USERR1
 40
0.0
  9
$USERR2
 40
0.0
  9
$USERR3
 40
0.0
  9
$USERR4
 40
0.0
  9
$USERR5
 40
0.0
  9
$WORLDVIEW
 70
     1
  9
$SHADEDGE
 70
     3
  9
$SHADEDIF
 70
    70
  9
$TILEMODE
 70
     1
  9
$MAXACTVP
 70
    64
  9
$PLIMCHECK
 70
     0
  9
$PEXTMIN
 10
1.0000000000000000E+20
 20
1.0000000000000000E+20
 30
1.0000000000000000E+20
  9
$PEXTMAX
 10
-1.0000000000000000E+20
 20
-1.0000000000000000E+20
 30
-1.0000000000000000E+20
  9
$PLIMMIN
 10
0.0
 20
0.0
  9
$PLIMMAX
 10
12.0
 20
9.0
  9
$UNITMODE
 70
     0
  9
$VISRETAIN
 70
     1
  9
$PLINEGEN
 70
     0
  9
$PSLTSCALE
 70
     1
  0
ENDSEC
  0
SECTION
  2
TABLES
  0
TABLE
  2
VPORT
 70
     1
  0
VPORT
  2
*ACTIVE
 70
     0
 10
0.0
 20
0.0
 11
1.0
 21
1.0
 12
-28.4686206183497887
 22
-17.0805882280172305
 13
0.0
 23
0.0
 14
1.0
 24
1.0
 15
0.0
 25
0.0
 16
0.0
 26
0.0
 36
30.6214257250603907
 17
124.6111586000725993
 27
5.3122741703778242
 37
0.0
 40
10.3092510621777596
 41
2.6486111111111108
 42
50.0
 43
0.0
 44
0.0
 50
0.0
 51
0.0
 71
     0
 72
   100
 73
     1
 74
     1
 75
     0
 76
     0
 77
     0
 78
     1
  0
ENDTAB
  0
TABLE
  2
LTYPE
 70
     2
  0
LTYPE
  2
CONTINUOUS
 70
     0
  3
Solid line
 72
    65
 73
     0
 40
0.0
  0
LTYPE
  2
PHANTOM2
 70
     0
  3
___ _ _ ___ _ _ ___ _ _ ___ _ _
 72
    65
 73
     6
 40
1.25
 49
0.625
 49
-0.125
 49
0.125
 49
-0.125
 49
0.125
 49
-0.125
  0
ENDTAB
  0
TABLE
  2
LAYER
 70
     2
  0
LAYER
  2
0
 70
     0
 62
   255
  6
CONTINUOUS
  0
LAYER
  2
DEFPOINTS
 70
     0
 62
     7
  6
CONTINUOUS
  0
ENDTAB
  0
TABLE
  2
STYLE
 70
     1
  0
STYLE
  2
STANDARD
 70
     0
 40
0.0
 41
0.8
 50
0.0
 71
     0
 42
0.2
  3
txt
  4

  0
ENDTAB
  0
TABLE
  2
VIEW
 70
     0
  0
ENDTAB
  0
TABLE
  2
UCS
 70
     0
  0
ENDTAB
  0
TABLE
  2
APPID
 70
     9
  0
APPID
  2
ACAD
 70
     0
  0
APPID
  2
ACAD_MLEADERVER
 70
     0
  0
APPID
  2
ACAD_EXEMPT_FROM_CAD_STANDARDS
 70
     0
  0
APPID
  2
ACAD_DSTYLE_DIMJAG
 70
     0
  0
APPID
  2
ACAD_DSTYLE_DIMTALN
 70
     0
  0
APPID
  2
ACAD_NAV_VCDISPLAY
 70
     0
  0
APPID
  2
ACAECLAYERSTANDARD
 70
     0
  0
APPID
  2
ACCMTRANSPARENCY
 70
     0
  0
APPID
  2
ACDBATTR
 70
     0
  0
ENDTAB
  0
TABLE
  2
DIMSTYLE
 70
     1
  0
DIMSTYLE
  2
STANDARD
 70
     0
  3

  4

  5

  6

  7

 40
1.0
 41
0.1875
 42
0.0625
 43
0.38
 44
0.125
 45
0.0
 46
0.0
 47
0.01
 48
0.01
140
0.15625
141
0.09
142
0.0
143
25.3999999999999986
144
1.0
145
0.0
146
1.0
147
0.09
 71
     1
 72
     0
 73
     1
 74
     1
 75
     0
 76
     0
 77
     0
 78
     4
170
     0
171
     2
172
     0
173
     0
174
     0
175
     0
176
     0
177
     0
178
     0
  0
ENDTAB
  0
ENDSEC
  0
SECTION
  2
BLOCKS
  0
BLOCK
  8
0
  2
$MODEL_SPACE
 70
     0
 10
0.0
 20
0.0
 30
0.0
  3
$MODEL_SPACE
  1

  0
ENDBLK
  5
21
  8
0
  0
BLOCK
 67
     1
  8
0
  2
$PAPER_SPACE
 70
     0
 10
0.0
 20
0.0
 30
0.0
  3
$PAPER_SPACE
  1

  0
ENDBLK
  5
1D
 67
     1
  8
0
  0
BLOCK
  8
0
  2
_FILLED
 70
     0
 10
0.0
 20
0.0
 30
0.0
  3
_FILLED
  1

  0
SOLID
  5
B3EB
  8
0
  6
BYBLOCK
 62
     0
 10
0.0
 20
0.0
 30
0.0
 11
-1.0
 21
0.1666666667
 31
0.0
 12
-1.0
 22
-0.1666666667
 32
0.0
 13
-1.0
 23
-0.1666666667
 33
0.0
  0
ENDBLK
  5
B3EC
  8
0
  6
BYBLOCK
 62
     0
  0
ENDSEC
  0
SECTION
  2
ENTITIES
  0
ATTDEF
  5
BA32
  8
DEFPOINTS
 10
96.1442833574783151
 20
-7.9326857164539124
 30
0.0
 40
0.001
  1
K-97363T-4E
  3

  2
MODELNUMBER
 70
     0
1001
ACDBATTR
1070
     0
1070
     1
  0
ATTDEF
  5
BA33
  8
DEFPOINTS
 10
96.1442833574783151
 20
-7.9343523831205767
 30
0.0
 40
0.001
  1
AVID
  3

  2
TRADENAME
 70
     0
1001
ACDBATTR
1070
     0
1070
     1
  0
ATTDEF
  5
BA34
  8
DEFPOINTS
 10
96.1442833574783151
 20
-7.9360190497872418
 30
0.0
 40
0.001
  1
BATHROOM SINK FAUCET
  3

  2
PRODUCT
 70
     0
1001
ACDBATTR
1070
     0
1070
     1
  0
ARC
  5
C037
  8
0
 10
96.1318887263467587
 20
22.542380428538749
 30
0.0
 40
39.4220129285481207
 50
269.2669146772705062
 51
270.0178008944740782
  0
ARC
  5
C038
  8
0
 10
95.6223040485390214
 20
-16.6857653413188487
 30
0.0
 40
0.1907114009064688
 50
225.4954173523042869
 51
271.5635026388277993
  0
ARC
  5
C039
  8
0
 10
95.7278149946319559
 20
-16.6312834459521603
 30
0.0
 40
0.3057812842447602
 50
182.3428352181541925
 51
218.5342148230980115
  0
ARC
  5
C03A
  8
0
 10
7308.4536141578846582
 20
88.3425687907674728
 30
0.0
 40
7213.7953275235031469
 50
180.7724528397085919
 51
180.8338865992423052
  0
ARC
  5
C03B
  8
0
 10
102.1541937849135024
 20
-8.7563409843855542
 30
0.0
 40
6.8420470340368142
 50
175.4605214118803076
 51
181.284833973485604
  0
ARC
  5
C03C
  8
0
 10
96.5236399256177435
 20
-8.3093029146097503
 30
0.0
 40
1.1937747496776501
 50
144.0189389473233064
 51
175.4605214118801086
  0
ARC
  5
C03D
  8
0
 10
96.144637843180476
 20
-8.0755871054023576
 30
0.0
 40
0.7505198394008107
 50
90.0382714845218857
 51
141.4572104934590868
  0
ARC
  5
C03E
  8
0
 10
96.1441513892755637
 20
-7.942487153522813
 30
0.0
 40
0.9706933042990971
 50
90.0008774662378954
 51
102.8904871126905931
  0
ARC
  5
C03F
  8
0
 10
96.1420754242478353
 20
-7.9334160936648326
 30
0.0
 40
0.9613877275978155
 50
102.8904871126905931
 51
154.4417287132829131
  0
ARC
  5
C040
  8
0
 10
96.1699229112744831
 20
-7.9467334454485767
 30
0.0
 40
0.9922557432812212
 50
154.4417287132829131
 51
197.3252090894056039
  0
ARC
  5
C041
  8
0
 10
93.8617172008186742
 20
-8.6667737080890195
 30
0.0
 40
1.4256507027178831
 50
9.8043651278518578
 51
17.3252090894053907
  0
ARC
  5
C042
  8
0
 10
92.0144111936371019
 20
-8.9860038008455181
 30
0.0
 40
3.300336632758043
 50
1.323786492934371
 51
9.8043651278518578
  0
ARC
  5
C043
  8
0
 10
86.3469869601704119
 20
-7.618912693947288
 30
0.0
 40
0.2040876685683265
 50
133.7074395884044122
 51
178.1697542197929067
  0
ARC
  5
C044
  8
0
 10
86.3536329240081102
 20
-7.6617480050758688
 30
0.0
 40
0.2409237470886132
 50
99.6135197130436296
 51
127.8005531047653989
  0
ARC
  5
C045
  8
0
 10
86.5288418418157335
 20
-8.7159891907518112
 30
0.0
 40
1.3096241846628469
 50
90.2385854467029986
 51
99.4686484354598548
  0
ARC
  5
C046
  8
0
 10
441.685898080981076
 20
-13545.4749589124203339
 30
0.0
 40
13542.7265110882108274
 50
91.4918384269605554
 51
91.5027731786526317
  0
ARC
  5
C047
  8
0
 10
88.9352344415248552
 20
4.8993942981473326
 30
0.0
 40
12.23944208487314
 50
270.8045722518738216
 51
273.62678711092002
  0
ARC
  5
C048
  8
0
 10
89.5575614484703237
 20
-4.6915220075214039
 30
0.0
 40
2.6284066238765691
 50
273.3131686817932859
 51
280.4040255028087927
  0
ARC
  5
C049
  8
0
 10
90.2388173685798165
 20
-7.9134447592297699
 30
0.0
 40
0.6694084328366974
 50
82.855333588587925
 51
107.9764215053489949
  0
ARC
  5
C04A
  8
0
 10
90.2386642166174937
 20
-7.9255744986404659
 30
0.0
 40
0.6814643869428643
 50
44.64303016118442
 51
82.9693993384756965
  0
ARC
  5
C04B
  8
0
 10
90.2385698990939034
 20
-7.9256655739673771
 30
0.0
 40
0.6815954912253348
 50
0.0029624906835127
 51
44.6429061040454229
  0
ARC
  5
C04C
  8
0
 10
90.1819853658436585
 20
-7.9392513223420318
 30
0.0
 40
0.6072204916516215
 50
1.285349783943031
 51
60.3832628549019077
  0
ARC
  5
C04D
  8
0
 10
90.0705708258910533
 20
-8.1352430516813552
 30
0.0
 40
0.832666621984938
 50
60.3832628549019077
 51
90.6951765087097641
  0
ARC
  5
C04E
  8
0
 10
90.1598977909482784
 20
-15.4971243586611802
 30
0.0
 40
8.1950898429594918
 50
90.6951765087097641
 51
92.7239391500607439
  0
ARC
  5
C04F
  8
0
 10
90.2386247191904829
 20
-7.9362047685958661
 30
0.0
 40
1.2795275589239541
 50
69.8686456183483386
 51
152.1691594949953128
  0
ARC
  5
C050
  8
0
 10
90.2386247190809456
 20
-7.9362047688946697
 30
0.0
 40
1.2795275592422031
 50
0.4735165738846337
 51
69.8686456183483386
  0
ARC
  5
C051
  8
0
 10
99.8825684465828942
 20
-7.9363621873145522
 30
0.0
 40
13.7433839540031606
 50
178.6492625982467075
 51
179.9552591934624104
  0
ARC
  5
C052
  8
0
 10
86.3469869601704119
 20
-8.2323479699026354
 30
0.0
 40
0.2040876685683265
 50
181.830245780207008
 51
226.2925604115955878
  0
ARC
  5
C053
  8
0
 10
86.3536329240081102
 20
-8.1895126587740545
 30
0.0
 40
0.2409237470886132
 50
232.1994468952345017
 51
260.3864802869563277
  0
ARC
  5
C054
  8
0
 10
86.5288418418157335
 20
-7.135271473098113
 30
0.0
 40
1.3096241846628469
 50
260.5313515645401026
 51
269.7614145532970156
  0
ARC
  5
C055
  8
0
 10
441.685898080981076
 20
13529.6236982485697808
 30
0.0
 40
13542.7265110882108274
 50
268.4972268213473967
 51
268.5081615730393878
  0
ARC
  5
C056
  8
0
 10
88.9352344415248552
 20
-20.7506549619972596
 30
0.0
 40
12.23944208487314
 50
86.3732128890800368
 51
89.1954277481261641
  0
ARC
  5
C057
  8
0
 10
89.5575614484703237
 20
-11.1597386563285195
 30
0.0
 40
2.6284066238765691
 50
79.5959744971911505
 51
86.6868313182067283
  0
ARC
  5
C058
  8
0
 10
90.2388173685798165
 20
-7.9378159046201526
 30
0.0
 40
0.6694084328366974
 50
252.0235784946509057
 51
277.1446664114121177
  0
ARC
  5
C059
  8
0
 10
90.2386642166174937
 20
-7.9256861652094566
 30
0.0
 40
0.6814643869428643
 50
277.0306006615243177
 51
315.3569698388155871
  0
ARC
  5
C05A
  8
0
 10
90.2385698990939034
 20
-7.9255950898825471
 30
0.0
 40
0.6815954912253348
 50
315.3570938959543923
 51
359.9970375093164989
  0
ARC
  5
C05B
  8
0
 10
90.1819853658436585
 20
-7.9120093415078907
 30
0.0
 40
0.6072204916516215
 50
299.6167371450981136
 51
358.7146502160567252
  0
ARC
  5
C05C
  8
0
 10
90.0705708258910533
 20
-7.7160176121685691
 30
0.0
 40
0.832666621984938
 50
269.3048234912902785
 51
299.6167371450981136
  0
ARC
  5
C05D
  8
0
 10
90.1598977909482784
 20
-0.3541363051887441
 30
0.0
 40
8.1950898429594918
 50
267.2760608499391992
 51
269.3048234912902785
  0
ARC
  5
C05E
  8
0
 10
99.8825684465828942
 20
-7.914898476535372
 30
0.0
 40
13.7433839540031606
 50
180.0447408065377033
 51
181.3507374017534062
  0
ARC
  5
C05F
  8
0
 10
90.23862472243637
 20
-7.9362047723397264
 30
0.0
 40
1.2795275559153769
 50
206.7506734173028917
 51
0.4735167293868022
  0
ARC
  5
C060
  8
0
 10
96.1563843205018856
 20
22.542380428538749
 30
0.0
 40
39.4220129285481207
 50
269.9821991055226249
 51
270.7330853227263106
  0
ARC
  5
C061
  8
0
 10
96.6659689983073065
 20
-16.6857653413188807
 30
0.0
 40
0.1907114009064688
 50
268.4364973611689038
 51
314.5045826476921889
  0
ARC
  5
C062
  8
0
 10
96.5604580522143863
 20
-16.6312834459521817
 30
0.0
 40
0.3057812842447602
 50
321.4657851768988053
 51
357.6571647818424253
  0
ARC
  5
C063
  8
0
 10
-7116.1653411110310117
 20
88.3425687911929742
 30
0.0
 40
7213.7953275235031469
 50
359.1661134007542273
 51
359.2275471602881112
  0
ARC
  5
C064
  8
0
 10
90.1340792619332518
 20
-8.7563409843851971
 30
0.0
 40
6.8420470340368142
 50
358.7151660265108717
 51
4.5394785881162552
  0
ARC
  5
C065
  8
0
 10
95.764633121229096
 20
-8.309302914609729
 30
0.0
 40
1.1937747496776501
 50
4.5394785881164568
 51
35.9810610526729135
  0
ARC
  5
C066
  8
0
 10
96.1436352036663635
 20
-8.0755871054023576
 30
0.0
 40
0.7505198394008107
 50
38.5427895065378721
 51
89.96172851547486
  0
ARC
  5
C067
  8
0
 10
96.1441216575712758
 20
-7.942487153522813
 30
0.0
 40
0.9706933042990971
 50
77.1095128873060389
 51
89.9991225337588645
  0
ARC
  5
C068
  8
0
 10
98.4265558460281085
 20
-8.6667737080891545
 30
0.0
 40
1.4256507027178831
 50
162.6747909105912129
 51
170.1956348721444954
  0
ARC
  5
C069
  8
0
 10
100.273861853209695
 20
-8.9860038008457597
 30
0.0
 40
3.300336632758043
 50
170.1956348721444954
 51
178.676213507062414
  0
ARC
  5
C06A
  8
0
 10
105.9412860866763992
 20
-7.6189126939478671
 30
0.0
 40
0.2040876685683265
 50
1.8302457802037959
 51
46.2925604115920777
  0
ARC
  5
C06B
  8
0
 10
105.9346401228387009
 20
-7.6617480050764453
 30
0.0
 40
0.2409237470886132
 50
52.1994468952313682
 51
80.386480286953045
  0
ARC
  5
C06C
  8
0
 10
105.7594312050310066
 20
-8.7159891907523797
 30
0.0
 40
1.3096241846628469
 50
80.5313515645368341
 51
89.7614145532937471
  0
ARC
  5
C06D
  8
0
 10
-249.397625034932986
 20
-13545.4749589124003251
 30
0.0
 40
13542.7265110882108274
 50
88.497226821344114
 51
88.5081615730362046
  0
ARC
  5
C06E
  8
0
 10
103.3530386053226948
 20
4.8993942981469072
 30
0.0
 40
12.23944208487314
 50
266.373212889076683
 51
269.1954277481228814
  0
ARC
  5
C06F
  8
0
 10
102.7307115983767005
 20
-4.691522007521792
 30
0.0
 40
2.6284066238765691
 50
259.5959744971877967
 51
266.6868313182034171
  0
ARC
  5
C070
  8
0
 10
102.0494556782669946
 20
-7.913444759230118
 30
0.0
 40
0.6694084328366974
 50
72.0235784946475235
 51
97.1446664114088065
  0
ARC
  5
C071
  8
0
 10
102.0496088302293032
 20
-7.9255744986408141
 30
0.0
 40
0.6814643869428643
 50
97.030600661521035
 51
135.3569698388128018
  0
ARC
  5
C072
  8
0
 10
102.0497031477528935
 20
-7.9256655739677253
 30
0.0
 40
0.6815954912253348
 50
135.3570938959510954
 51
179.9970375093130031
  0
ARC
  5
C073
  8
0
 10
102.1062876810031952
 20
-7.9392513223423844
 30
0.0
 40
0.6072204916516215
 50
119.6167371450951009
 51
178.7146502160535135
  0
ARC
  5
C074
  8
0
 10
102.2177022209557009
 20
-8.135243051681714
 30
0.0
 40
0.832666621984938
 50
89.3048234912869958
 51
119.6167371450951009
  0
ARC
  5
C075
  8
0
 10
102.1283752558981064
 20
-15.4971243586615302
 30
0.0
 40
8.1950898429594918
 50
87.2760608499359876
 51
89.3048234912869958
  0
ARC
  5
C076
  8
0
 10
102.0496483276562998
 20
-7.9362047685962143
 30
0.0
 40
1.2795275589239541
 50
27.8308405050012801
 51
110.1313543816489045
  0
ARC
  5
C077
  8
0
 10
102.0496483277658939
 20
-7.9362047688950179
 30
0.0
 40
1.2795275592422031
 50
110.1313543816489045
 51
179.5264834261118949
  0
ARC
  5
C078
  8
0
 10
92.4057046002639453
 20
-7.9363621873143311
 30
0.0
 40
13.7433839540031606
 50
0.0447408065343043
 51
1.350737401749954
  0
ARC
  5
C079
  8
0
 10
105.9412860866763992
 20
-8.2323479699032145
 30
0.0
 40
0.2040876685683265
 50
313.7074395884010869
 51
358.1697542197895245
  0
ARC
  5
C07A
  8
0
 10
105.9346401228387009
 20
-8.1895126587746301
 30
0.0
 40
0.2409237470886132
 50
279.6135197130395227
 51
307.800553104762173
  0
ARC
  5
C07B
  8
0
 10
105.7594312050311061
 20
-7.1352714730986806
 30
0.0
 40
1.3096241846628469
 50
270.2385854466998012
 51
279.4686484354564868
  0
ARC
  5
C07C
  8
0
 10
-249.3976250333356006
 20
13529.6236982486007037
 30
0.0
 40
13542.7265110882108274
 50
271.4918384269573153
 51
271.5027731786494201
  0
ARC
  5
C07D
  8
0
 10
103.3530386053212027
 20
-20.7506549619976788
 30
0.0
 40
12.23944208487314
 50
90.8045722518705958
 51
93.6267871109167089
  0
ARC
  5
C07E
  8
0
 10
102.7307115983763026
 20
-11.1597386563289103
 30
0.0
 40
2.6284066238765691
 50
93.3131686817900032
 51
100.4040255028054958
  0
ARC
  5
C07F
  8
0
 10
102.0494556782669946
 20
-7.9378159046205008
 30
0.0
 40
0.6694084328366974
 50
262.8553335885845854
 51
287.9764215053456269
  0
ARC
  5
C080
  8
0
 10
102.0496088302293032
 20
-7.9256861652098047
 30
0.0
 40
0.6814643869428643
 50
224.6430301611810023
 51
262.9693993384723854
  0
ARC
  5
C081
  8
0
 10
102.0497031477528935
 20
-7.9255950898828953
 30
0.0
 40
0.6815954912253348
 50
180.0029624906800052
 51
224.6429061040419981
  0
ARC
  5
C082
  8
0
 10
102.1062876810031952
 20
-7.9120093415082433
 30
0.0
 40
0.6072204916516215
 50
181.2853497839396937
 51
240.3832628548983052
  0
ARC
  5
C083
  8
0
 10
102.2177022209558004
 20
-7.716017612168927
 30
0.0
 40
0.832666621984938
 50
240.3832628548983052
 51
270.6951765087064814
  0
ARC
  5
C084
  8
0
 10
102.1283752558990017
 20
-0.3541363051890958
 30
0.0
 40
8.1950898429594918
 50
270.6951765087064814
 51
272.7239391500575039
  0
ARC
  5
C085
  8
0
 10
92.4057046002639453
 20
-7.9148984765351509
 30
0.0
 40
13.7433839540031606
 50
358.6492625982431264
 51
359.9552591934588008
  0
ARC
  5
C086
  8
0
 10
102.0496483244104979
 20
-7.9362047723400737
 30
0.0
 40
1.2795275559153769
 50
179.5264832706099014
 51
333.249326582693584
  0
LINE
  5
C087
  8
0
 10
95.9276010972229756
 20
-6.9962570218830296
 30
0.0
 11
95.9276010972231603
 21
-6.9913228790953399
 31
0.0
  0
ARC
  5
C088
  8
0
 10
95.947286136696178
 20
-6.9913228790960256
 30
0.0
 40
0.019685039473023
 50
89.9950882408014792
 51
179.9999999980005896
  0
LINE
  5
C089
  8
0
 10
95.9472878242231531
 20
-6.9716378396953376
 30
0.0
 11
96.340986922576505
 21
-6.9716715900900272
 31
0.0
  0
ARC
  5
C08A
  8
0
 10
96.3409852349020071
 20
-6.9913583504948722
 30
0.0
 40
0.0196867604771841
 50
0.1032349933137815
 51
89.9950882407941464
  0
LINE
  5
C08B
  8
0
 10
96.3606719634231723
 20
-6.9913228790953399
 30
0.0
 11
96.3606719496237361
 21
-6.996257021883002
 31
0.0
  0
ARC
  5
C08C
  8
0
 10
96.1441396070510876
 20
-7.9362074076988183
 30
0.0
 40
1.2795290974071909
 50
90.0001380811631577
 51
229.5421115271869041
  0
ARC
  5
C08D
  8
0
 10
96.1441334397952261
 20
-7.9362074076988183
 30
0.0
 40
1.2795290974071909
 50
310.4578884728131243
 51
89.9998619188368281
  0
ARC
  5
C08E
  8
0
 10
96.1438731026026403
 20
-7.9367712205468921
 30
0.0
 40
0.9651780685145327
 50
16.6616573186382517
 51
77.0194318944151348
  0
ARC
  5
C08F
  8
0
 10
96.1508297112653167
 20
-7.934689211340471
 30
0.0
 40
0.9579165833757372
 50
0.5418460264234446
 51
16.6616573186382517
  0
ARC
  5
C090
  8
0
 10
96.0016940369231691
 20
-7.9360996290421912
 30
0.0
 40
1.107058926925705
 50
343.9474584409633167
 51
0.5418460264232411
  0
ENDSEC
  0
EOF
