  0
SECTION
  2
HEADER
  9
$ACADVER
  1
AC1009
  9
$INSBASE
 10
3521.5096073647928279
 20
199.3698657456710066
 30
0.0
  9
$EXTMIN
 10
3520.0218109958677815
 20
198.0809783051215049
 30
-0.0000000349181948
  9
$EXTMAX
 10
3528.9055842667298748
 20
200.6585964178910899
 30
0.0000000814935746
  9
$LIMMIN
 10
0.0
 20
0.0
  9
$LIMMAX
 10
11.6929133858000007
 20
8.2677165353999982
  9
$ORTHOMODE
 70
     0
  9
$REGENMODE
 70
     1
  9
$FILLMODE
 70
     1
  9
$QTEXTMODE
 70
     0
  9
$MIRRTEXT
 70
     0
  9
$DRAGMODE
 70
     2
  9
$LTSCALE
 40
0.6431102362
  9
$OSMODE
 70
  4095
  9
$ATTMODE
 70
     1
  9
$TEXTSIZE
 40
0.2
  9
$TRACEWID
 40
0.05
  9
$TEXTSTYLE
  7
STANDARD
  9
$CLAYER
  8
0
  9
$CELTYPE
  6
BYLAYER
  9
$CECOLOR
 62
   256
  9
$DIMSCALE
 40
1.0
  9
$DIMASZ
 40
0.1875
  9
$DIMEXO
 40
0.0625
  9
$DIMDLI
 40
0.4443307087
  9
$DIMRND
 40
0.0
  9
$DIMDLE
 40
0.0
  9
$DIMEXE
 40
0.125
  9
$DIMTP
 40
0.01
  9
$DIMTM
 40
0.01
  9
$DIMTXT
 40
2.0
  9
$DIMCEN
 40
0.1052362205
  9
$DIMTSZ
 40
0.0
  9
$DIMTOL
 70
     1
  9
$DIMLIM
 70
     0
  9
$DIMTIH
 70
     1
  9
$DIMTOH
 70
     1
  9
$DIMSE1
 70
     0
  9
$DIMSE2
 70
     0
  9
$DIMTAD
 70
     0
  9
$DIMZIN
 70
     0
  9
$DIMBLK
  1

  9
$DIMASO
 70
     1
  9
$DIMSHO
 70
     1
  9
$DIMPOST
  1
\X
  9
$DIMAPOST
  1

  9
$DIMALT
 70
     1
  9
$DIMALTD
 70
     2
  9
$DIMALTF
 40
25.3999999999999986
  9
$DIMLFAC
 40
1.0
  9
$DIMTOFL
 70
     0
  9
$DIMTVP
 40
0.0
  9
$DIMTIX
 70
     0
  9
$DIMSOXD
 70
     0
  9
$DIMSAH
 70
     0
  9
$DIMBLK1
  1

  9
$DIMBLK2
  1

  9
$DIMSTYLE
  2
STANDARD
  9
$DIMCLRD
 70
     0
  9
$DIMCLRE
 70
     0
  9
$DIMCLRT
 70
     0
  9
$DIMTFAC
 40
1.0
  9
$DIMGAP
 40
0.09
  9
$LUNITS
 70
     2
  9
$LUPREC
 70
     4
  9
$SKETCHINC
 40
0.1
  9
$FILLETRAD
 40
0.0
  9
$AUNITS
 70
     0
  9
$AUPREC
 70
     0
  9
$MENU
  1
.
  9
$ELEVATION
 40
0.0
  9
$PELEVATION
 40
0.0
  9
$THICKNESS
 40
0.0
  9
$LIMCHECK
 70
     0
  9
$BLIPMODE
 70
     0
  9
$CHAMFERA
 40
0.0
  9
$CHAMFERB
 40
0.0
  9
$SKPOLY
 70
     0
  9
$TDCREATE
 40
2458060.468368056230247
  9
$TDUPDATE
 40
2459397.6574074071832001
  9
$TDINDWG
 40
0.7737570602
  9
$TDUSRTIMER
 40
0.7737570602
  9
$USRTIMER
 70
     1
  9
$ANGBASE
 50
0.0
  9
$ANGDIR
 70
     0
  9
$PDMODE
 70
     0
  9
$PDSIZE
 40
0.3125
  9
$PLINEWID
 40
0.0
  9
$COORDS
 70
     1
  9
$SPLFRAME
 70
     0
  9
$SPLINETYPE
 70
     6
  9
$SPLINESEGS
 70
     8
  9
$ATTDIA
 70
     1
  9
$ATTREQ
 70
     1
  9
$HANDLING
 70
     1
  9
$HANDSEED
  5
9E22
  9
$SURFTAB1
 70
     6
  9
$SURFTAB2
 70
     6
  9
$SURFTYPE
 70
     6
  9
$SURFU
 70
     6
  9
$SURFV
 70
     6
  9
$UCSNAME
  2

  9
$UCSORG
 10
0.0
 20
0.0
 30
0.0
  9
$UCSXDIR
 10
1.0
 20
0.0
 30
0.0
  9
$UCSYDIR
 10
0.0
 20
1.0
 30
0.0
  9
$PUCSNAME
  2

  9
$PUCSORG
 10
0.0
 20
0.0
 30
0.0
  9
$PUCSXDIR
 10
1.0
 20
0.0
 30
0.0
  9
$PUCSYDIR
 10
0.0
 20
1.0
 30
0.0
  9
$USERI1
 70
     0
  9
$USERI2
 70
     0
  9
$USERI3
 70
     0
  9
$USERI4
 70
     0
  9
$USERI5
 70
     0
  9
$USERR1
 40
0.0
  9
$USERR2
 40
0.0
  9
$USERR3
 40
0.0
  9
$USERR4
 40
0.0
  9
$USERR5
 40
0.0
  9
$WORLDVIEW
 70
     1
  9
$SHADEDGE
 70
     3
  9
$SHADEDIF
 70
    70
  9
$TILEMODE
 70
     1
  9
$MAXACTVP
 70
    64
  9
$PLIMCHECK
 70
     0
  9
$PEXTMIN
 10
1.0000000000000000E+20
 20
1.0000000000000000E+20
 30
1.0000000000000000E+20
  9
$PEXTMAX
 10
-1.0000000000000000E+20
 20
-1.0000000000000000E+20
 30
-1.0000000000000000E+20
  9
$PLIMMIN
 10
0.0
 20
0.0
  9
$PLIMMAX
 10
12.0
 20
9.0
  9
$UNITMODE
 70
     0
  9
$VISRETAIN
 70
     1
  9
$PLINEGEN
 70
     0
  9
$PSLTSCALE
 70
     1
  0
ENDSEC
  0
SECTION
  2
TABLES
  0
TABLE
  2
VPORT
 70
     1
  0
VPORT
  2
*ACTIVE
 70
     0
 10
0.0
 20
0.0
 11
1.0
 21
1.0
 12
254.435970476815811
 22
6.3272000812328884
 13
0.0
 23
0.0
 14
1.0
 24
1.0
 15
0.0
 25
0.0
 16
0.0
 26
0.0
 36
116.782910842256598
 17
3270.0277271544828182
 27
193.0425872802734091
 37
0.0
 40
5.3428314040708509
 41
1.67063492063492
 42
50.0
 43
0.0
 44
0.0
 50
0.0
 51
0.0
 71
     0
 72
   100
 73
     1
 74
     1
 75
     0
 76
     0
 77
     0
 78
     0
  0
ENDTAB
  0
TABLE
  2
LTYPE
 70
     2
  0
LTYPE
  2
CONTINUOUS
 70
     0
  3
Solid line
 72
    65
 73
     0
 40
0.0
  0
LTYPE
  2
PHANTOM2
 70
     0
  3
___ _ _ ___ _ _ ___ _ _ ___ _ _
 72
    65
 73
     6
 40
1.25
 49
0.625
 49
-0.125
 49
0.125
 49
-0.125
 49
0.125
 49
-0.125
  0
ENDTAB
  0
TABLE
  2
LAYER
 70
     2
  0
LAYER
  2
0
 70
     0
 62
   255
  6
CONTINUOUS
  0
LAYER
  2
DEFPOINTS
 70
     0
 62
     7
  6
CONTINUOUS
  0
ENDTAB
  0
TABLE
  2
STYLE
 70
     1
  0
STYLE
  2
STANDARD
 70
     0
 40
0.0
 41
0.8
 50
0.0
 71
     0
 42
0.2
  3
txt
  4

  0
ENDTAB
  0
TABLE
  2
VIEW
 70
     1
  0
ENDTAB
  0
TABLE
  2
UCS
 70
     0
  0
ENDTAB
  0
TABLE
  2
APPID
 70
     9
  0
APPID
  2
ACAD
 70
     0
  0
APPID
  2
ACAD_MLEADERVER
 70
     0
  0
APPID
  2
ACAD_EXEMPT_FROM_CAD_STANDARDS
 70
     0
  0
APPID
  2
ACAD_NAV_VCDISPLAY
 70
     0
  0
APPID
  2
ACAECLAYERSTANDARD
 70
     0
  0
APPID
  2
ACCMTRANSPARENCY
 70
     0
  0
APPID
  2
ACAD_DSTYLE_DIMJAG
 70
     0
  0
APPID
  2
ACAD_DSTYLE_DIMTALN
 70
     0
  0
APPID
  2
ACDBATTR
 70
     0
  0
ENDTAB
  0
TABLE
  2
DIMSTYLE
 70
     1
  0
DIMSTYLE
  2
STANDARD
 70
     0
  3

  4

  5

  6

  7

 40
1.0
 41
0.1875
 42
0.0625
 43
0.38
 44
0.125
 45
0.0
 46
0.0
 47
0.01
 48
0.01
140
0.15625
141
0.09
142
0.0
143
25.3999999999999986
144
1.0
145
0.0
146
1.0
147
0.09
 71
     1
 72
     0
 73
     1
 74
     1
 75
     0
 76
     0
 77
     0
 78
     4
170
     0
171
     2
172
     0
173
     0
174
     0
175
     0
176
     0
177
     0
178
     0
  0
ENDTAB
  0
ENDSEC
  0
SECTION
  2
BLOCKS
  0
BLOCK
  8
0
  2
$MODEL_SPACE
 70
     0
 10
0.0
 20
0.0
 30
0.0
  3
$MODEL_SPACE
  1

  0
ENDBLK
  5
21
  8
0
  0
BLOCK
 67
     1
  8
0
  2
$PAPER_SPACE
 70
     0
 10
0.0
 20
0.0
 30
0.0
  3
$PAPER_SPACE
  1

  0
ENDBLK
  5
1D
 67
     1
  8
0
  0
ENDSEC
  0
SECTION
  2
ENTITIES
  0
ATTDEF
  5
3930
  8
DEFPOINTS
 10
3521.5045674286448047
 20
199.3675324091888115
 30
0.0
 40
0.001
  1
K-97364T-B9
  3

  2
MODELNUMBER
 70
     0
1001
ACDBATTR
1070
     0
1070
     1
  0
ATTDEF
  5
3931
  8
DEFPOINTS
 10
3521.5045674286448047
 20
199.3658657425220895
 30
0.0
 40
0.001
  1
AVID
  3

  2
TRADENAME
 70
     0
1001
ACDBATTR
1070
     0
1070
     1
  0
ATTDEF
  5
3932
  8
DEFPOINTS
 10
3521.5045674286448047
 20
199.3641990758555096
 30
0.0
 40
0.001
  1
HANDSHOWER
  3

  2
PRODUCT
 70
     0
1001
ACDBATTR
1070
     0
1070
     1
  0
CIRCLE
  5
9D8C
  8
0
 10
3527.4151192286421974
 20
199.3698657456710066
 30
0.0
 40
0.5511811024500091
  0
LINE
  5
9D8D
  8
0
 10
3527.3672092698420784
 20
198.8208312268710074
 30
0.0
 11
3527.373786624143122
 21
198.7871273092709998
 31
0.0
  0
ARC
  5
9D8E
  8
0
 10
3527.4152074097360128
 20
199.1241665566907955
 30
0.0
 40
0.3405813178776529
 50
263.6783521185769246
 51
269.9851653670210112
  0
ARC
  5
9D8F
  8
0
 10
3527.4152074097360128
 20
199.1241665566913923
 30
0.0
 40
0.3405813178782357
 50
269.9851653669949201
 51
276.2461271284118993
  0
ARC
  5
9D90
  8
0
 10
3527.3786733633419317
 20
198.7941909941712026
 30
0.0
 40
0.0085894658659233
 50
235.3277016499862953
 51
263.5338642419742996
  0
LINE
  5
9D91
  8
0
 10
3527.4630291938419759
 20
198.8208312594709923
 30
0.0
 11
3527.4564518332422267
 21
198.7871273092709998
 31
0.0
  0
ARC
  5
9D92
  8
0
 10
3527.4518237925499307
 20
198.7933496679364964
 30
0.0
 40
0.0077550561151717
 50
273.2433437801500986
 51
306.6356234098747109
  0
ARC
  5
9D93
  8
0
 10
3527.4150948367141609
 20
198.643546362640592
 30
0.0
 40
0.1452635861449844
 50
81.4179051579000657
 51
98.5626344898452658
  0
ARC
  5
9D94
  8
0
 10
3527.4151393091128739
 20
198.9054204182347974
 30
0.0
 40
0.1201996487802065
 50
259.6123571830265178
 51
280.3681824647183021
  0
ARC
  5
9D95
  8
0
 10
3527.3032691514317776
 20
199.0605166513444999
 30
0.0
 40
0.2617915036322598
 50
257.7901857042729716
 51
265.8335564887162832
  0
ARC
  5
9D96
  8
0
 10
3527.3202979592410884
 20
199.194037634311087
 30
0.0
 40
0.3962637624298147
 50
264.7804541058197856
 51
268.5284322440597862
  0
ARC
  5
9D97
  8
0
 10
3527.3140420754548359
 20
198.8994625323070125
 30
0.0
 40
0.1016336145683135
 50
267.7892661126973053
 51
275.0461934731445126
  0
ARC
  5
9D98
  8
0
 10
3527.3222834376060746
 20
198.8064548246968002
 30
0.0
 40
0.0082615433361827
 50
274.848079490274074
 51
299.6309211736427187
  0
ARC
  5
9D99
  8
0
 10
3527.2504195206279292
 20
198.815022883431908
 30
0.0
 40
0.010676907987486
 50
233.1564364690923128
 51
256.3633153248284202
  0
LINE
  5
9D9A
  8
0
 10
3527.244017500263908
 20
198.806478108957208
 30
0.0
 11
3527.2410557385619541
 21
198.8344574573440013
 31
0.0
  0
LINE
  5
9D9B
  8
0
 10
3527.3263680358418242
 20
198.7992736579710993
 30
0.0
 11
3527.3336887020900576
 21
198.8247330306481047
 31
0.0
  0
ARC
  5
9D9C
  8
0
 10
3527.2736183479078136
 20
198.6755698875554117
 30
0.0
 40
0.1297706635172312
 50
75.2004179988081916
 51
94.3822022002870256
  0
ARC
  5
9D9D
  8
0
 10
3527.2961288009109921
 20
198.9220460241421051
 30
0.0
 40
0.1214920464447581
 50
254.5201610251918964
 51
275.0217260733480202
  0
LINE
  5
9D9E
  8
0
 10
3527.1158090288417952
 20
198.8930322697709983
 30
0.0
 11
3527.1165301086211912
 21
198.853362394765611
 31
0.0
  0
ARC
  5
9D9F
  8
0
 10
3527.126353854916033
 20
198.8656410398128003
 30
0.0
 40
0.01572485661246
 50
231.3378294888877917
 51
258.0473805199210915
  0
ARC
  5
9DA0
  8
0
 10
3527.2113088490268638
 20
199.1649958439340935
 30
0.0
 40
0.3268665879016855
 50
254.3434379928933993
 51
260.6939219037350881
  0
ARC
  5
9DA1
  8
0
 10
3527.214725672763052
 20
199.154944983785299
 30
0.0
 40
0.3175398638540208
 50
259.792214105623998
 51
265.5107888622187033
  0
ARC
  5
9DA2
  8
0
 10
3527.1940729458201531
 20
198.9810379469421093
 30
0.0
 40
0.1427205015533174
 50
268.3130235911582986
 51
270.6266848113517085
  0
ARC
  5
9DA3
  8
0
 10
3527.1955838002381824
 20
198.8429108885054006
 30
0.0
 40
0.0045851803880021
 50
270.6266848113517085
 51
300.6258286159625754
  0
LINE
  5
9DA4
  8
0
 10
3527.1979196258480442
 20
198.8389652836202117
 30
0.0
 11
3527.2017378404420924
 21
198.8488809390711083
 31
0.0
  0
ARC
  5
9DA5
  8
0
 10
3527.1359066633817747
 20
198.7252350437900077
 30
0.0
 40
0.1247376047225997
 50
70.0040422464328174
 51
89.9946608987467584
  0
ARC
  5
9DA6
  8
0
 10
3527.1793132965799487
 20
198.9713900032967899
 30
0.0
 40
0.1289391369099606
 50
250.3329235212684978
 51
269.6657796239226741
  0
LINE
  5
9DA7
  8
0
 10
3527.1119709839599636
 20
198.8954595108002081
 30
0.0
 11
3527.1119709839599636
 21
198.9095378740520914
 31
0.0
  0
ARC
  5
9DA8
  8
0
 10
3527.4151192286421974
 20
199.3698657456710919
 30
0.0
 40
0.5629921260001099
 50
237.4211940559081881
 51
255.0046140048746111
  0
LINE
  5
9DA9
  8
0
 10
3527.2694499373001236
 20
198.8260453787318909
 30
0.0
 11
3527.2694499373001236
 21
198.8382822007764048
 31
0.0
  0
LINE
  5
9DAA
  8
0
 10
3527.1394763307498579
 20
198.846119918840202
 30
0.0
 11
3527.1394695217099979
 21
198.7969470917151114
 31
0.0
  0
ARC
  5
9DAB
  8
0
 10
3527.1512805597690203
 20
198.7970701164726108
 30
0.0
 40
0.0118116787587096
 50
180.5967760360686896
 51
236.9062214049407089
  0
ARC
  5
9DAC
  8
0
 10
3527.415067229835131
 20
199.2670999577576083
 30
0.0
 40
0.5507775216411886
 50
240.6170467356384961
 51
270.0054092842195246
  0
ARC
  5
9DAD
  8
0
 10
3527.5269693058521625
 20
199.0605166513444999
 30
0.0
 40
0.2617915036322598
 50
274.1664435112836031
 51
282.2098142957270284
  0
ARC
  5
9DAE
  8
0
 10
3527.5099404980428517
 20
199.194037634311087
 30
0.0
 40
0.3962637624298147
 50
271.4715677559403275
 51
275.2195458941801007
  0
ARC
  5
9DAF
  8
0
 10
3527.5161963818291042
 20
198.8994625323070125
 30
0.0
 40
0.1016336145683135
 50
264.9538065268556011
 51
272.2107338873028084
  0
ARC
  5
9DB0
  8
0
 10
3527.507955019678775
 20
198.8064548246968002
 30
0.0
 40
0.0082615433361827
 50
240.3690788263573097
 51
265.151920509725926
  0
ARC
  5
9DB1
  8
0
 10
3527.5798189366569204
 20
198.815022883431908
 30
0.0
 40
0.010676907987486
 50
283.6366846751715798
 51
306.8435635309076019
  0
LINE
  5
9DB2
  8
0
 10
3527.5862209570209416
 20
198.806478108957208
 30
0.0
 11
3527.5891827187228955
 21
198.8344574573440013
 31
0.0
  0
LINE
  5
9DB3
  8
0
 10
3527.5038704214430254
 20
198.7992736579710993
 30
0.0
 11
3527.4965497551947919
 21
198.8247330306481047
 31
0.0
  0
ARC
  5
9DB4
  8
0
 10
3527.5566201093761265
 20
198.6755698875554117
 30
0.0
 40
0.1297706635172312
 50
85.6177977997129602
 51
104.7995820011917942
  0
ARC
  5
9DB5
  8
0
 10
3527.5341096563729479
 20
198.9220460241421051
 30
0.0
 40
0.1214920464447581
 50
264.9782739266519798
 51
285.4798389748081036
  0
LINE
  5
9DB6
  8
0
 10
3527.7144294284421449
 20
198.8930322697709983
 30
0.0
 11
3527.7137083486641131
 21
198.853362394765611
 31
0.0
  0
ARC
  5
9DB7
  8
0
 10
3527.7038846023679071
 20
198.8656410398128003
 30
0.0
 40
0.01572485661246
 50
281.9526194800787948
 51
308.6621705111122083
  0
ARC
  5
9DB8
  8
0
 10
3527.6189296082579858
 20
199.1649958439340935
 30
0.0
 40
0.3268665879016855
 50
279.3060780962647982
 51
285.6565620071065723
  0
ARC
  5
9DB9
  8
0
 10
3527.6155127845208881
 20
199.154944983785299
 30
0.0
 40
0.3175398638540208
 50
274.4892111377814103
 51
280.207785894376002
  0
ARC
  5
9DBA
  8
0
 10
3527.6361655114651512
 20
198.9810379469421093
 30
0.0
 40
0.1427205015533174
 50
269.3733151886482915
 51
271.6869764088156103
  0
ARC
  5
9DBB
  8
0
 10
3527.6346546570471219
 20
198.8429108885054006
 30
0.0
 40
0.0045851803880021
 50
239.3741713840373109
 51
269.3733151886482915
  0
LINE
  5
9DBC
  8
0
 10
3527.6323188314358958
 20
198.8389652836202117
 30
0.0
 11
3527.6285006168418477
 21
198.8488809390711083
 31
0.0
  0
ARC
  5
9DBD
  8
0
 10
3527.6943317939030749
 20
198.7252350437900077
 30
0.0
 40
0.1247376047225997
 50
90.0053391012532558
 51
109.9959577535671968
  0
ARC
  5
9DBE
  8
0
 10
3527.6509251607039914
 20
198.9713900032967899
 30
0.0
 40
0.1289391369099606
 50
270.3342203760773259
 51
289.6670764787314738
  0
LINE
  5
9DBF
  8
0
 10
3527.7182674733239764
 20
198.8954595108002081
 30
0.0
 11
3527.7182674733239764
 21
198.9095378740520914
 31
0.0
  0
ARC
  5
9DC0
  8
0
 10
3527.4151192286421974
 20
199.3698657456710919
 30
0.0
 40
0.5629921260001099
 50
284.9953859951253889
 51
302.5788059440916982
  0
LINE
  5
9DC1
  8
0
 10
3527.5607885199851808
 20
198.8260453787318909
 30
0.0
 11
3527.5607885199851808
 21
198.8382822007764048
 31
0.0
  0
LINE
  5
9DC2
  8
0
 10
3527.6920131640131331
 20
198.8464043183647902
 30
0.0
 11
3527.6920131640131331
 21
198.7969470917151114
 31
0.0
  0
ARC
  5
9DC3
  8
0
 10
3527.6726505868700769
 20
198.8029166542083033
 30
0.0
 40
0.0202619118057843
 50
309.0195890119048272
 51
342.8652534951701227
  0
ARC
  5
9DC4
  8
0
 10
3527.4151712274478996
 20
199.2670999577576083
 30
0.0
 40
0.5507775216411886
 50
269.9945907157804754
 51
299.3829532643613902
  0
CIRCLE
  5
9DC5
  8
0
 10
3527.4151192286421974
 20
199.3698657456710066
 30
0.0
 40
0.5039370078999994
  0
ARC
  5
9DC6
  8
0
 10
3521.5096073647928279
 20
199.3698660053728986
 30
0.0
 40
0.9257370052504903
 50
23.02651027633393
 51
180.0000160734848009
  0
ARC
  5
9DC7
  8
0
 10
3522.7942236741241686
 20
199.8847313820211866
 30
0.0
 40
0.4588143510576981
 50
199.4472156972948085
 51
261.1754608436784793
  0
ARC
  5
9DC8
  8
0
 10
3522.722223040037079
 20
199.4043965042978073
 30
0.0
 40
0.0269999233051504
 50
0.0
 51
86.5721858611151163
  0
LINE
  5
9DC9
  8
0
 10
3522.749222963342163
 20
199.4043965042978073
 30
0.0
 11
3522.749222963342163
 21
199.3353349870442912
 31
0.0
  0
ARC
  5
9DCA
  8
0
 10
3521.5096073647928279
 20
199.3698654859691999
 30
0.0
 40
0.9257370052504903
 50
179.9999839265151138
 51
336.9734897236660913
  0
ARC
  5
9DCB
  8
0
 10
3522.7942236741241686
 20
198.8550001093209119
 30
0.0
 40
0.4588143510576981
 50
98.8245391563214639
 51
160.5527843027051915
  0
ARC
  5
9DCC
  8
0
 10
3522.722223040037079
 20
199.3353349870442912
 30
0.0
 40
0.0269999233051504
 50
273.4278141388849122
 51
0.0
  0
CIRCLE
  5
9DCE
  8
0
 10
3527.4151192286421974
 20
199.3698657456710066
 30
0.0
 40
1.2777499999999991
  0
CIRCLE
  5
9DCF
  8
0
 10
3521.5096073647928279
 20
199.3698660053728986
 30
0.0
 40
1.2777499999999991
  0
ENDSEC
  0
EOF
