  0
SECTION
  2
HEADER
  9
$ACADVER
  1
AC1009
  9
$INSBASE
 10
522.7019667820171662
 20
46.6930510316445719
 30
0.0
  9
$EXTMIN
 10
519.1403382907478772
 20
43.2328968828371032
 30
-0.0015258207003583
  9
$EXTMAX
 10
526.2769246819232194
 20
46.7017154732793287
 30
0.0000000349246037
  9
$LIMMIN
 10
0.0
 20
0.0
  9
$LIMMAX
 10
11.6929133858000007
 20
8.2677165353999982
  9
$ORTHOMODE
 70
     0
  9
$REGENMODE
 70
     1
  9
$FILLMODE
 70
     1
  9
$QTEXTMODE
 70
     0
  9
$MIRRTEXT
 70
     0
  9
$DRAGMODE
 70
     2
  9
$LTSCALE
 40
0.6431102362
  9
$OSMODE
 70
   575
  9
$ATTMODE
 70
     1
  9
$TEXTSIZE
 40
0.2
  9
$TRACEWID
 40
0.05
  9
$TEXTSTYLE
  7
STANDARD
  9
$CLAYER
  8
0
  9
$CELTYPE
  6
BYLAYER
  9
$CECOLOR
 62
   256
  9
$DIMSCALE
 40
1.0
  9
$DIMASZ
 40
0.1875
  9
$DIMEXO
 40
0.0625
  9
$DIMDLI
 40
0.4443307087
  9
$DIMRND
 40
0.0
  9
$DIMDLE
 40
0.0
  9
$DIMEXE
 40
0.125
  9
$DIMTP
 40
0.01
  9
$DIMTM
 40
0.01
  9
$DIMTXT
 40
1.0
  9
$DIMCEN
 40
0.1052362205
  9
$DIMTSZ
 40
0.0
  9
$DIMTOL
 70
     1
  9
$DIMLIM
 70
     0
  9
$DIMTIH
 70
     0
  9
$DIMTOH
 70
     1
  9
$DIMSE1
 70
     0
  9
$DIMSE2
 70
     0
  9
$DIMTAD
 70
     0
  9
$DIMZIN
 70
     0
  9
$DIMBLK
  1

  9
$DIMASO
 70
     1
  9
$DIMSHO
 70
     1
  9
$DIMPOST
  1
\X
  9
$DIMAPOST
  1

  9
$DIMALT
 70
     1
  9
$DIMALTD
 70
     2
  9
$DIMALTF
 40
25.3999999999999986
  9
$DIMLFAC
 40
1.0
  9
$DIMTOFL
 70
     0
  9
$DIMTVP
 40
0.0
  9
$DIMTIX
 70
     0
  9
$DIMSOXD
 70
     0
  9
$DIMSAH
 70
     0
  9
$DIMBLK1
  1

  9
$DIMBLK2
  1

  9
$DIMSTYLE
  2
STANDARD
  9
$DIMCLRD
 70
     0
  9
$DIMCLRE
 70
     0
  9
$DIMCLRT
 70
     0
  9
$DIMTFAC
 40
1.0
  9
$DIMGAP
 40
0.09
  9
$LUNITS
 70
     2
  9
$LUPREC
 70
     4
  9
$SKETCHINC
 40
0.1
  9
$FILLETRAD
 40
0.0
  9
$AUNITS
 70
     0
  9
$AUPREC
 70
     0
  9
$MENU
  1
.
  9
$ELEVATION
 40
0.0
  9
$PELEVATION
 40
0.0
  9
$THICKNESS
 40
0.0
  9
$LIMCHECK
 70
     0
  9
$BLIPMODE
 70
     0
  9
$CHAMFERA
 40
0.0
  9
$CHAMFERB
 40
0.0
  9
$SKPOLY
 70
     0
  9
$TDCREATE
 40
2458172.5207638889551163
  9
$TDUPDATE
 40
2459391.8071064809337258
  9
$TDINDWG
 40
0.2802634028
  9
$TDUSRTIMER
 40
0.2802634028
  9
$USRTIMER
 70
     1
  9
$ANGBASE
 50
0.0
  9
$ANGDIR
 70
     0
  9
$PDMODE
 70
     0
  9
$PDSIZE
 40
0.3125
  9
$PLINEWID
 40
0.0
  9
$COORDS
 70
     2
  9
$SPLFRAME
 70
     0
  9
$SPLINETYPE
 70
     6
  9
$SPLINESEGS
 70
     8
  9
$ATTDIA
 70
     1
  9
$ATTREQ
 70
     1
  9
$HANDLING
 70
     1
  9
$HANDSEED
  5
F1F0
  9
$SURFTAB1
 70
     6
  9
$SURFTAB2
 70
     6
  9
$SURFTYPE
 70
     6
  9
$SURFU
 70
     6
  9
$SURFV
 70
     6
  9
$UCSNAME
  2

  9
$UCSORG
 10
0.0
 20
0.0
 30
0.0
  9
$UCSXDIR
 10
1.0
 20
0.0
 30
0.0
  9
$UCSYDIR
 10
0.0
 20
1.0
 30
0.0
  9
$PUCSNAME
  2

  9
$PUCSORG
 10
0.0
 20
0.0
 30
0.0
  9
$PUCSXDIR
 10
1.0
 20
0.0
 30
0.0
  9
$PUCSYDIR
 10
0.0
 20
1.0
 30
0.0
  9
$USERI1
 70
     0
  9
$USERI2
 70
     0
  9
$USERI3
 70
     0
  9
$USERI4
 70
     0
  9
$USERI5
 70
     0
  9
$USERR1
 40
0.0
  9
$USERR2
 40
0.0
  9
$USERR3
 40
0.0
  9
$USERR4
 40
0.0
  9
$USERR5
 40
0.0
  9
$WORLDVIEW
 70
     1
  9
$SHADEDGE
 70
     3
  9
$SHADEDIF
 70
    70
  9
$TILEMODE
 70
     1
  9
$MAXACTVP
 70
    64
  9
$PLIMCHECK
 70
     0
  9
$PEXTMIN
 10
1.0000000000000000E+20
 20
1.0000000000000000E+20
 30
1.0000000000000000E+20
  9
$PEXTMAX
 10
-1.0000000000000000E+20
 20
-1.0000000000000000E+20
 30
-1.0000000000000000E+20
  9
$PLIMMIN
 10
0.0
 20
0.0
  9
$PLIMMAX
 10
12.0
 20
9.0
  9
$UNITMODE
 70
     0
  9
$VISRETAIN
 70
     1
  9
$PLINEGEN
 70
     0
  9
$PSLTSCALE
 70
     1
  0
ENDSEC
  0
SECTION
  2
TABLES
  0
TABLE
  2
VPORT
 70
     1
  0
VPORT
  2
*ACTIVE
 70
     0
 10
0.0
 20
0.0
 11
1.0
 21
1.0
 12
93.0793421475516425
 22
-24.7352353792562596
 13
0.0
 23
0.0
 14
1.0
 24
1.0
 15
0.0
 25
0.0
 16
0.0
 26
0.0
 36
14.6338572656650907
 17
429.6292891080536833
 27
69.7025415122186871
 37
0.0
 40
4.132189117424411
 41
2.5405405405405399
 42
50.0
 43
0.0
 44
0.0
 50
0.0
 51
0.0
 71
     0
 72
   100
 73
     1
 74
     1
 75
     0
 76
     0
 77
     0
 78
     0
  0
ENDTAB
  0
TABLE
  2
LTYPE
 70
     2
  0
LTYPE
  2
CONTINUOUS
 70
     0
  3
Solid line
 72
    65
 73
     0
 40
0.0
  0
LTYPE
  2
PHANTOM2
 70
     0
  3
___ _ _ ___ _ _ ___ _ _ ___ _ _
 72
    65
 73
     6
 40
1.25
 49
0.625
 49
-0.125
 49
0.125
 49
-0.125
 49
0.125
 49
-0.125
  0
ENDTAB
  0
TABLE
  2
LAYER
 70
     2
  0
LAYER
  2
0
 70
     0
 62
   255
  6
CONTINUOUS
  0
LAYER
  2
DEFPOINTS
 70
     0
 62
     7
  6
CONTINUOUS
  0
ENDTAB
  0
TABLE
  2
STYLE
 70
     1
  0
STYLE
  2
STANDARD
 70
     0
 40
0.0
 41
0.8
 50
0.0
 71
     0
 42
0.2
  3
txt
  4

  0
ENDTAB
  0
TABLE
  2
VIEW
 70
     2
  0
ENDTAB
  0
TABLE
  2
UCS
 70
     0
  0
ENDTAB
  0
TABLE
  2
APPID
 70
    10
  0
APPID
  2
ACAD
 70
     0
  0
APPID
  2
ACAD_MLEADERVER
 70
     0
  0
APPID
  2
ACAD_EXEMPT_FROM_CAD_STANDARDS
 70
     0
  0
APPID
  2
ACAD_DSTYLE_DIMJAG
 70
     0
  0
APPID
  2
ACAD_DSTYLE_DIMTALN
 70
     0
  0
APPID
  2
ACAD_NAV_VCDISPLAY
 70
     0
  0
APPID
  2
ACAECLAYERSTANDARD
 70
     0
  0
APPID
  2
ACCMTRANSPARENCY
 70
     0
  0
APPID
  2
DCO15
 70
     0
  0
APPID
  2
ACDBATTR
 70
     0
  0
ENDTAB
  0
TABLE
  2
DIMSTYLE
 70
     1
  0
DIMSTYLE
  2
STANDARD
 70
     0
  3

  4

  5

  6

  7

 40
1.0
 41
0.1875
 42
0.0625
 43
0.38
 44
0.125
 45
0.0
 46
0.0
 47
0.01
 48
0.01
140
0.15625
141
0.09
142
0.0
143
25.3999999999999986
144
1.0
145
0.0
146
1.0
147
0.09
 71
     1
 72
     0
 73
     1
 74
     1
 75
     0
 76
     0
 77
     0
 78
     4
170
     0
171
     2
172
     0
173
     0
174
     0
175
     0
176
     0
177
     0
178
     0
  0
ENDTAB
  0
ENDSEC
  0
SECTION
  2
BLOCKS
  0
BLOCK
  8
0
  2
$MODEL_SPACE
 70
     0
 10
0.0
 20
0.0
 30
0.0
  3
$MODEL_SPACE
  1

  0
ENDBLK
  5
21
  8
0
  0
BLOCK
 67
     1
  8
0
  2
$PAPER_SPACE
 70
     0
 10
0.0
 20
0.0
 30
0.0
  3
$PAPER_SPACE
  1

  0
ENDBLK
  5
1D
 67
     1
  8
0
  0
BLOCK
  8
0
  2
_FILLED
 70
     0
 10
0.0
 20
0.0
 30
0.0
  3
_FILLED
  1

  0
SOLID
  5
87E2
  8
0
  6
BYBLOCK
 62
     0
 10
0.0
 20
0.0
 30
0.0
 11
-1.0
 21
0.1666666667
 31
0.0
 12
-1.0
 22
-0.1666666667
 32
0.0
 13
-1.0
 23
-0.1666666667
 33
0.0
  0
ENDBLK
  5
87E3
  8
0
  6
BYBLOCK
 62
     0
  0
ENDSEC
  0
SECTION
  2
ENTITIES
  0
ATTDEF
  5
C848
  8
DEFPOINTS
 10
522.7037901486379496
 20
46.6974868830478016
 30
0.0
 40
0.001
  1
K-97365T-B4
  3

  2
MODELNUMBER
 70
     0
1001
ACDBATTR
1070
     0
1070
     1
  0
ATTDEF
  5
C849
  8
DEFPOINTS
 10
522.7037901486379496
 20
46.6958202163811293
 30
0.0
 40
0.001
  1
MODULO
  3

  2
TRADENAME
 70
     0
1001
ACDBATTR
1070
     0
1070
     1
  0
ATTDEF
  5
C84A
  8
DEFPOINTS
 10
522.7037901486379496
 20
46.6941535497144713
 30
0.0
 40
0.001
  1
VALVE TRIM
  3

  2
PRODUCT
 70
     0
1001
ACDBATTR
1070
     0
1070
     1
  0
LINE
  5
F06C
  8
0
 10
521.7372491913672548
 20
46.1418699293445584
 30
0.0
 11
521.7372491913672548
 21
45.0316337088445735
 31
0.0
  0
LINE
  5
F06D
  8
0
 10
521.7372491913672548
 20
45.011948669444557
 30
0.0
 11
521.7372491913672548
 21
44.6055993887933511
 31
0.0
  0
ARC
  5
F06E
  8
0
 10
526.5377123311203604
 20
44.6825233511954281
 30
0.0
 40
4.8010794257251304
 50
180.9180450045903967
 51
186.2282515840159078
  0
ARC
  5
F06F
  8
0
 10
522.6592171695972411
 20
44.1387744155633968
 30
0.0
 40
0.8925826298824834
 50
192.519824225856695
 51
216.5348871706227101
  0
ARC
  5
F070
  8
0
 10
518.0496150768170764
 20
40.9110356011791225
 30
0.0
 40
4.7351176408545408
 50
33.1059702986101314
 51
34.711304414217679
  0
ARC
  5
F071
  8
0
 10
540.648875997616301
 20
53.9394123278892934
 30
0.0
 40
21.3593089301462484
 50
209.2668936126804908
 51
209.9047333221342058
  0
ARC
  5
F072
  8
0
 10
-431.1517017592278762
 20
-536.7548960777622824
 30
0.0
 40
1115.8876543298870274
 50
31.3176572324555913
 51
31.3192589210192907
  0
ARC
  5
F073
  8
0
 10
522.1807057632105398
 20
43.2833973642036085
 30
0.0
 40
0.0366754371807965
 50
212.1518192265073992
 51
238.0801995480231028
  0
ARC
  5
F074
  8
0
 10
522.2101828435096422
 20
43.3480692833183525
 30
0.0
 40
0.1075457420464635
 50
242.9738070485082062
 51
266.2325759991055065
  0
ARC
  5
F075
  8
0
 10
522.3347175705106338
 20
44.4820788251030166
 30
0.0
 40
1.248279358185272
 50
263.948285036245295
 51
270.2967088216367983
  0
ARC
  5
F076
  8
0
 10
521.9721106425849939
 20
43.7892721672705392
 30
0.0
 40
0.269452660146926
 50
107.4422131148758979
 51
127.8490243026879938
  0
ARC
  5
F077
  8
0
 10
522.6993256425685104
 20
39.3474957535849015
 30
0.0
 40
4.7882372754523308
 50
89.9648005464974148
 51
94.2584675173994242
  0
ARC
  5
F078
  8
0
 10
522.5030339878720724
 20
41.6967420421518327
 30
0.0
 40
2.4309942810556149
 50
93.756340243710568
 51
103.3186307571674973
  0
ARC
  5
F079
  8
0
 10
522.154019557118545
 20
43.2902925077212899
 30
0.0
 40
0.8003744433826258
 50
105.2856892711874934
 51
109.1590115953004982
  0
ARC
  5
F07A
  8
0
 10
521.854355631297949
 20
43.9482457059810372
 30
0.0
 40
0.0718148262188735
 50
131.4899804487212123
 51
160.7161833744760884
  0
ARC
  5
F07B
  8
0
 10
521.8638223049689486
 20
43.9638021234050314
 30
0.0
 40
0.0781879919795821
 50
182.5375299074621864
 51
193.7011678114251936
  0
LINE
  5
F07C
  8
0
 10
521.7865700284171453
 20
43.9719623943445725
 30
0.0
 11
521.7857109813452325
 21
43.9603404458420002
 31
0.0
  0
ARC
  5
F07D
  8
0
 10
522.2360850547877362
 20
44.1831669362645485
 30
0.0
 40
0.3709034373236139
 50
183.1259953818938868
 51
201.6486795587368022
  0
ARC
  5
F07E
  8
0
 10
522.6733689144440405
 20
40.509868484241558
 30
0.0
 40
3.774378053546009
 50
89.5613130295228643
 51
98.5935846730116765
  0
ARC
  5
F07F
  8
0
 10
522.3369752400551533
 20
42.8779264364474386
 30
0.0
 40
1.3828034745150251
 50
99.4732393189502915
 51
104.4549482643686957
  0
ARC
  5
F080
  8
0
 10
522.0628598580439075
 20
43.8769859617886269
 30
0.0
 40
0.3473168810946179
 50
101.8056041043195989
 51
124.5808887620387964
  0
ARC
  5
F081
  8
0
 10
521.8989692711601265
 20
44.12363732868792
 30
0.0
 40
0.0514705757002549
 50
130.2003009182820108
 51
159.480421755063503
  0
ARC
  5
F082
  8
0
 10
521.8780680708706541
 20
44.1306730536330534
 30
0.0
 40
0.0274039628989897
 50
195.0802585490172021
 51
261.0745262065860857
  0
ARC
  5
F083
  8
0
 10
521.8768994909763705
 20
44.1338071200240165
 30
0.0
 40
0.0272949352633025
 50
163.2373758723732919
 51
202.0881941214497033
  0
ARC
  5
F084
  8
0
 10
521.8008693842007233
 20
44.164872677062462
 30
0.0
 40
0.0360423286131979
 50
126.3552713710008959
 51
185.1195907983249924
  0
ARC
  5
F085
  8
0
 10
521.9971598435436135
 20
43.8738058645610209
 30
0.0
 40
0.3870841552400031
 50
99.3946783190956467
 51
124.2147542548780024
  0
ARC
  5
F086
  8
0
 10
522.4862028691212572
 20
41.6901821169600311
 30
0.0
 40
2.6242768455753951
 50
94.3951986361831246
 51
102.1475943082238018
  0
ARC
  5
F087
  8
0
 10
522.6976309531404468
 20
39.1966106410686876
 30
0.0
 40
5.126755951794796
 50
89.948185184695916
 51
94.6154779806897892
  0
ARC
  5
F088
  8
0
 10
521.8523558305689676
 20
44.1810621409204387
 30
0.0
 40
0.0895137821482225
 50
192.5205660149262883
 51
226.2808633678340868
  0
ARC
  5
F089
  8
0
 10
521.9201986190354319
 20
44.2555827670512016
 30
0.0
 40
0.1902763555351385
 50
227.0248077671847113
 51
244.4356622729798971
  0
ARC
  5
F08A
  8
0
 10
522.0062390560209451
 20
44.4164934743742421
 30
0.0
 40
0.3726524515914684
 50
243.1778295746044876
 51
250.9783479689407955
  0
ARC
  5
F08B
  8
0
 10
521.7493190656449542
 20
45.0318949005043123
 30
0.0
 40
0.0120727000362386
 50
181.2396851909255986
 51
269.4865387719797241
  0
ARC
  5
F08C
  8
0
 10
521.745382828409106
 20
45.0116854095909602
 30
0.0
 40
0.0081378963670652
 50
90.7076685476345688
 51
178.1461657944848866
  0
ARC
  5
F08D
  8
0
 10
519.2429578239170951
 20
46.1812400080445613
 30
0.0
 40
0.0393700786999996
 50
184.9999999253016938
 51
270.0
  0
LINE
  5
F08E
  8
0
 10
519.203737560248328
 20
46.1778086796445706
 30
0.0
 11
519.1586596954172137
 21
46.6930510316445719
 31
0.0
  0
LINE
  5
F08F
  8
0
 10
523.667285365667226
 20
46.1418699293445584
 30
0.0
 11
523.667285365667226
 21
45.0316337088445735
 31
0.0
  0
LINE
  5
F090
  8
0
 10
523.667285365667226
 20
45.011948669444557
 30
0.0
 11
523.667285365667226
 21
44.6055993887933511
 31
0.0
  0
ARC
  5
F091
  8
0
 10
518.3547520373798534
 20
44.7144991518543193
 30
0.0
 40
5.3136493601438319
 50
354.0280250981849122
 51
358.8256783132085275
  0
ARC
  5
F092
  8
0
 10
522.7453173874372396
 20
44.1387744155633968
 30
0.0
 40
0.8925826298824834
 50
323.4651128293772899
 51
347.4801757741432766
  0
ARC
  5
F093
  8
0
 10
527.3549194802171769
 20
40.9110356011791225
 30
0.0
 40
4.7351176408545408
 50
145.2886955857823068
 51
146.8940297013899112
  0
ARC
  5
F094
  8
0
 10
504.7556585594181229
 20
53.9394123278892934
 30
0.0
 40
21.3593089301462484
 50
330.0952666778658795
 51
330.7331063873194807
  0
ARC
  5
F095
  8
0
 10
1476.5562363162619022
 20
-536.7548960777622824
 30
0.0
 40
1115.8876543298870274
 50
148.6807410789807022
 51
148.6823427675444123
  0
ARC
  5
F096
  8
0
 10
523.2238287938238273
 20
43.2833973642036085
 30
0.0
 40
0.0366754371807965
 50
301.9198004519769256
 51
327.8481807734925724
  0
ARC
  5
F097
  8
0
 10
523.1943517135248385
 20
43.3480692833183525
 30
0.0
 40
0.1075457420464635
 50
273.7674240008946072
 51
297.0261929514917938
  0
ARC
  5
F098
  8
0
 10
523.0697228251857496
 20
44.483284771646872
 30
0.0
 40
1.2494885116709871
 50
269.6908086110860268
 51
276.0501787341253817
  0
ARC
  5
F099
  8
0
 10
523.4324239144219746
 20
43.7892721672279066
 30
0.0
 40
0.2694526601973986
 50
52.1509756982721129
 51
72.5577868822699941
  0
ARC
  5
F09A
  8
0
 10
522.7052089144659703
 20
39.3474957535851004
 30
0.0
 40
4.7882372754521301
 50
85.7415324826005616
 51
90.035199453502571
  0
ARC
  5
F09B
  8
0
 10
522.9015005691624083
 20
41.6967420421518327
 30
0.0
 40
2.4309942810556149
 50
76.6813692428324885
 51
86.2436597562894036
  0
ARC
  5
F09C
  8
0
 10
523.250514999915822
 20
43.2902925077212899
 30
0.0
 40
0.8003744433826258
 50
70.8409884046994733
 51
74.7143107288125634
  0
ARC
  5
F09D
  8
0
 10
523.550178925736418
 20
43.9482457059810372
 30
0.0
 40
0.0718148262188735
 50
19.2838166255238512
 51
48.5100195512787167
  0
ARC
  5
F09E
  8
0
 10
523.5596243664460872
 20
43.9610975204382726
 30
0.0
 40
0.0592023982721287
 50
344.5063355458273122
 51
359.4052983265444823
  0
LINE
  5
F09F
  8
0
 10
523.617964528617108
 20
43.9719623943445725
 30
0.0
 11
523.6188235756892482
 21
43.9604830400446289
 31
0.0
  0
ARC
  5
F0A0
  8
0
 10
523.1684495022467445
 20
44.1831669362645485
 30
0.0
 40
0.3709034373236139
 50
338.3513204412631126
 51
356.8740046181060279
  0
ARC
  5
F0A1
  8
0
 10
522.7311656425904403
 20
40.509868484241558
 30
0.0
 40
3.774378053546009
 50
81.4064153269883093
 51
90.4386869704771641
  0
ARC
  5
F0A2
  8
0
 10
523.0675593169791
 20
42.8779264364474386
 30
0.0
 40
1.3828034745150251
 50
75.5450517356313043
 51
80.5267606810496943
  0
ARC
  5
F0A3
  8
0
 10
523.3416746989903459
 20
43.8769859617886269
 30
0.0
 40
0.3473168810946179
 50
55.4191112379612392
 51
78.1943958956804011
  0
ARC
  5
F0A4
  8
0
 10
523.5055652858743542
 20
44.12363732868792
 30
0.0
 40
0.0514705757002549
 50
20.5195782449364899
 51
49.7996990817179679
  0
ARC
  5
F0A5
  8
0
 10
523.526466474536619
 20
44.1306730665813589
 30
0.0
 40
0.027403977494453
 50
278.9254936085392842
 51
344.9197216358662104
  0
ARC
  5
F0A6
  8
0
 10
523.5276350660581102
 20
44.1338071200240165
 30
0.0
 40
0.0272949352633025
 50
337.9118058785502967
 51
16.7626241276266796
  0
ARC
  5
F0A7
  8
0
 10
523.6036651728336437
 20
44.164872677062462
 30
0.0
 40
0.0360423286131979
 50
354.8804092016749223
 51
53.6447286289993031
  0
ARC
  5
F0A8
  8
0
 10
523.4073747134908672
 20
43.8738058645610209
 30
0.0
 40
0.3870841552400031
 50
55.7852457451220118
 51
80.6053216809043676
  0
ARC
  5
F0A9
  8
0
 10
522.9183316879129961
 20
41.6901821169600311
 30
0.0
 40
2.6242768455753951
 50
77.8524056917761413
 51
85.6048013638168754
  0
ARC
  5
F0AA
  8
0
 10
522.7069036038940339
 20
39.1966106410686024
 30
0.0
 40
5.126755951794884
 50
85.3845220193101966
 51
90.0518148153041267
  0
ARC
  5
F0AB
  8
0
 10
523.5521787264652858
 20
44.1810621409204387
 30
0.0
 40
0.0895137821482225
 50
313.7191366321658847
 51
347.4794339850736833
  0
ARC
  5
F0AC
  8
0
 10
523.4843359379990488
 20
44.2555827670512016
 30
0.0
 40
0.1902763555351385
 50
295.5643377270200745
 51
312.9751922328154023
  0
ARC
  5
F0AD
  8
0
 10
523.3982955010134219
 20
44.4164934743742421
 30
0.0
 40
0.3726524515914684
 50
289.0216520310560782
 51
296.822170425395484
  0
ARC
  5
F0AE
  8
0
 10
523.6552154913892991
 20
45.0318949005043194
 30
0.0
 40
0.0120727000362416
 50
270.5134612280136821
 51
358.7603148090657896
  0
ARC
  5
F0AF
  8
0
 10
523.6591517286251474
 20
45.0116854095909602
 30
0.0
 40
0.0081378963670649
 50
1.853834205515088
 51
89.292331452365417
  0
ARC
  5
F0B0
  8
0
 10
526.1615685606833495
 20
46.181244038242923
 30
0.0
 40
0.0393785714286765
 50
269.1374141231571002
 51
354.9951948130944857
  0
LINE
  5
F0B1
  8
0
 10
526.200796996786039
 20
46.1778086796445706
 30
0.0
 11
526.2452738686172324
 21
46.6930510316445719
 31
0.0
  0
LINE
  5
F0B2
  8
0
 10
522.3411818135172098
 20
43.2338162046445689
 30
0.0
 11
523.0629801084171504
 21
43.2338144532445625
 31
0.0
  0
LINE
  5
F0B3
  8
0
 10
521.7452823186199566
 20
45.0198226852445629
 30
0.0
 11
523.6592522384172526
 21
45.0198226852445629
 31
0.0
  0
LINE
  5
F0B4
  8
0
 10
519.1586596954172137
 20
46.6930510316445719
 30
0.0
 11
526.2452738686172324
 21
46.6930510316445719
 31
0.0
  0
LINE
  5
F0B5
  8
0
 10
519.2429578239170951
 20
46.1418699293445584
 30
0.0
 11
526.1609757401172374
 21
46.1418699293445584
 31
0.0
  0
ENDSEC
  0
EOF
