  0
SECTION
  2
HEADER
  9
$ACADVER
  1
AC1009
  9
$INSBASE
 10
507.9961793252901998
 20
50.0198766398475314
 30
0.0
  9
$EXTMIN
 10
504.4528722386900768
 20
43.1804276629495973
 30
0.0
  9
$EXTMAX
 10
527.7006937686015817
 20
55.1696035830305718
 30
0.0
  9
$LIMMIN
 10
0.0
 20
0.0
  9
$LIMMAX
 10
11.6929133858000007
 20
8.2677165353999982
  9
$ORTHOMODE
 70
     0
  9
$REGENMODE
 70
     1
  9
$FILLMODE
 70
     1
  9
$QTEXTMODE
 70
     0
  9
$MIRRTEXT
 70
     0
  9
$DRAGMODE
 70
     2
  9
$LTSCALE
 40
0.6431102362
  9
$OSMODE
 70
  4095
  9
$ATTMODE
 70
     1
  9
$TEXTSIZE
 40
0.2
  9
$TRACEWID
 40
0.05
  9
$TEXTSTYLE
  7
STANDARD
  9
$CLAYER
  8
0
  9
$CELTYPE
  6
BYLAYER
  9
$CECOLOR
 62
   256
  9
$DIMSCALE
 40
1.0
  9
$DIMASZ
 40
0.1875
  9
$DIMEXO
 40
0.0625
  9
$DIMDLI
 40
0.4443307087
  9
$DIMRND
 40
0.0
  9
$DIMDLE
 40
0.0
  9
$DIMEXE
 40
0.125
  9
$DIMTP
 40
0.01
  9
$DIMTM
 40
0.01
  9
$DIMTXT
 40
1.0
  9
$DIMCEN
 40
0.1052362205
  9
$DIMTSZ
 40
0.0
  9
$DIMTOL
 70
     1
  9
$DIMLIM
 70
     0
  9
$DIMTIH
 70
     0
  9
$DIMTOH
 70
     1
  9
$DIMSE1
 70
     0
  9
$DIMSE2
 70
     0
  9
$DIMTAD
 70
     0
  9
$DIMZIN
 70
     0
  9
$DIMBLK
  1

  9
$DIMASO
 70
     1
  9
$DIMSHO
 70
     1
  9
$DIMPOST
  1
\X
  9
$DIMAPOST
  1

  9
$DIMALT
 70
     1
  9
$DIMALTD
 70
     2
  9
$DIMALTF
 40
25.3999999999999986
  9
$DIMLFAC
 40
1.0
  9
$DIMTOFL
 70
     0
  9
$DIMTVP
 40
0.0
  9
$DIMTIX
 70
     0
  9
$DIMSOXD
 70
     0
  9
$DIMSAH
 70
     0
  9
$DIMBLK1
  1

  9
$DIMBLK2
  1

  9
$DIMSTYLE
  2
STANDARD
  9
$DIMCLRD
 70
     0
  9
$DIMCLRE
 70
     0
  9
$DIMCLRT
 70
     0
  9
$DIMTFAC
 40
1.0
  9
$DIMGAP
 40
0.09
  9
$LUNITS
 70
     2
  9
$LUPREC
 70
     4
  9
$SKETCHINC
 40
0.1
  9
$FILLETRAD
 40
0.0
  9
$AUNITS
 70
     0
  9
$AUPREC
 70
     0
  9
$MENU
  1
.
  9
$ELEVATION
 40
0.0
  9
$PELEVATION
 40
0.0
  9
$THICKNESS
 40
0.0
  9
$LIMCHECK
 70
     0
  9
$BLIPMODE
 70
     0
  9
$CHAMFERA
 40
0.0
  9
$CHAMFERB
 40
0.0
  9
$SKPOLY
 70
     0
  9
$TDCREATE
 40
2458172.5207638889551163
  9
$TDUPDATE
 40
2459115.9546412038616836
  9
$TDINDWG
 40
0.2805527546
  9
$TDUSRTIMER
 40
0.2805527546
  9
$USRTIMER
 70
     1
  9
$ANGBASE
 50
0.0
  9
$ANGDIR
 70
     0
  9
$PDMODE
 70
     0
  9
$PDSIZE
 40
0.3125
  9
$PLINEWID
 40
0.0
  9
$COORDS
 70
     1
  9
$SPLFRAME
 70
     0
  9
$SPLINETYPE
 70
     6
  9
$SPLINESEGS
 70
     8
  9
$ATTDIA
 70
     1
  9
$ATTREQ
 70
     1
  9
$HANDLING
 70
     1
  9
$HANDSEED
  5
F239
  9
$SURFTAB1
 70
     6
  9
$SURFTAB2
 70
     6
  9
$SURFTYPE
 70
     6
  9
$SURFU
 70
     6
  9
$SURFV
 70
     6
  9
$UCSNAME
  2

  9
$UCSORG
 10
0.0
 20
0.0
 30
0.0
  9
$UCSXDIR
 10
1.0
 20
0.0
 30
0.0
  9
$UCSYDIR
 10
0.0
 20
1.0
 30
0.0
  9
$PUCSNAME
  2

  9
$PUCSORG
 10
0.0
 20
0.0
 30
0.0
  9
$PUCSXDIR
 10
1.0
 20
0.0
 30
0.0
  9
$PUCSYDIR
 10
0.0
 20
1.0
 30
0.0
  9
$USERI1
 70
     0
  9
$USERI2
 70
     0
  9
$USERI3
 70
     0
  9
$USERI4
 70
     0
  9
$USERI5
 70
     0
  9
$USERR1
 40
0.0
  9
$USERR2
 40
0.0
  9
$USERR3
 40
0.0
  9
$USERR4
 40
0.0
  9
$USERR5
 40
0.0
  9
$WORLDVIEW
 70
     1
  9
$SHADEDGE
 70
     3
  9
$SHADEDIF
 70
    70
  9
$TILEMODE
 70
     1
  9
$MAXACTVP
 70
    64
  9
$PLIMCHECK
 70
     0
  9
$PEXTMIN
 10
1.0000000000000000E+20
 20
1.0000000000000000E+20
 30
1.0000000000000000E+20
  9
$PEXTMAX
 10
-1.0000000000000000E+20
 20
-1.0000000000000000E+20
 30
-1.0000000000000000E+20
  9
$PLIMMIN
 10
0.0
 20
0.0
  9
$PLIMMAX
 10
12.0
 20
9.0
  9
$UNITMODE
 70
     0
  9
$VISRETAIN
 70
     1
  9
$PLINEGEN
 70
     0
  9
$PSLTSCALE
 70
     1
  0
ENDSEC
  0
SECTION
  2
TABLES
  0
TABLE
  2
VPORT
 70
     1
  0
VPORT
  2
*ACTIVE
 70
     0
 10
0.0
 20
0.0
 11
1.0
 21
1.0
 12
90.5162121448782244
 22
-26.2979404441176996
 13
0.0
 23
0.0
 14
1.0
 24
1.0
 15
0.0
 25
0.0
 16
0.0
 26
0.0
 36
14.6338572656650907
 17
429.6292891080536833
 27
69.7025415122186871
 37
0.0
 40
35.025059349829057
 41
2.005224660397074
 42
50.0
 43
0.0
 44
0.0
 50
0.0
 51
0.0
 71
     0
 72
   100
 73
     1
 74
     1
 75
     0
 76
     0
 77
     0
 78
     0
  0
ENDTAB
  0
TABLE
  2
LTYPE
 70
     2
  0
LTYPE
  2
CONTINUOUS
 70
     0
  3
Solid line
 72
    65
 73
     0
 40
0.0
  0
LTYPE
  2
PHANTOM2
 70
     0
  3
___ _ _ ___ _ _ ___ _ _ ___ _ _
 72
    65
 73
     6
 40
1.25
 49
0.625
 49
-0.125
 49
0.125
 49
-0.125
 49
0.125
 49
-0.125
  0
ENDTAB
  0
TABLE
  2
LAYER
 70
     2
  0
LAYER
  2
0
 70
     0
 62
   255
  6
CONTINUOUS
  0
LAYER
  2
DEFPOINTS
 70
     0
 62
     7
  6
CONTINUOUS
  0
ENDTAB
  0
TABLE
  2
STYLE
 70
     1
  0
STYLE
  2
STANDARD
 70
     0
 40
0.0
 41
0.8
 50
0.0
 71
     0
 42
0.2
  3
txt
  4

  0
ENDTAB
  0
TABLE
  2
VIEW
 70
     0
  0
ENDTAB
  0
TABLE
  2
UCS
 70
     0
  0
ENDTAB
  0
TABLE
  2
APPID
 70
    10
  0
APPID
  2
ACAD
 70
     0
  0
APPID
  2
ACAD_MLEADERVER
 70
     0
  0
APPID
  2
ACAD_EXEMPT_FROM_CAD_STANDARDS
 70
     0
  0
APPID
  2
ACAD_DSTYLE_DIMJAG
 70
     0
  0
APPID
  2
ACAD_DSTYLE_DIMTALN
 70
     0
  0
APPID
  2
ACAD_NAV_VCDISPLAY
 70
     0
  0
APPID
  2
ACAECLAYERSTANDARD
 70
     0
  0
APPID
  2
ACCMTRANSPARENCY
 70
     0
  0
APPID
  2
DCO15
 70
     0
  0
APPID
  2
ACDBATTR
 70
     0
  0
ENDTAB
  0
TABLE
  2
DIMSTYLE
 70
     1
  0
DIMSTYLE
  2
STANDARD
 70
     0
  3

  4

  5

  6

  7

 40
1.0
 41
0.1875
 42
0.0625
 43
0.38
 44
0.125
 45
0.0
 46
0.0
 47
0.01
 48
0.01
140
0.15625
141
0.09
142
0.0
143
25.3999999999999986
144
1.0
145
0.0
146
1.0
147
0.09
 71
     1
 72
     0
 73
     1
 74
     1
 75
     0
 76
     0
 77
     0
 78
     4
170
     0
171
     2
172
     0
173
     0
174
     0
175
     0
176
     0
177
     0
178
     0
  0
ENDTAB
  0
ENDSEC
  0
SECTION
  2
BLOCKS
  0
BLOCK
  8
0
  2
$MODEL_SPACE
 70
     0
 10
0.0
 20
0.0
 30
0.0
  3
$MODEL_SPACE
  1

  0
ENDBLK
  5
21
  8
0
  0
BLOCK
 67
     1
  8
0
  2
$PAPER_SPACE
 70
     0
 10
0.0
 20
0.0
 30
0.0
  3
$PAPER_SPACE
  1

  0
ENDBLK
  5
1D
 67
     1
  8
0
  0
BLOCK
  8
0
  2
_FILLED
 70
     0
 10
0.0
 20
0.0
 30
0.0
  3
_FILLED
  1

  0
SOLID
  5
87E2
  8
0
  6
BYBLOCK
 62
     0
 10
0.0
 20
0.0
 30
0.0
 11
-1.0
 21
0.1666666667
 31
0.0
 12
-1.0
 22
-0.1666666667
 32
0.0
 13
-1.0
 23
-0.1666666667
 33
0.0
  0
ENDBLK
  5
87E3
  8
0
  6
BYBLOCK
 62
     0
  0
ENDSEC
  0
SECTION
  2
ENTITIES
  0
ATTDEF
  5
C848
  8
DEFPOINTS
 10
507.9976290468144953
 20
50.0243630855995676
 30
0.0
 40
0.001
  1
K-97366T-4
  3

  2
MODELNUMBER
 70
     0
1001
ACDBATTR
1070
     0
1070
     1
  0
ATTDEF
  5
C849
  8
DEFPOINTS
 10
507.9976290468144953
 20
50.0226964189329095
 30
0.0
 40
0.001
  1
MODULO
  3

  2
TRADENAME
 70
     0
1001
ACDBATTR
1070
     0
1070
     1
  0
ATTDEF
  5
C84A
  8
DEFPOINTS
 10
507.9976290468144953
 20
50.0210297522662373
 30
0.0
 40
0.001
  1
VALVE TRIM
  3

  2
PRODUCT
 70
     0
1001
ACDBATTR
1070
     0
1070
     1
  0
LINE
  5
F12F
  8
0
 10
507.0314617359401836
 20
49.4686955374475303
 30
0.0
 11
507.0314617359401836
 21
48.2836561674474609
 31
0.0
  0
LINE
  5
F130
  8
0
 10
507.0314617359401836
 20
48.2639711280474586
 30
0.0
 11
507.0314617359401836
 21
47.8576206747963298
 31
0.0
  0
ARC
  5
F131
  8
0
 10
521.8635120148302349
 20
48.5687315338701069
 30
0.0
 40
14.8490873163779007
 50
182.7448987017936872
 51
184.4613266663081106
  0
ARC
  5
F132
  8
0
 10
507.9534297300202184
 20
47.4389350856663512
 30
0.0
 40
0.8925826298824834
 50
192.519824225856695
 51
216.5348871706227101
  0
ARC
  5
F133
  8
0
 10
503.3438276372399969
 20
44.211196271282077
 30
0.0
 40
4.7351176408545408
 50
33.1059702986101314
 51
34.711304414217679
  0
ARC
  5
F134
  8
0
 10
525.9430885580392214
 20
57.2395729979922407
 30
0.0
 40
21.3593089301462484
 50
209.2668936126802919
 51
209.9047333221342058
  0
ARC
  5
F135
  8
0
 10
-445.8574891988055811
 20
-533.4547354076580632
 30
0.0
 40
1115.8876543298870274
 50
31.3176572324555913
 51
31.3192589210192907
  0
ARC
  5
F136
  8
0
 10
507.474918323633517
 20
46.5835580343065772
 30
0.0
 40
0.0366754371807965
 50
212.1518192265073992
 51
238.0801995480231028
  0
ARC
  5
F137
  8
0
 10
507.5043954039325058
 20
46.6482299534213212
 30
0.0
 40
0.1075457420464635
 50
242.9738070485082062
 51
266.2325759991055065
  0
ARC
  5
F138
  8
0
 10
507.6289301309334974
 20
47.7822394952059568
 30
0.0
 40
1.248279358185272
 50
263.948285036245295
 51
270.2967088216367983
  0
ARC
  5
F139
  8
0
 10
507.2663232030353129
 20
47.0894328373308895
 30
0.0
 40
0.2694526601973768
 50
110.6089881061167972
 51
127.8490243017280932
  0
ARC
  5
F13A
  8
0
 10
507.993538202991374
 20
42.647656423687863
 30
0.0
 40
4.7882372754523308
 50
89.9648005464974148
 51
94.2584675173994242
  0
ARC
  5
F13B
  8
0
 10
507.7972465482948792
 20
44.9969027122547729
 30
0.0
 40
2.4309942810556149
 50
93.756340243710568
 51
103.3186307571674973
  0
ARC
  5
F13C
  8
0
 10
507.4719734335517956
 20
46.5090216794192699
 30
0.0
 40
0.8851852980184876
 50
105.3784739979340941
 51
109.8446289645703047
  0
ARC
  5
F13D
  8
0
 10
507.1485681917209263
 20
47.2484063760840129
 30
0.0
 40
0.0718148262188735
 50
131.4899804487212123
 51
160.7161833744760884
  0
ARC
  5
F13E
  8
0
 10
507.1580365069003733
 20
47.263963109917519
 30
0.0
 40
0.0781896617220276
 50
182.5377077689840917
 51
193.7011081642941974
  0
LINE
  5
F13F
  8
0
 10
507.0807825888401226
 20
47.2721230644475199
 30
0.0
 11
507.0799235259181046
 21
47.2605011159449617
 31
0.0
  0
ARC
  5
F140
  8
0
 10
507.56851735427432
 20
47.4403624828745976
 30
0.0
 40
0.4091274536831613
 50
183.55944614351219
 51
193.9630397349409066
  0
ARC
  5
F141
  8
0
 10
507.9678145440169033
 20
43.7618897702445366
 30
0.0
 40
3.774378053546009
 50
89.5613130295228643
 51
98.5935846730116765
  0
ARC
  5
F142
  8
0
 10
507.6314208696281867
 20
46.1299477224504031
 30
0.0
 40
1.3828034745150251
 50
99.4732393189502915
 51
104.4549482643686957
  0
ARC
  5
F143
  8
0
 10
507.357305487616884
 20
47.1290072477916127
 30
0.0
 40
0.3473168810946179
 50
101.8056041043164015
 51
124.5808887620387964
  0
ARC
  5
F144
  8
0
 10
507.1934149007329893
 20
47.3756586146908916
 30
0.0
 40
0.0514705757002549
 50
130.2003009182820108
 51
159.480421755063503
  0
ARC
  5
F145
  8
0
 10
507.2044954635056229
 20
47.4043458456488409
 30
0.0
 40
0.0651446631788772
 50
206.2191113640714946
 51
237.6656938113085005
  0
ARC
  5
F146
  8
0
 10
507.1713451205492902
 20
47.3858284060270023
 30
0.0
 40
0.0272949352633025
 50
163.2373758723732919
 51
202.0881941214495043
  0
ARC
  5
F147
  8
0
 10
507.0953150137736998
 20
47.4168939630654407
 30
0.0
 40
0.0360423286131979
 50
126.3552713710006969
 51
185.1195907983245945
  0
ARC
  5
F148
  8
0
 10
507.2916054731164763
 20
47.1258271505639996
 30
0.0
 40
0.3870841552400031
 50
99.3946783190956467
 51
124.2147542548780024
  0
ARC
  5
F149
  8
0
 10
507.7806484986942905
 20
44.9422034029630026
 30
0.0
 40
2.6242768455753951
 50
94.3951986361831246
 51
102.1475943082238018
  0
ARC
  5
F14A
  8
0
 10
507.9921113598877014
 20
42.4480548387392389
 30
0.0
 40
5.1273339672018068
 50
89.954185077801128
 51
94.6153464240118325
  0
ARC
  5
F14B
  8
0
 10
507.1468014601418872
 20
47.4330834269234174
 30
0.0
 40
0.0895137821482225
 50
192.5205660149258904
 51
226.2808633678340868
  0
ARC
  5
F14C
  8
0
 10
507.2227327508056192
 20
47.5177281958346711
 30
0.0
 40
0.2031998372174336
 50
227.3021235493528991
 51
247.4945713446554976
  0
ARC
  5
F14D
  8
0
 10
507.0442026624384084
 20
48.2846159498085399
 30
0.0
 40
0.0127770258750932
 50
184.307992130565907
 51
268.2121439296138874
  0
ARC
  5
F14E
  8
0
 10
507.0402767767562864
 20
48.2629840982230292
 30
0.0
 40
0.0088701280974493
 50
92.5930554699861545
 51
173.611139975584706
  0
ARC
  5
F14F
  8
0
 10
504.5371703671901855
 20
49.5080656162475208
 30
0.0
 40
0.0393700786999996
 50
184.9999999253016938
 51
270.0
  0
LINE
  5
F150
  8
0
 10
504.4979501035211911
 20
49.5046342878475301
 30
0.0
 11
504.4528722386900768
 21
50.0198766398475314
 31
0.0
  0
LINE
  5
F151
  8
0
 10
508.961497910240098
 20
49.4686955375475321
 30
0.0
 11
508.961497910240098
 21
48.2836561674475178
 31
0.0
  0
LINE
  5
F152
  8
0
 10
508.961497910240098
 20
48.2639711280475296
 30
0.0
 11
508.961497910240098
 21
47.8576206747963298
 31
0.0
  0
ARC
  5
F153
  8
0
 10
481.6459545368077215
 20
49.3261531691743897
 30
0.0
 40
27.3549903577557103
 50
355.9909971645108726
 51
356.9226389408065074
  0
ARC
  5
F154
  8
0
 10
508.0395299478602169
 20
47.4389350856663512
 30
0.0
 40
0.8925826298824834
 50
323.4651128293772899
 51
347.4801757741432766
  0
ARC
  5
F155
  8
0
 10
512.649132040640211
 20
44.211196271282077
 30
0.0
 40
4.7351176408545408
 50
145.2886955857823068
 51
146.8940297013899112
  0
ARC
  5
F156
  8
0
 10
490.0498711198411002
 20
57.2395729979922407
 30
0.0
 40
21.3593089301462484
 50
330.0952666778658795
 51
330.7331063873197081
  0
ARC
  5
F157
  8
0
 10
1461.85044887668505
 20
-533.4547354076594274
 30
0.0
 40
1115.8876543298870274
 50
148.6807410789807022
 51
148.6823427675444123
  0
ARC
  5
F158
  8
0
 10
508.5180413542468045
 20
46.5835580343065772
 30
0.0
 40
0.0366754371807965
 50
301.9198004519769256
 51
327.8481807734924018
  0
ARC
  5
F159
  8
0
 10
508.4885642739477021
 20
46.6482299534213212
 30
0.0
 40
0.1075457420464635
 50
273.7674240008946072
 51
297.0261929514917938
  0
ARC
  5
F15A
  8
0
 10
508.3639353856087268
 20
47.7834454417498335
 30
0.0
 40
1.2494885116709871
 50
269.6908086110860268
 51
276.0501787341253817
  0
ARC
  5
F15B
  8
0
 10
508.7266364748439855
 20
47.0894328373293192
 30
0.0
 40
0.2694526601992293
 50
52.1509756983056576
 51
69.3233074869365566
  0
ARC
  5
F15C
  8
0
 10
507.9994214748888908
 20
42.647656423688062
 30
0.0
 40
4.7882372754521301
 50
85.7415324826005616
 51
90.035199453502571
  0
ARC
  5
F15D
  8
0
 10
508.1957131295852719
 20
44.9969027122547729
 30
0.0
 40
2.4309942810556149
 50
76.6813692428324885
 51
86.2436597562894036
  0
ARC
  5
F15E
  8
0
 10
508.5216402730629284
 20
46.511264964493293
 30
0.0
 40
0.8828488898285985
 50
70.125211873687519
 51
74.623843264291267
  0
ARC
  5
F15F
  8
0
 10
508.8443914861593953
 20
47.2484063760840129
 30
0.0
 40
0.0718148262188735
 50
19.2838166255238512
 51
48.5100195512787167
  0
ARC
  5
F160
  8
0
 10
508.8538378479445896
 20
47.2612579986398202
 30
0.0
 40
0.0592014594054558
 50
344.5062763923912144
 51
359.4054746290731828
  0
LINE
  5
F161
  8
0
 10
508.9121770890400853
 20
47.2721230644475199
 30
0.0
 11
508.9130361202621771
 21
47.2606437101475976
 31
0.0
  0
ARC
  5
F162
  8
0
 10
508.462895131819721
 20
47.4351882222675272
 30
0.0
 40
0.3709034373236021
 50
345.3735975463869181
 51
356.8740046181064258
  0
ARC
  5
F163
  8
0
 10
508.0256112721634167
 20
43.7618897702445366
 30
0.0
 40
3.774378053546009
 50
81.4064153269883093
 51
90.4386869704771641
  0
ARC
  5
F164
  8
0
 10
508.3620049465520765
 20
46.1299477224504031
 30
0.0
 40
1.3828034745150251
 50
75.5450517356313043
 51
80.5267606810496943
  0
ARC
  5
F165
  8
0
 10
508.6361203285633792
 20
47.1290072477916127
 30
0.0
 40
0.3473168810946179
 50
55.4191112379612392
 51
78.1943958956835985
  0
ARC
  5
F166
  8
0
 10
508.8000109154472739
 20
47.3756586146908916
 30
0.0
 40
0.0514705757002549
 50
20.51957824493687
 51
49.7996990817179679
  0
ARC
  5
F167
  8
0
 10
508.7768088155057171
 20
47.4125716230491534
 30
0.0
 40
0.0796789315928362
 50
305.7729738100584882
 51
332.3252510970802973
  0
ARC
  5
F168
  8
0
 10
508.822080695630973
 20
47.3858284060270023
 30
0.0
 40
0.0272949352633025
 50
337.9118058785502967
 51
16.7626241276266796
  0
ARC
  5
F169
  8
0
 10
508.8981108024066202
 20
47.4168939630654407
 30
0.0
 40
0.0360423286131979
 50
354.8804092016749223
 51
53.6447286289993031
  0
ARC
  5
F16A
  8
0
 10
508.7018203430637868
 20
47.1258271505639996
 30
0.0
 40
0.3870841552400031
 50
55.7852457451220118
 51
80.6053216809043676
  0
ARC
  5
F16B
  8
0
 10
508.2127773174859158
 20
44.9422034029630026
 30
0.0
 40
2.6242768455753951
 50
77.8524056917761413
 51
85.6048013638168754
  0
ARC
  5
F16C
  8
0
 10
507.9993123347936717
 20
42.3980305016667032
 30
0.0
 40
5.1773575937894476
 50
85.4071146287963359
 51
90.0343181045777357
  0
ARC
  5
F16D
  8
0
 10
508.8466243560383191
 20
47.4330834269234174
 30
0.0
 40
0.0895137821482225
 50
313.7191366321658847
 51
347.4794339850739107
  0
ARC
  5
F16E
  8
0
 10
508.6325594911602934
 20
47.6975772332580519
 30
0.0
 40
0.4295375786134105
 50
300.6699168206919239
 51
309.9701506893193823
  0
ARC
  5
F16F
  8
0
 10
508.9480800766255015
 20
48.2853512738564135
 30
0.0
 40
0.0135244831562979
 50
272.9852567771711733
 51
352.7998326001188047
  0
ARC
  5
F170
  8
0
 10
508.9519828900753851
 20
48.2621929719416229
 30
0.0
 40
0.0096797442048341
 50
10.5852712948591208
 51
85.6744103062017786
  0
ARC
  5
F171
  8
0
 10
511.4557811039563262
 20
49.5080696464458825
 30
0.0
 40
0.0393785714286765
 50
269.1374141231571002
 51
354.9951948130948267
  0
LINE
  5
F172
  8
0
 10
511.4950095400589021
 20
49.5046342878475301
 30
0.0
 11
511.5394864118900955
 21
50.0198766398475314
 31
0.0
  0
LINE
  5
F173
  8
0
 10
507.6353943739401871
 20
46.5339768747475233
 30
0.0
 11
508.3571926688401277
 21
46.5339751233475312
 31
0.0
  0
LINE
  5
F174
  8
0
 10
504.4528722386900768
 20
50.0198766398475314
 30
0.0
 11
511.5394864118900955
 21
50.0198766398475314
 31
0.0
  0
LINE
  5
F175
  8
0
 10
504.5371703671901855
 20
49.4686955375475179
 30
0.0
 11
511.4551882833901004
 21
49.4686955375475179
 31
0.0
  0
LINE
  5
F176
  8
0
 10
507.513895860814273
 20
49.4686955374475303
 30
0.0
 11
507.513895860814273
 21
48.2285380570514235
 31
0.0
  0
LINE
  5
F177
  8
0
 10
507.513895860814273
 20
48.2285380570514235
 30
0.0
 11
507.533581547914423
 21
48.208853017751423
 31
0.0
  0
LINE
  5
F178
  8
0
 10
507.6024785379144078
 20
48.208853017751423
 30
0.0
 11
507.6024785379144078
 21
48.1178019123514105
 31
0.0
  0
LINE
  5
F179
  8
0
 10
507.6024785379144078
 20
48.1178019123514105
 30
0.0
 11
507.5230513825143817
 21
48.1150282549514117
 31
0.0
  0
ARC
  5
F17A
  8
0
 10
507.5237383804333149
 20
48.0953552071088808
 30
0.0
 40
0.019685039443173
 50
91.999999854651378
 51
179.9999998761865072
  0
ARC
  5
F17B
  8
0
 10
507.5567309423371967
 20
48.0970035230854691
 30
0.0
 40
0.0527033834691781
 50
181.7922369147485995
 51
224.4019048171728059
  0
ARC
  5
F17C
  8
0
 10
451.8831519570649107
 20
-11.6464337185899698
 30
0.0
 40
81.6102299339983261
 50
46.9787715389316389
 51
47.0212285027429076
  0
ARC
  5
F17D
  8
0
 10
507.4961793251566178
 20
47.9469006362399526
 30
0.0
 40
0.0984251970891272
 50
23.5000000228751702
 51
46.9999999766436289
  0
ARC
  5
F17E
  8
0
 10
507.4937151473221775
 20
47.9463880865919165
 30
0.0
 40
0.1008906768408006
 50
0.2910780782922766
 51
23.2089219217107612
  0
LINE
  5
F17F
  8
0
 10
507.5946045222145244
 20
47.9469006363299783
 30
0.0
 11
507.594604522214297
 21
47.7700178507571067
 31
0.0
  0
ARC
  5
F180
  8
0
 10
507.4961793253144151
 20
47.7700179974514185
 30
0.0
 40
0.0984251969000108
 50
336.5000000000009095
 51
359.9999146055603205
  0
ARC
  5
F181
  8
0
 10
507.4803176039532104
 20
47.7812279537891769
 30
0.0
 40
0.1175078961347011
 50
311.071039019478917
 51
334.5710397026606984
  0
ARC
  5
F182
  8
0
 10
509.2647686776514888
 20
45.8233023474015511
 30
0.0
 40
2.5316239622965568
 50
132.4051790139820071
 51
133.5948210844935033
  0
ARC
  5
F183
  8
0
 10
507.5634043844427765
 20
47.6171611495405571
 30
0.0
 40
0.059459545004766
 50
138.2024288981104121
 51
176.5381290172757076
  0
ARC
  5
F184
  8
0
 10
507.5248120324665138
 20
47.6217455790717921
 30
0.0
 40
0.0207824763182376
 50
182.7414513680184029
 51
262.8468205799613884
  0
ARC
  5
F185
  8
0
 10
507.9961793253103792
 20
53.7442860884818785
 30
0.0
 40
6.1614173227303599
 50
265.5882742208142986
 51
267.1937971219501264
  0
ARC
  5
F186
  8
0
 10
507.9961793253143014
 20
53.7442860885468434
 30
0.0
 40
6.1614173227954216
 50
267.1937971219437031
 51
270.0
  0
LINE
  5
F187
  8
0
 10
508.4784627898872031
 20
49.4686955374475303
 30
0.0
 11
508.4784627898662279
 21
48.2285380570432807
 31
0.0
  0
LINE
  5
F188
  8
0
 10
508.4784627898662279
 20
48.2285380570432807
 30
0.0
 11
508.4587771027659073
 21
48.2088530177436212
 31
0.0
  0
LINE
  5
F189
  8
0
 10
508.4587771027659073
 20
48.2088530177436212
 30
0.0
 11
507.533581547914423
 21
48.208853017751423
 31
0.0
  0
LINE
  5
F18A
  8
0
 10
508.3898801127658089
 20
48.2088530177447723
 30
0.0
 11
508.3898801127642741
 21
48.1178019123447669
 31
0.0
  0
LINE
  5
F18B
  8
0
 10
508.3898801127642741
 20
48.1178019123447669
 30
0.0
 11
508.4693072681643002
 21
48.1150282549434323
 31
0.0
  0
ARC
  5
F18C
  8
0
 10
508.4686202703217077
 20
48.095355207273073
 30
0.0
 40
0.0196850392684391
 50
359.9999996217400735
 51
88.0000003498689694
  0
LINE
  5
F18D
  8
0
 10
508.3898801127642741
 20
48.1178019123447669
 30
0.0
 11
507.6024785379144078
 21
48.1178019123447669
 31
0.0
  0
ARC
  5
F18E
  8
0
 10
508.4323512068978062
 20
48.0984008712479181
 30
0.0
 40
0.0560369313751169
 50
316.9214775173774115
 51
356.8843809950437844
  0
ARC
  5
F18F
  8
0
 10
564.1092066926058806
 20
-11.6464337195363008
 30
0.0
 40
81.6102299339983261
 50
132.9787714962909888
 51
133.0212284601016108
  0
ARC
  5
F190
  8
0
 10
508.4961793255188809
 20
47.9469006362317387
 30
0.0
 40
0.0984251970886962
 50
133.0000000217453078
 51
156.4999999761847107
  0
ARC
  5
F191
  8
0
 10
508.4986435033536054
 20
47.9463880865834469
 30
0.0
 40
0.1008906768408006
 50
156.791078077323391
 51
179.7089219207412043
  0
LINE
  5
F192
  8
0
 10
508.3977541284613721
 20
47.9469006363232211
 30
0.0
 11
508.3977541284585868
 21
47.7700178507503495
 31
0.0
  0
ARC
  5
F193
  8
0
 10
508.4961793253585824
 20
47.7700179974429915
 30
0.0
 40
0.0984251969000108
 50
180.0000853934731992
 51
203.4999999990313881
  0
ARC
  5
F194
  8
0
 10
508.5120410467197871
 20
47.7812279537804727
 30
0.0
 40
0.1175078961347011
 50
205.4289602963719972
 51
228.928960979553807
  0
ARC
  5
F195
  8
0
 10
506.7275899729884827
 20
45.8233023474229313
 30
0.0
 40
2.5316239622965568
 50
46.4051789145398175
 51
47.5948209850521025
  0
ARC
  5
F196
  8
0
 10
508.4345182165151869
 20
47.6194805856522265
 30
0.0
 40
0.0538021076508161
 50
1.3536444893259181
 51
43.905797349309573
  0
ARC
  5
F197
  8
0
 10
508.4662222983091056
 20
47.6229716616563792
 30
0.0
 40
0.0221943277770008
 50
280.1525835166556249
 51
354.2591251240376096
  0
ARC
  5
F198
  8
0
 10
507.9961793254595932
 20
53.7442860885450102
 30
0.0
 40
6.1614173227935849
 50
272.8062028770912093
 51
274.4117257152918228
  0
ARC
  5
F199
  8
0
 10
507.9961793254594227
 20
53.7442860885468434
 30
0.0
 40
6.1614173227954216
 50
269.9999999990326955
 51
272.8062028770912093
  0
LINE
  5
F19A
  8
0
 10
507.5190769029621833
 20
48.0601277865119627
 30
0.0
 11
507.5205013614412906
 21
48.0601273325719873
 31
0.0
  0
LINE
  5
F19B
  8
0
 10
507.5205013614412906
 20
48.0601273325719873
 30
0.0
 11
507.5519432078144177
 21
48.0412654852514081
 31
0.0
  0
LINE
  5
F19C
  8
0
 10
507.5519432078144177
 20
48.0412654852514081
 30
0.0
 11
507.6021052430637042
 21
48.0188842985134698
 31
0.0
  0
LINE
  5
F19D
  8
0
 10
507.6021052430637042
 20
48.0188842985134698
 30
0.0
 11
507.7289746687142724
 21
47.9689471182514069
 31
0.0
  0
LINE
  5
F19E
  8
0
 10
507.7289746687142724
 20
47.9689471182514069
 30
0.0
 11
507.768408183514282
 21
47.9469006363514083
 31
0.0
  0
LINE
  5
F19F
  8
0
 10
507.768408183514282
 20
47.9469006363514083
 30
0.0
 11
507.768408183514282
 21
47.7700179974514185
 31
0.0
  0
LINE
  5
F1A0
  8
0
 10
507.5190770406510978
 20
47.6567909878514229
 30
0.0
 11
507.5205006866144117
 21
47.6567909878514229
 31
0.0
  0
LINE
  5
F1A1
  8
0
 10
507.5205006866144117
 20
47.6567909878514229
 30
0.0
 11
507.5519432428143887
 21
47.6756531688514116
 31
0.0
  0
LINE
  5
F1A2
  8
0
 10
507.5519432428143887
 20
47.6756531688514116
 30
0.0
 11
507.6021052796307913
 21
47.698034365451413
 31
0.0
  0
ARC
  5
F1A3
  8
0
 10
485.0280723468407018
 20
102.6972545025741965
 30
0.0
 40
59.4516710651872771
 50
292.3153444924594169
 51
292.3994580897947912
  0
LINE
  5
F1A4
  8
0
 10
507.6828231402436131
 20
47.7312335538822978
 30
0.0
 11
507.7291580358480019
 21
47.7480364891753908
 31
0.0
  0
LINE
  5
F1A5
  8
0
 10
507.7291580358480019
 20
47.7480364891753908
 30
0.0
 11
507.768408183514282
 21
47.7700179974514185
 31
0.0
  0
LINE
  5
F1A6
  8
0
 10
508.4732816100092805
 20
48.0601276458928979
 30
0.0
 11
508.4718579641144061
 21
48.0601276459514111
 31
0.0
  0
LINE
  5
F1A7
  8
0
 10
508.4718579641144061
 20
48.0601276459514111
 30
0.0
 11
508.4404154822144051
 21
48.0412654122514198
 31
0.0
  0
LINE
  5
F1A8
  8
0
 10
508.4404154822144051
 20
48.0412654122514198
 30
0.0
 11
508.3902533116824998
 21
48.0188842684514228
 31
0.0
  0
LINE
  5
F1A9
  8
0
 10
508.3902533116824998
 20
48.0188842684514228
 30
0.0
 11
508.3053806469231972
 21
47.9840584915393222
 31
0.0
  0
LINE
  5
F1AA
  8
0
 10
508.3053806469231972
 20
47.9840584915393222
 30
0.0
 11
508.2606846402742917
 21
47.9679857938042815
 31
0.0
  0
LINE
  5
F1AB
  8
0
 10
508.2606846402742917
 20
47.9679857938042815
 30
0.0
 11
508.2239504671143777
 21
47.9469006363514083
 31
0.0
  0
LINE
  5
F1AC
  8
0
 10
508.2239504671143777
 20
47.9469006363514083
 30
0.0
 11
508.2239508308143741
 21
47.7700179973922587
 31
0.0
  0
LINE
  5
F1AD
  8
0
 10
508.2239508308143741
 20
47.7700179973922587
 30
0.0
 11
508.2635737884144191
 21
47.7479049079514226
 31
0.0
  0
LINE
  5
F1AE
  8
0
 10
508.2635737884144191
 20
47.7479049079514226
 30
0.0
 11
508.390253418776922
 21
47.698034365451413
 31
0.0
  0
LINE
  5
F1AF
  8
0
 10
508.390253418776922
 20
47.698034365451413
 30
0.0
 11
508.440415481324294
 21
47.6756532039392269
 31
0.0
  0
LINE
  5
F1B0
  8
0
 10
508.440415481324294
 20
47.6756532039392269
 30
0.0
 11
508.4718579780088135
 21
47.656790976034209
 31
0.0
  0
LINE
  5
F1B1
  8
0
 10
508.4718579780088135
 20
47.656790976034209
 30
0.0
 11
508.473281609596711
 21
47.6567909883341301
 31
0.0
  0
LINE
  5
F1B2
  8
0
 10
507.0398754752400805
 20
48.2718451438474716
 30
0.0
 11
507.5138958607901145
 21
48.2718451437475267
 31
0.0
  0
LINE
  5
F1B3
  8
0
 10
508.4784627898901022
 20
48.2718451437475267
 30
0.0
 11
508.9527129759401873
 21
48.2718451438475284
 31
0.0
  0
ENDSEC
  0
EOF
