  0
SECTION
  2
HEADER
  9
$ACADVER
  1
AC1009
  9
$INSBASE
 10
524.1573866820016292
 20
47.5728986175279189
 30
0.0
  9
$EXTMIN
 10
520.614079595401563
 20
43.1804276629495973
 30
0.0
  9
$EXTMAX
 10
527.7006937686015817
 20
51.1162057041279212
 30
0.0
  9
$LIMMIN
 10
0.0
 20
0.0
  9
$LIMMAX
 10
11.6929133858000007
 20
8.2677165353999982
  9
$ORTHOMODE
 70
     0
  9
$REGENMODE
 70
     1
  9
$FILLMODE
 70
     1
  9
$QTEXTMODE
 70
     0
  9
$MIRRTEXT
 70
     0
  9
$DRAGMODE
 70
     2
  9
$LTSCALE
 40
0.6431102362
  9
$OSMODE
 70
   575
  9
$ATTMODE
 70
     1
  9
$TEXTSIZE
 40
0.2
  9
$TRACEWID
 40
0.05
  9
$TEXTSTYLE
  7
STANDARD
  9
$CLAYER
  8
0
  9
$CELTYPE
  6
BYLAYER
  9
$CECOLOR
 62
   256
  9
$DIMSCALE
 40
1.0
  9
$DIMASZ
 40
0.1875
  9
$DIMEXO
 40
0.0625
  9
$DIMDLI
 40
0.4443307087
  9
$DIMRND
 40
0.0
  9
$DIMDLE
 40
0.0
  9
$DIMEXE
 40
0.125
  9
$DIMTP
 40
0.01
  9
$DIMTM
 40
0.01
  9
$DIMTXT
 40
1.0
  9
$DIMCEN
 40
0.1052362205
  9
$DIMTSZ
 40
0.0
  9
$DIMTOL
 70
     1
  9
$DIMLIM
 70
     0
  9
$DIMTIH
 70
     0
  9
$DIMTOH
 70
     1
  9
$DIMSE1
 70
     0
  9
$DIMSE2
 70
     0
  9
$DIMTAD
 70
     0
  9
$DIMZIN
 70
     0
  9
$DIMBLK
  1

  9
$DIMASO
 70
     1
  9
$DIMSHO
 70
     1
  9
$DIMPOST
  1
\X
  9
$DIMAPOST
  1

  9
$DIMALT
 70
     1
  9
$DIMALTD
 70
     2
  9
$DIMALTF
 40
25.3999999999999986
  9
$DIMLFAC
 40
1.0
  9
$DIMTOFL
 70
     0
  9
$DIMTVP
 40
0.0
  9
$DIMTIX
 70
     0
  9
$DIMSOXD
 70
     0
  9
$DIMSAH
 70
     0
  9
$DIMBLK1
  1

  9
$DIMBLK2
  1

  9
$DIMSTYLE
  2
STANDARD
  9
$DIMCLRD
 70
     0
  9
$DIMCLRE
 70
     0
  9
$DIMCLRT
 70
     0
  9
$DIMTFAC
 40
1.0
  9
$DIMGAP
 40
0.09
  9
$LUNITS
 70
     2
  9
$LUPREC
 70
     4
  9
$SKETCHINC
 40
0.1
  9
$FILLETRAD
 40
0.0
  9
$AUNITS
 70
     0
  9
$AUPREC
 70
     0
  9
$MENU
  1
.
  9
$ELEVATION
 40
0.0
  9
$PELEVATION
 40
0.0
  9
$THICKNESS
 40
0.0
  9
$LIMCHECK
 70
     0
  9
$BLIPMODE
 70
     0
  9
$CHAMFERA
 40
0.0
  9
$CHAMFERB
 40
0.0
  9
$SKPOLY
 70
     0
  9
$TDCREATE
 40
2458172.5207638889551163
  9
$TDUPDATE
 40
2459391.8312037037685513
  9
$TDINDWG
 40
0.279673125
  9
$TDUSRTIMER
 40
0.279673125
  9
$USRTIMER
 70
     1
  9
$ANGBASE
 50
0.0
  9
$ANGDIR
 70
     0
  9
$PDMODE
 70
     0
  9
$PDSIZE
 40
0.3125
  9
$PLINEWID
 40
0.0
  9
$COORDS
 70
     2
  9
$SPLFRAME
 70
     0
  9
$SPLINETYPE
 70
     6
  9
$SPLINESEGS
 70
     8
  9
$ATTDIA
 70
     1
  9
$ATTREQ
 70
     1
  9
$HANDLING
 70
     1
  9
$HANDSEED
  5
F0F9
  9
$SURFTAB1
 70
     6
  9
$SURFTAB2
 70
     6
  9
$SURFTYPE
 70
     6
  9
$SURFU
 70
     6
  9
$SURFV
 70
     6
  9
$UCSNAME
  2

  9
$UCSORG
 10
0.0
 20
0.0
 30
0.0
  9
$UCSXDIR
 10
1.0
 20
0.0
 30
0.0
  9
$UCSYDIR
 10
0.0
 20
1.0
 30
0.0
  9
$PUCSNAME
  2

  9
$PUCSORG
 10
0.0
 20
0.0
 30
0.0
  9
$PUCSXDIR
 10
1.0
 20
0.0
 30
0.0
  9
$PUCSYDIR
 10
0.0
 20
1.0
 30
0.0
  9
$USERI1
 70
     0
  9
$USERI2
 70
     0
  9
$USERI3
 70
     0
  9
$USERI4
 70
     0
  9
$USERI5
 70
     0
  9
$USERR1
 40
0.0
  9
$USERR2
 40
0.0
  9
$USERR3
 40
0.0
  9
$USERR4
 40
0.0
  9
$USERR5
 40
0.0
  9
$WORLDVIEW
 70
     1
  9
$SHADEDGE
 70
     3
  9
$SHADEDIF
 70
    70
  9
$TILEMODE
 70
     1
  9
$MAXACTVP
 70
    64
  9
$PLIMCHECK
 70
     0
  9
$PEXTMIN
 10
1.0000000000000000E+20
 20
1.0000000000000000E+20
 30
1.0000000000000000E+20
  9
$PEXTMAX
 10
-1.0000000000000000E+20
 20
-1.0000000000000000E+20
 30
-1.0000000000000000E+20
  9
$PLIMMIN
 10
0.0
 20
0.0
  9
$PLIMMAX
 10
12.0
 20
9.0
  9
$UNITMODE
 70
     0
  9
$VISRETAIN
 70
     1
  9
$PLINEGEN
 70
     0
  9
$PSLTSCALE
 70
     1
  0
ENDSEC
  0
SECTION
  2
TABLES
  0
TABLE
  2
VPORT
 70
     1
  0
VPORT
  2
*ACTIVE
 70
     0
 10
0.0
 20
0.0
 11
1.0
 21
1.0
 12
94.5424480786027175
 22
-22.1272161268000396
 13
0.0
 23
0.0
 14
1.0
 24
1.0
 15
0.0
 25
0.0
 16
0.0
 26
0.0
 36
14.6338572656650907
 17
429.6292891080536833
 27
69.7025415122186871
 37
0.0
 40
0.0226036376511161
 41
2.5405405405405399
 42
50.0
 43
0.0
 44
0.0
 50
0.0
 51
0.0
 71
     0
 72
   100
 73
     1
 74
     1
 75
     0
 76
     0
 77
     0
 78
     0
  0
ENDTAB
  0
TABLE
  2
LTYPE
 70
     2
  0
LTYPE
  2
CONTINUOUS
 70
     0
  3
Solid line
 72
    65
 73
     0
 40
0.0
  0
LTYPE
  2
PHANTOM2
 70
     0
  3
___ _ _ ___ _ _ ___ _ _ ___ _ _
 72
    65
 73
     6
 40
1.25
 49
0.625
 49
-0.125
 49
0.125
 49
-0.125
 49
0.125
 49
-0.125
  0
ENDTAB
  0
TABLE
  2
LAYER
 70
     2
  0
LAYER
  2
0
 70
     0
 62
   255
  6
CONTINUOUS
  0
LAYER
  2
DEFPOINTS
 70
     0
 62
     7
  6
CONTINUOUS
  0
ENDTAB
  0
TABLE
  2
STYLE
 70
     1
  0
STYLE
  2
STANDARD
 70
     0
 40
0.0
 41
0.8
 50
0.0
 71
     0
 42
0.2
  3
txt
  4

  0
ENDTAB
  0
TABLE
  2
VIEW
 70
     1
  0
ENDTAB
  0
TABLE
  2
UCS
 70
     0
  0
ENDTAB
  0
TABLE
  2
APPID
 70
    10
  0
APPID
  2
ACAD
 70
     0
  0
APPID
  2
ACAD_MLEADERVER
 70
     0
  0
APPID
  2
ACAD_EXEMPT_FROM_CAD_STANDARDS
 70
     0
  0
APPID
  2
ACAD_DSTYLE_DIMJAG
 70
     0
  0
APPID
  2
ACAD_DSTYLE_DIMTALN
 70
     0
  0
APPID
  2
ACAD_NAV_VCDISPLAY
 70
     0
  0
APPID
  2
ACAECLAYERSTANDARD
 70
     0
  0
APPID
  2
ACCMTRANSPARENCY
 70
     0
  0
APPID
  2
DCO15
 70
     0
  0
APPID
  2
ACDBATTR
 70
     0
  0
ENDTAB
  0
TABLE
  2
DIMSTYLE
 70
     1
  0
DIMSTYLE
  2
STANDARD
 70
     0
  3

  4

  5

  6

  7

 40
1.0
 41
0.1875
 42
0.0625
 43
0.38
 44
0.125
 45
0.0
 46
0.0
 47
0.01
 48
0.01
140
0.15625
141
0.09
142
0.0
143
25.3999999999999986
144
1.0
145
0.0
146
1.0
147
0.09
 71
     1
 72
     0
 73
     1
 74
     1
 75
     0
 76
     0
 77
     0
 78
     4
170
     0
171
     2
172
     0
173
     0
174
     0
175
     0
176
     0
177
     0
178
     0
  0
ENDTAB
  0
ENDSEC
  0
SECTION
  2
BLOCKS
  0
BLOCK
  8
0
  2
$MODEL_SPACE
 70
     0
 10
0.0
 20
0.0
 30
0.0
  3
$MODEL_SPACE
  1

  0
ENDBLK
  5
21
  8
0
  0
BLOCK
 67
     1
  8
0
  2
$PAPER_SPACE
 70
     0
 10
0.0
 20
0.0
 30
0.0
  3
$PAPER_SPACE
  1

  0
ENDBLK
  5
1D
 67
     1
  8
0
  0
BLOCK
  8
0
  2
_FILLED
 70
     0
 10
0.0
 20
0.0
 30
0.0
  3
_FILLED
  1

  0
SOLID
  5
87E2
  8
0
  6
BYBLOCK
 62
     0
 10
0.0
 20
0.0
 30
0.0
 11
-1.0
 21
0.1666666667
 31
0.0
 12
-1.0
 22
-0.1666666667
 32
0.0
 13
-1.0
 23
-0.1666666667
 33
0.0
  0
ENDBLK
  5
87E3
  8
0
  6
BYBLOCK
 62
     0
  0
ENDSEC
  0
SECTION
  2
ENTITIES
  0
ATTDEF
  5
C848
  8
DEFPOINTS
 10
524.1607465093729843
 20
47.5775242736576232
 30
0.0
 40
0.001
  1
K-97366T-B4
  3

  2
MODELNUMBER
 70
     0
1001
ACDBATTR
1070
     0
1070
     1
  0
ATTDEF
  5
C849
  8
DEFPOINTS
 10
524.1607465093729843
 20
47.575857606990958
 30
0.0
 40
0.001
  1
MODULO
  3

  2
TRADENAME
 70
     0
1001
ACDBATTR
1070
     0
1070
     1
  0
ATTDEF
  5
C84A
  8
DEFPOINTS
 10
524.1607465093729843
 20
47.5741909403242929
 30
0.0
 40
0.001
  1
VALVE TRIM
  3

  2
PRODUCT
 70
     0
1001
ACDBATTR
1070
     0
1070
     1
  0
ARC
  5
F041
  8
0
 10
524.1573866820016292
 20
47.5728986175279189
 30
0.0
 40
3.5433070866000009
 50
280.5557922774183908
 51
259.454307162523321
  0
ARC
  5
F042
  8
0
 10
524.1573866820016292
 20
47.5728986175279189
 30
0.0
 40
3.4590089581000001
 50
280.9840639067244865
 51
259.0263057337728014
  0
ARC
  5
F043
  8
0
 10
525.2013519771677466
 20
46.4062640816881284
 30
0.0
 40
1.7499104705732771
 50
175.9586453257599032
 51
183.6337724500548063
  0
ARC
  5
F044
  8
0
 10
504.6655925483087799
 20
45.3369277137298212
 30
0.0
 40
18.8137955131312502
 50
2.3046739962338001
 51
2.9200767001562449
  0
LINE
  5
F045
  8
0
 10
523.2576696691957068
 20
46.2964028516426893
 30
0.0
 11
523.5926601194015575
 21
43.3535465753972105
 31
0.0
  0
ARC
  5
F046
  8
0
 10
524.6931892618192705
 20
46.5149366837348168
 30
0.0
 40
1.4520583791898141
 50
179.4217318978679998
 51
188.6558653167944044
  0
ARC
  5
F047
  8
0
 10
524.1667918347510522
 20
46.5105753773258215
 30
0.0
 40
0.925782321695811
 50
90.5634874415565463
 51
178.8230215196959989
  0
ARC
  5
F048
  8
0
 10
524.156213898777537
 20
46.52905604294196
 30
0.0
 40
0.9635448061258614
 50
179.9681539485098938
 51
203.9662042655212986
  0
ARC
  5
F049
  8
0
 10
524.1589348401130337
 20
46.5278970537495198
 30
0.0
 40
0.9662670844906706
 50
90.073981294737024
 51
179.8995201880703974
  0
ARC
  5
F04A
  8
0
 10
524.1573866833016382
 20
46.5295915988972126
 30
0.0
 40
0.9940944882000186
 50
180.000000000000199
 51
208.7075410283088104
  0
ARC
  5
F04B
  8
0
 10
524.1573866833016382
 20
46.5295915988972126
 30
0.0
 40
0.9940944881999989
 50
89.982680538242434
 51
180.0
  0
ARC
  5
F04C
  8
0
 10
524.151522177813149
 20
46.4810290518593234
 30
0.0
 40
0.6974222128245444
 50
89.4935159957221771
 51
176.0071785620488072
  0
LINE
  5
F04D
  8
0
 10
523.4641699204016732
 20
46.0934925789971999
 30
0.0
 11
523.6043331698390375
 21
43.3094053276861501
 31
0.0
  0
ARC
  5
F04E
  8
0
 10
523.7930632621041696
 20
43.3829285521547803
 30
0.0
 40
0.202545600207065
 50
188.3409572306507869
 51
268.7960972301971765
  0
ARC
  5
F04F
  8
0
 10
523.1140223824354507
 20
46.4062640816881284
 30
0.0
 40
1.7499104705732771
 50
356.3662275499449947
 51
4.0413546742400488
  0
ARC
  5
F050
  8
0
 10
543.6497818112943605
 20
45.3369277137298212
 30
0.0
 40
18.8137955131312502
 50
177.0799232998436992
 51
177.6953260037662119
  0
LINE
  5
F051
  8
0
 10
525.0577046904074905
 20
46.2964028516426893
 30
0.0
 11
524.7227142402016398
 21
43.3535465753972105
 31
0.0
  0
ARC
  5
F052
  8
0
 10
523.6221850977836993
 20
46.5149366837348168
 30
0.0
 40
1.4520583791898141
 50
351.3441346832054819
 51
0.5782681021320091
  0
ARC
  5
F053
  8
0
 10
524.1485825053651979
 20
46.51057535762925
 30
0.0
 40
0.9257823415830744
 50
1.176979674276289
 51
89.4365113644724659
  0
ARC
  5
F054
  8
0
 10
524.159160460825774
 20
46.52905604294196
 30
0.0
 40
0.9635448061258614
 50
336.0337957344784741
 51
0.0318460514900253
  0
ARC
  5
F055
  8
0
 10
524.1564395194901635
 20
46.5278970537495198
 30
0.0
 40
0.966267084490671
 50
0.100479811929384
 51
89.926018705262976
  0
ARC
  5
F056
  8
0
 10
524.1579876763015591
 20
46.5295915988972126
 30
0.0
 40
0.9940944882000186
 50
331.2924589716911896
 51
359.9999999999997726
  0
ARC
  5
F057
  8
0
 10
524.1579876763015591
 20
46.5295915988972126
 30
0.0
 40
0.9940944882000009
 50
0.0
 51
90.0173194617575518
  0
ARC
  5
F058
  8
0
 10
524.1638521817900482
 20
46.4810290518593234
 30
0.0
 40
0.697422212824545
 50
3.9928214379511542
 51
90.5064840042778229
  0
LINE
  5
F059
  8
0
 10
524.8512044392016378
 20
46.0934925789971999
 30
0.0
 11
524.7110752053392844
 21
43.3096723895219711
 31
0.0
  0
ARC
  5
F05A
  8
0
 10
524.5219649254345313
 20
43.3833207727550487
 30
0.0
 40
0.2029452887055064
 50
271.2992864484260735
 51
351.5636590907238883
  0
LINE
  5
F05B
  8
0
 10
523.7888076735016512
 20
43.1804276629495973
 30
0.0
 11
524.5265666861015461
 21
43.1804276629495973
 31
0.0
  0
CIRCLE
  5
F05C
  8
0
 10
524.1573866820016292
 20
49.0886466490279219
 30
0.0
 40
0.5314960629999997
  0
CIRCLE
  5
F05D
  8
0
 10
524.1573866820016292
 20
49.0886466490279219
 30
0.0
 40
0.4921259843000004
  0
ENDSEC
  0
EOF
