  0
SECTION
  2
HEADER
  9
$ACADVER
  1
AC1009
  9
$INSBASE
 10
511.3112501255208144
 20
47.6785020517812512
 30
0.0
  9
$EXTMIN
 10
507.7879176390259204
 20
43.2824914182021487
 30
-0.0015258207003583
  9
$EXTMAX
 10
511.3710897694584219
 20
51.2233724232052197
 30
0.0000000349246037
  9
$LIMMIN
 10
0.0
 20
0.0
  9
$LIMMAX
 10
11.6929133858000007
 20
8.2677165353999982
  9
$ORTHOMODE
 70
     0
  9
$REGENMODE
 70
     1
  9
$FILLMODE
 70
     1
  9
$QTEXTMODE
 70
     0
  9
$MIRRTEXT
 70
     0
  9
$DRAGMODE
 70
     2
  9
$LTSCALE
 40
0.6431102362
  9
$OSMODE
 70
   575
  9
$ATTMODE
 70
     1
  9
$TEXTSIZE
 40
0.2
  9
$TRACEWID
 40
0.05
  9
$TEXTSTYLE
  7
STANDARD
  9
$CLAYER
  8
0
  9
$CELTYPE
  6
BYLAYER
  9
$CECOLOR
 62
   256
  9
$DIMSCALE
 40
1.0
  9
$DIMASZ
 40
0.1875
  9
$DIMEXO
 40
0.0625
  9
$DIMDLI
 40
0.4443307087
  9
$DIMRND
 40
0.0
  9
$DIMDLE
 40
0.0
  9
$DIMEXE
 40
0.125
  9
$DIMTP
 40
0.01
  9
$DIMTM
 40
0.01
  9
$DIMTXT
 40
1.0
  9
$DIMCEN
 40
0.1052362205
  9
$DIMTSZ
 40
0.0
  9
$DIMTOL
 70
     1
  9
$DIMLIM
 70
     0
  9
$DIMTIH
 70
     0
  9
$DIMTOH
 70
     1
  9
$DIMSE1
 70
     0
  9
$DIMSE2
 70
     0
  9
$DIMTAD
 70
     0
  9
$DIMZIN
 70
     0
  9
$DIMBLK
  1

  9
$DIMASO
 70
     1
  9
$DIMSHO
 70
     1
  9
$DIMPOST
  1
\X
  9
$DIMAPOST
  1

  9
$DIMALT
 70
     1
  9
$DIMALTD
 70
     2
  9
$DIMALTF
 40
25.3999999999999986
  9
$DIMLFAC
 40
1.0
  9
$DIMTOFL
 70
     0
  9
$DIMTVP
 40
0.0
  9
$DIMTIX
 70
     0
  9
$DIMSOXD
 70
     0
  9
$DIMSAH
 70
     0
  9
$DIMBLK1
  1

  9
$DIMBLK2
  1

  9
$DIMSTYLE
  2
STANDARD
  9
$DIMCLRD
 70
     0
  9
$DIMCLRE
 70
     0
  9
$DIMCLRT
 70
     0
  9
$DIMTFAC
 40
1.0
  9
$DIMGAP
 40
0.09
  9
$LUNITS
 70
     2
  9
$LUPREC
 70
     4
  9
$SKETCHINC
 40
0.1
  9
$FILLETRAD
 40
0.0
  9
$AUNITS
 70
     0
  9
$AUPREC
 70
     0
  9
$MENU
  1
.
  9
$ELEVATION
 40
0.0
  9
$PELEVATION
 40
0.0
  9
$THICKNESS
 40
0.0
  9
$LIMCHECK
 70
     0
  9
$BLIPMODE
 70
     0
  9
$CHAMFERA
 40
0.0
  9
$CHAMFERB
 40
0.0
  9
$SKPOLY
 70
     0
  9
$TDCREATE
 40
2458172.5207638889551163
  9
$TDUPDATE
 40
2459391.8318981481716037
  9
$TDINDWG
 40
0.2806453472
  9
$TDUSRTIMER
 40
0.2806453472
  9
$USRTIMER
 70
     1
  9
$ANGBASE
 50
0.0
  9
$ANGDIR
 70
     0
  9
$PDMODE
 70
     0
  9
$PDSIZE
 40
0.3125
  9
$PLINEWID
 40
0.0
  9
$COORDS
 70
     2
  9
$SPLFRAME
 70
     0
  9
$SPLINETYPE
 70
     6
  9
$SPLINESEGS
 70
     8
  9
$ATTDIA
 70
     1
  9
$ATTREQ
 70
     1
  9
$HANDLING
 70
     1
  9
$HANDSEED
  5
F1FD
  9
$SURFTAB1
 70
     6
  9
$SURFTAB2
 70
     6
  9
$SURFTYPE
 70
     6
  9
$SURFU
 70
     6
  9
$SURFV
 70
     6
  9
$UCSNAME
  2

  9
$UCSORG
 10
0.0
 20
0.0
 30
0.0
  9
$UCSXDIR
 10
1.0
 20
0.0
 30
0.0
  9
$UCSYDIR
 10
0.0
 20
1.0
 30
0.0
  9
$PUCSNAME
  2

  9
$PUCSORG
 10
0.0
 20
0.0
 30
0.0
  9
$PUCSXDIR
 10
1.0
 20
0.0
 30
0.0
  9
$PUCSYDIR
 10
0.0
 20
1.0
 30
0.0
  9
$USERI1
 70
     0
  9
$USERI2
 70
     0
  9
$USERI3
 70
     0
  9
$USERI4
 70
     0
  9
$USERI5
 70
     0
  9
$USERR1
 40
0.0
  9
$USERR2
 40
0.0
  9
$USERR3
 40
0.0
  9
$USERR4
 40
0.0
  9
$USERR5
 40
0.0
  9
$WORLDVIEW
 70
     1
  9
$SHADEDGE
 70
     3
  9
$SHADEDIF
 70
    70
  9
$TILEMODE
 70
     1
  9
$MAXACTVP
 70
    64
  9
$PLIMCHECK
 70
     0
  9
$PEXTMIN
 10
1.0000000000000000E+20
 20
1.0000000000000000E+20
 30
1.0000000000000000E+20
  9
$PEXTMAX
 10
-1.0000000000000000E+20
 20
-1.0000000000000000E+20
 30
-1.0000000000000000E+20
  9
$PLIMMIN
 10
0.0
 20
0.0
  9
$PLIMMAX
 10
12.0
 20
9.0
  9
$UNITMODE
 70
     0
  9
$VISRETAIN
 70
     1
  9
$PLINEGEN
 70
     0
  9
$PSLTSCALE
 70
     1
  0
ENDSEC
  0
SECTION
  2
TABLES
  0
TABLE
  2
VPORT
 70
     1
  0
VPORT
  2
*ACTIVE
 70
     0
 10
0.0
 20
0.0
 11
1.0
 21
1.0
 12
79.9502146303531447
 22
-22.4496096683191411
 13
0.0
 23
0.0
 14
1.0
 24
1.0
 15
0.0
 25
0.0
 16
0.0
 26
0.0
 36
14.6338572656650907
 17
429.6292891080536833
 27
69.7025415122186871
 37
0.0
 40
12.4255882512491098
 41
2.5405405405405399
 42
50.0
 43
0.0
 44
0.0
 50
0.0
 51
0.0
 71
     0
 72
   100
 73
     1
 74
     1
 75
     0
 76
     0
 77
     0
 78
     0
  0
ENDTAB
  0
TABLE
  2
LTYPE
 70
     2
  0
LTYPE
  2
CONTINUOUS
 70
     0
  3
Solid line
 72
    65
 73
     0
 40
0.0
  0
LTYPE
  2
PHANTOM2
 70
     0
  3
___ _ _ ___ _ _ ___ _ _ ___ _ _
 72
    65
 73
     6
 40
1.25
 49
0.625
 49
-0.125
 49
0.125
 49
-0.125
 49
0.125
 49
-0.125
  0
ENDTAB
  0
TABLE
  2
LAYER
 70
     2
  0
LAYER
  2
0
 70
     0
 62
   255
  6
CONTINUOUS
  0
LAYER
  2
DEFPOINTS
 70
     0
 62
     7
  6
CONTINUOUS
  0
ENDTAB
  0
TABLE
  2
STYLE
 70
     1
  0
STYLE
  2
STANDARD
 70
     0
 40
0.0
 41
0.8
 50
0.0
 71
     0
 42
0.2
  3
txt
  4

  0
ENDTAB
  0
TABLE
  2
VIEW
 70
     1
  0
ENDTAB
  0
TABLE
  2
UCS
 70
     0
  0
ENDTAB
  0
TABLE
  2
APPID
 70
    10
  0
APPID
  2
ACAD
 70
     0
  0
APPID
  2
ACAD_MLEADERVER
 70
     0
  0
APPID
  2
ACAD_EXEMPT_FROM_CAD_STANDARDS
 70
     0
  0
APPID
  2
ACAD_DSTYLE_DIMJAG
 70
     0
  0
APPID
  2
ACAD_DSTYLE_DIMTALN
 70
     0
  0
APPID
  2
ACAD_NAV_VCDISPLAY
 70
     0
  0
APPID
  2
ACAECLAYERSTANDARD
 70
     0
  0
APPID
  2
ACCMTRANSPARENCY
 70
     0
  0
APPID
  2
DCO15
 70
     0
  0
APPID
  2
ACDBATTR
 70
     0
  0
ENDTAB
  0
TABLE
  2
DIMSTYLE
 70
     1
  0
DIMSTYLE
  2
STANDARD
 70
     0
  3

  4

  5

  6

  7

 40
1.0
 41
0.1875
 42
0.0625
 43
0.38
 44
0.125
 45
0.0
 46
0.0
 47
0.01
 48
0.01
140
0.15625
141
0.09
142
0.0
143
25.3999999999999986
144
1.0
145
0.0
146
1.0
147
0.09
 71
     1
 72
     0
 73
     1
 74
     1
 75
     0
 76
     0
 77
     0
 78
     4
170
     0
171
     2
172
     0
173
     0
174
     0
175
     0
176
     0
177
     0
178
     0
  0
ENDTAB
  0
ENDSEC
  0
SECTION
  2
BLOCKS
  0
BLOCK
  8
0
  2
$MODEL_SPACE
 70
     0
 10
0.0
 20
0.0
 30
0.0
  3
$MODEL_SPACE
  1

  0
ENDBLK
  5
21
  8
0
  0
BLOCK
 67
     1
  8
0
  2
$PAPER_SPACE
 70
     0
 10
0.0
 20
0.0
 30
0.0
  3
$PAPER_SPACE
  1

  0
ENDBLK
  5
1D
 67
     1
  8
0
  0
BLOCK
  8
0
  2
_FILLED
 70
     0
 10
0.0
 20
0.0
 30
0.0
  3
_FILLED
  1

  0
SOLID
  5
87E2
  8
0
  6
BYBLOCK
 62
     0
 10
0.0
 20
0.0
 30
0.0
 11
-1.0
 21
0.1666666667
 31
0.0
 12
-1.0
 22
-0.1666666667
 32
0.0
 13
-1.0
 23
-0.1666666667
 33
0.0
  0
ENDBLK
  5
87E3
  8
0
  6
BYBLOCK
 62
     0
  0
ENDSEC
  0
SECTION
  2
ENTITIES
  0
ATTDEF
  5
C848
  8
DEFPOINTS
 10
511.3252410722079162
 20
47.6929189163009468
 30
0.0
 40
0.001
  1
K-97366T-B4
  3

  2
MODELNUMBER
 70
     0
1001
ACDBATTR
1070
     0
1070
     1
  0
ATTDEF
  5
C849
  8
DEFPOINTS
 10
511.3252410722079162
 20
47.6912522496342817
 30
0.0
 40
0.001
  1
MODULO
  3

  2
TRADENAME
 70
     0
1001
ACDBATTR
1070
     0
1070
     1
  0
ATTDEF
  5
C84A
  8
DEFPOINTS
 10
511.3252410722079162
 20
47.6895855829676165
 30
0.0
 40
0.001
  1
VALVE TRIM
  3

  2
PRODUCT
 70
     0
1001
ACDBATTR
1070
     0
1070
     1
  0
LINE
  5
F106
  8
0
 10
510.7600690232206944
 20
47.5997667669931914
 30
0.0
 11
509.5750296531194863
 21
47.5997667669931914
 31
0.0
  0
LINE
  5
F107
  8
0
 10
509.5553446137195124
 20
47.5997667669931914
 30
0.0
 11
509.193537492320786
 21
47.5997667669931914
 31
0.0
  0
ARC
  5
F108
  8
0
 10
509.5750464639830852
 20
47.5879389424263479
 30
0.0
 40
0.0118278365134738
 50
90.0814343225404031
 51
179.966266751828897
  0
ARC
  5
F109
  8
0
 10
509.5553275462343095
 20
47.5918757020683074
 30
0.0
 40
0.0078910833823863
 50
359.9910108821426888
 51
89.8760758709859715
  0
ARC
  5
F10A
  8
0
 10
510.7994391019207114
 20
51.1375110098812513
 30
0.0
 40
0.0393700786999996
 50
94.999999925302177
 51
180.0000000000003979
  0
LINE
  5
F10B
  8
0
 10
510.7960077735207278
 20
51.1767312735501179
 30
0.0
 11
511.3112501255208144
 21
51.2218091383812535
 31
0.0
  0
LINE
  5
F10C
  8
0
 10
510.7600690232206944
 20
45.6706280359812524
 30
0.0
 11
509.5750296531207937
 21
45.6706280428812477
 31
0.0
  0
LINE
  5
F10D
  8
0
 10
509.5553446137207061
 20
45.6706281940812531
 30
0.0
 11
509.4844795702206852
 21
45.6706284202812398
 31
0.0
  0
ARC
  5
F10E
  8
0
 10
509.5750296531207937
 20
45.6824390664812512
 30
0.0
 40
0.0118110235999991
 50
179.9999999999959073
 51
270.0
  0
ARC
  5
F10F
  8
0
 10
509.5553446105632815
 20
45.6785022174038602
 30
0.0
 40
0.0078740233226024
 50
270.0000229748825973
 51
0.0603312360747349
  0
ARC
  5
F110
  8
0
 10
510.799443132118995
 20
44.2189002731150822
 30
0.0
 40
0.0393785714286765
 50
179.1374141231565886
 51
264.9951948130944857
  0
LINE
  5
F111
  8
0
 10
510.7960077735207278
 20
44.1796718370123926
 30
0.0
 11
511.3112501255208144
 21
44.135194965181249
 31
0.0
  0
LINE
  5
F112
  8
0
 10
509.5632186295196107
 20
47.5918744640385896
 30
0.0
 11
509.5632186295206907
 21
45.6785105085812475
 31
0.0
  0
LINE
  5
F113
  8
0
 10
511.3112501255208144
 20
51.2218091383812535
 30
0.0
 11
511.3112501255208144
 21
44.135194965181249
 31
0.0
  0
LINE
  5
F114
  8
0
 10
510.7600690232206944
 20
51.1375110098812513
 30
0.0
 11
510.7600690232206944
 21
44.2194930936812511
 31
0.0
  0
LINE
  5
F115
  8
0
 10
509.2876291572206924
 20
45.6706281978812498
 30
0.0
 11
509.10225993142069
 21
45.6706281944812531
 31
0.0
  0
ARC
  5
F116
  8
0
 10
508.9962163154784207
 20
62.7762541657021131
 30
0.0
 40
17.1059546683541583
 50
268.5280583128620151
 51
270.3551915501034273
  0
ARC
  5
F117
  8
0
 10
509.3860553413358048
 20
44.805322815921393
 30
0.0
 40
0.8708852494836348
 50
83.5107785238907638
 51
96.4893509407241936
  0
ARC
  5
F118
  8
0
 10
508.8776889353503066
 20
47.530431970847502
 30
0.0
 40
0.0419478677935593
 50
105.1009156720706983
 51
169.5823773387317033
  0
ARC
  5
F119
  8
0
 10
509.2417125393525907
 20
45.1878131939774619
 30
0.0
 40
2.412434636117613
 50
91.144242549900568
 51
98.9414266084308167
  0
ARC
  5
F11A
  8
0
 10
508.558086054581679
 20
45.7178735500865088
 30
0.0
 40
0.0419489524497319
 50
169.6016913442819884
 51
268.2551479122760156
  0
LINE
  5
F11B
  8
0
 10
508.5168260382004064
 20
45.7254449211540432
 30
0.0
 11
508.836432540345811
 21
47.5380170538174909
 31
0.0
  0
LINE
  5
F11C
  8
0
 10
508.7271240044372007
 20
47.5282451174222302
 30
0.0
 11
507.9808585630372022
 21
43.2958068200222215
 31
0.0
  0
LINE
  5
F11D
  8
0
 10
507.8254979376039273
 20
43.3396331578946103
 30
0.0
 11
508.2091424666207899
 21
47.2644989494812506
 31
0.0
  0
ARC
  5
F11E
  8
0
 10
508.2417492790407891
 20
47.2608329541003371
 30
0.0
 40
0.0328122498212349
 50
135.0179754084950901
 51
173.5851539923297082
  0
ARC
  5
F11F
  8
0
 10
508.8718121644636767
 20
46.628806984302507
 30
0.0
 40
0.9263975655602683
 50
99.7161072678420055
 51
131.229127926067207
  0
ARC
  5
F120
  8
0
 10
508.7148850157283846
 20
47.5296147495606789
 30
0.0
 40
0.0123153861819073
 50
353.6147504554426746
 51
87.289941371498216
  0
LINE
  5
F121
  8
0
 10
508.2185402367372262
 20
47.2840274382222177
 30
0.0
 11
508.261249573437226
 21
47.325532017522228
 31
0.0
  0
ARC
  5
F122
  8
0
 10
508.8033326130170053
 20
46.9723122529556392
 30
0.0
 40
0.5009671678573908
 50
87.5286463727359347
 51
100.0298085025597032
  0
ARC
  5
F123
  8
0
 10
508.5092122408519799
 20
46.4809380511499768
 30
0.0
 40
0.6811049916790357
 50
262.7561678767606281
 51
271.7488627867875834
  0
ARC
  5
F124
  8
0
 10
507.8568441647371969
 20
43.3365646030222322
 30
0.0
 40
0.03149606300001
 50
174.4089971997277075
 51
260.5203674298845158
  0
ARC
  5
F125
  8
0
 10
507.9692242188370983
 20
43.297842127746371
 30
0.0
 40
0.0118110305434407
 50
260.5195672467983172
 51
350.077111386731417
  0
LINE
  5
F126
  8
0
 10
507.8516568579041746
 20
43.30549864364027
 30
0.0
 11
507.967278814937174
 21
43.2861924133222189
 31
0.0
  0
LINE
  5
F127
  8
0
 10
509.5002265035208211
 20
49.6568485084812394
 30
0.0
 11
509.5199115429206813
 21
49.6765335478812489
 31
0.0
  0
LINE
  5
F128
  8
0
 10
509.5199115429206813
 20
49.6765335478812489
 30
0.0
 11
510.7600690232206944
 21
49.6765335478812489
 31
0.0
  0
LINE
  5
F129
  8
0
 10
510.7600690232206944
 20
48.7119666186812523
 30
0.0
 11
509.5199115429206813
 21
48.7119666186812523
 31
0.0
  0
LINE
  5
F12A
  8
0
 10
509.5199115429206813
 20
48.7119666186812523
 30
0.0
 11
509.5002265035208211
 21
48.7316516580812404
 31
0.0
  0
LINE
  5
F12B
  8
0
 10
509.5002265035208211
 20
48.7316516580812404
 30
0.0
 11
509.5002265035208211
 21
49.6568485084812394
 31
0.0
  0
LINE
  5
F12C
  8
0
 10
509.4091753982207251
 20
49.5879508706812402
 30
0.0
 11
509.5002265035208211
 21
49.5879508706812402
 31
0.0
  0
LINE
  5
F12D
  8
0
 10
509.5002265035208211
 20
48.8005492958812397
 30
0.0
 11
509.4091753982207251
 21
48.8005492958812397
 31
0.0
  0
LINE
  5
F12E
  8
0
 10
509.4064017408265954
 20
49.6673780261488389
 30
0.0
 11
509.4091753982207251
 21
49.5879508706812402
 31
0.0
  0
LINE
  5
F12F
  8
0
 10
509.4091753982207251
 20
49.5879508706812402
 30
0.0
 11
509.4091753982207251
 21
48.8005492958812397
 31
0.0
  0
LINE
  5
F130
  8
0
 10
509.4091753982207251
 20
48.8005492958812397
 30
0.0
 11
509.4064017408206837
 21
48.7211221402455692
 31
0.0
  0
ARC
  5
F131
  8
0
 10
509.3867286930207001
 20
48.7218091383812535
 30
0.0
 40
0.0196850394000059
 50
270.0
 51
357.9999995105836206
  0
ARC
  5
F132
  8
0
 10
509.3867286941905945
 20
49.6666910293926094
 30
0.0
 40
0.0196850381886343
 50
1.999996595045723
 51
90.0000034048549367
  0
LINE
  5
F133
  8
0
 10
509.3867286931962894
 20
48.702124098981237
 30
0.0
 11
508.9121250562249088
 21
48.702124098981237
 31
0.0
  0
ARC
  5
F134
  8
0
 10
515.0356595744208335
 20
49.1942500832812684
 30
0.0
 40
6.1614173228000961
 50
181.1779275921740862
 51
184.4117257791710927
  0
ARC
  5
F135
  8
0
 10
515.0356595744266315
 20
49.1942500832811902
 30
0.0
 40
6.1614173228058986
 50
177.6684334724679104
 51
181.1779275921724093
  0
ARC
  5
F136
  8
0
 10
515.0356595744327706
 20
49.1942500832804726
 30
0.0
 40
6.1614173228121141
 50
175.588274220830499
 51
177.6684334724639029
  0
ARC
  5
F137
  8
0
 10
508.9121250562207024
 20
49.6666910281812477
 30
0.0
 40
0.0196850393999994
 50
90.0
 51
175.5882763280037864
  0
LINE
  5
F138
  8
0
 10
508.9121250562207024
 20
49.6863760675812287
 30
0.0
 11
509.3867286930207001
 21
49.6863760675812287
 31
0.0
  0
ARC
  5
F139
  8
0
 10
508.9121250562207024
 20
48.7218091383812322
 30
0.0
 40
0.0196850393999956
 50
184.4117268879084008
 51
270.0000000120994059
  0
LINE
  5
F13A
  8
0
 10
509.0613914832206888
 20
49.6228206396812368
 30
0.0
 11
509.2382741222206732
 21
49.6228208839812481
 31
0.0
  0
LINE
  5
F13B
  8
0
 10
509.238274121243478
 20
48.7656795268423195
 30
0.0
 11
509.0613914838207847
 21
48.7656795268812431
 31
0.0
  0
ARC
  5
F13C
  8
0
 10
509.0624221719618845
 20
49.6195394631125382
 30
0.0
 40
0.0034392495866516
 50
107.4386256138951978
 51
161.7812342366075029
  0
LINE
  5
F13D
  8
0
 10
509.0591553329775252
 20
49.6206147308789198
 30
0.0
 11
509.055156421616914
 21
49.6123093227998311
 31
0.0
  0
ARC
  5
F13E
  8
0
 10
509.052066562967525
 20
49.6140903507112867
 30
0.0
 40
0.0035664109360168
 50
260.054328874048224
 51
330.0403884481115142
  0
ARC
  5
F13F
  8
0
 10
509.0509542303425974
 20
49.6053411691528297
 30
0.0
 40
0.0052598395970453
 50
84.5850337744250567
 51
137.8787890372593949
  0
ARC
  5
F140
  8
0
 10
509.0914120748449818
 20
49.5741060328873715
 30
0.0
 40
0.0563577871191698
 50
141.9153194159067084
 51
157.6756550219429016
  0
ARC
  5
F141
  8
0
 10
495.5950270518384855
 20
55.256462906969773
 30
0.0
 40
14.5874690894920302
 50
336.8166530045036211
 51
337.1655784532788971
  0
ARC
  5
F142
  8
0
 10
509.2296645854128201
 20
49.4133010233600913
 30
0.0
 40
0.2465019677688234
 50
155.9536073730797909
 51
163.821216628683402
  0
ARC
  5
F143
  8
0
 10
509.1285234543919955
 20
49.4430918431422697
 30
0.0
 40
0.1410662101968987
 50
163.9956649367543093
 51
170.4606113211349907
  0
ARC
  5
F144
  8
0
 10
509.0624221719618845
 20
48.7689607034499417
 30
0.0
 40
0.0034392495866516
 50
198.2187657633924118
 51
252.5613743861046885
  0
LINE
  5
F145
  8
0
 10
509.0591553329775252
 20
48.76788543568356
 30
0.0
 11
509.055156421616914
 21
48.7761908437626701
 31
0.0
  0
ARC
  5
F146
  8
0
 10
509.052066562967525
 20
48.774409815851179
 30
0.0
 40
0.0035664109360168
 50
29.9596115518881909
 51
99.9456711259518613
  0
ARC
  5
F147
  8
0
 10
509.0509542303425974
 20
48.7831589974096502
 30
0.0
 40
0.0052598395970453
 50
222.1212109627404061
 51
275.4149662255749718
  0
ARC
  5
F148
  8
0
 10
509.0913939242690844
 20
48.8143818241967722
 30
0.0
 40
0.0563359080220539
 50
202.3197913559409074
 51
218.0862132070047892
  0
ARC
  5
F149
  8
0
 10
495.5950270518384855
 20
43.1320372595927068
 30
0.0
 40
14.5874690894920302
 50
22.8344215467203213
 51
23.1833469954964286
  0
ARC
  5
F14A
  8
0
 10
509.2296645854128201
 20
48.9751991432023885
 30
0.0
 40
0.2465019677688234
 50
196.1787833713165128
 51
204.0463926269202091
  0
ARC
  5
F14B
  8
0
 10
509.1285335773569045
 20
48.9454109203145933
 30
0.0
 40
0.1410766567944222
 50
189.5397022958856894
 51
196.0042153506547038
  0
ARC
  5
F14C
  8
0
 10
509.2372434334781133
 20
49.6195394630740623
 30
0.0
 40
0.0034392495866516
 50
18.2187657381721415
 51
72.5613743608837183
  0
LINE
  5
F14D
  8
0
 10
509.2405102724629842
 20
49.6206147308390086
 30
0.0
 11
509.2445091838199005
 21
49.6123093227581506
 31
0.0
  0
ARC
  5
F14E
  8
0
 10
509.2475990424700854
 20
49.6140903506682633
 30
0.0
 40
0.0035664109360168
 50
209.9596115266681124
 51
279.9456711007326248
  0
ARC
  5
F14F
  8
0
 10
509.2487113750912044
 20
49.6053411691093089
 30
0.0
 40
0.0052598395970453
 50
42.1212109375194785
 51
95.4149662003550532
  0
ARC
  5
F150
  8
0
 10
509.2082535305751207
 20
49.5741060328616712
 30
0.0
 40
0.0563577871191698
 50
22.3243449528373787
 51
38.084680558871888
  0
ARC
  5
F151
  8
0
 10
522.7046385560827275
 20
55.2564629010033173
 30
0.0
 40
14.5874690894920302
 50
202.8344215215003032
 51
203.1833469702764035
  0
ARC
  5
F152
  8
0
 10
509.0700010199363987
 20
49.4133010233952419
 30
0.0
 40
0.2465019677688234
 50
16.1787833460959511
 51
24.0463926016994591
  0
ARC
  5
F153
  8
0
 10
509.171142150970411
 20
49.4430918431328905
 30
0.0
 40
0.1410662101968987
 50
9.5393886536459771
 51
16.0043350380247382
  0
ARC
  5
F154
  8
0
 10
509.2372434331036857
 20
48.7689607034114587
 30
0.0
 40
0.0034392495866516
 50
287.4386255886741992
 51
341.7812342113871864
  0
LINE
  5
F155
  8
0
 10
509.2405102720875902
 20
48.7678854356436489
 30
0.0
 11
509.2445091834518962
 21
48.7761908437209826
 31
0.0
  0
ARC
  5
F156
  8
0
 10
509.2475990421004894
 20
48.7744098158081485
 30
0.0
 40
0.0035664109360168
 50
80.0543288488288454
 51
150.0403884228919082
  0
ARC
  5
F157
  8
0
 10
509.2487113747292824
 20
48.7831589973661224
 30
0.0
 40
0.0052598395970453
 50
264.5850337492050812
 51
317.8787890120407837
  0
ARC
  5
F158
  8
0
 10
509.2082716808164946
 20
48.8143818241710505
 30
0.0
 40
0.0563359080220539
 50
321.9137867677765144
 51
337.6802086188387193
  0
ARC
  5
F159
  8
0
 10
522.7046385507459263
 20
43.1320372536262511
 30
0.0
 40
14.5874690894920302
 50
156.8166529792837025
 51
157.1655784280596038
  0
ARC
  5
F15A
  8
0
 10
509.0700010197435859
 20
48.975199143237532
 30
0.0
 40
0.2465019677688234
 50
335.9536073478598155
 51
343.8212166034638244
  0
ARC
  5
F15B
  8
0
 10
509.1711320277864274
 20
48.9454109203052212
 30
0.0
 40
0.1410766567944222
 50
343.9957846241251218
 51
350.4602976788937099
  0
ARC
  5
F15C
  8
0
 10
510.3624078264227819
 20
49.0890974230771704
 30
0.0
 40
1.4239167448556369
 50
164.6315964464291142
 51
173.3175145394567949
  0
ARC
  5
F15D
  8
0
 10
509.7057334487884077
 20
49.1942456634304577
 30
0.0
 40
0.7599844980952034
 50
175.4303340616561115
 51
193.5898144417703861
  0
ARC
  5
F15E
  8
0
 10
769.7488477848619368
 20
111.2955929171083937
 30
0.0
 40
268.1155475491447078
 50
193.431790537922808
 51
193.4523653955110092
  0
ARC
  5
F15F
  8
0
 10
507.9372577794483732
 20
49.0890974230771704
 30
0.0
 40
1.4239167448556369
 50
6.6824854605431181
 51
15.3684035535708094
  0
ARC
  5
F160
  8
0
 10
508.5939321570828042
 20
49.1942456634304577
 30
0.0
 40
0.7599844980952034
 50
346.4101855582296139
 51
4.5696659383439302
  0
ARC
  5
F161
  8
0
 10
248.5508178210093035
 20
111.2955929171083937
 30
0.0
 40
268.1155475491447078
 50
346.5476346044882234
 51
346.5682094620772205
  0
ENDSEC
  0
EOF
