  0
SECTION
  2
HEADER
  9
$ACADVER
  1
AC1009
  9
$INSBASE
 10
3865.3847514295930523
 20
182.2000793689414877
 30
0.0
  9
$EXTMIN
 10
3860.4557618879798611
 20
180.8063242093805059
 30
0.0
  9
$EXTMAX
 10
3865.3979429309329134
 20
183.3918836086915007
 30
0.0
  9
$LIMMIN
 10
0.0
 20
0.0
  9
$LIMMAX
 10
11.6929133858000007
 20
8.2677165353999982
  9
$ORTHOMODE
 70
     0
  9
$REGENMODE
 70
     1
  9
$FILLMODE
 70
     1
  9
$QTEXTMODE
 70
     0
  9
$MIRRTEXT
 70
     0
  9
$DRAGMODE
 70
     2
  9
$LTSCALE
 40
0.6431102362
  9
$OSMODE
 70
  4095
  9
$ATTMODE
 70
     1
  9
$TEXTSIZE
 40
0.2
  9
$TRACEWID
 40
0.05
  9
$TEXTSTYLE
  7
STANDARD
  9
$CLAYER
  8
0
  9
$CELTYPE
  6
BYLAYER
  9
$CECOLOR
 62
   256
  9
$DIMSCALE
 40
1.0
  9
$DIMASZ
 40
0.1875
  9
$DIMEXO
 40
0.0625
  9
$DIMDLI
 40
0.4443307087
  9
$DIMRND
 40
0.0
  9
$DIMDLE
 40
0.0
  9
$DIMEXE
 40
0.125
  9
$DIMTP
 40
0.01
  9
$DIMTM
 40
0.01
  9
$DIMTXT
 40
2.0
  9
$DIMCEN
 40
0.1052362205
  9
$DIMTSZ
 40
0.0
  9
$DIMTOL
 70
     1
  9
$DIMLIM
 70
     0
  9
$DIMTIH
 70
     1
  9
$DIMTOH
 70
     1
  9
$DIMSE1
 70
     0
  9
$DIMSE2
 70
     0
  9
$DIMTAD
 70
     0
  9
$DIMZIN
 70
     0
  9
$DIMBLK
  1

  9
$DIMASO
 70
     1
  9
$DIMSHO
 70
     1
  9
$DIMPOST
  1
\X
  9
$DIMAPOST
  1

  9
$DIMALT
 70
     1
  9
$DIMALTD
 70
     2
  9
$DIMALTF
 40
25.3999999999999986
  9
$DIMLFAC
 40
1.0
  9
$DIMTOFL
 70
     0
  9
$DIMTVP
 40
0.0
  9
$DIMTIX
 70
     0
  9
$DIMSOXD
 70
     0
  9
$DIMSAH
 70
     0
  9
$DIMBLK1
  1

  9
$DIMBLK2
  1

  9
$DIMSTYLE
  2
STANDARD
  9
$DIMCLRD
 70
     0
  9
$DIMCLRE
 70
     0
  9
$DIMCLRT
 70
     0
  9
$DIMTFAC
 40
1.0
  9
$DIMGAP
 40
0.09
  9
$LUNITS
 70
     2
  9
$LUPREC
 70
     4
  9
$SKETCHINC
 40
0.1
  9
$FILLETRAD
 40
0.035
  9
$AUNITS
 70
     0
  9
$AUPREC
 70
     0
  9
$MENU
  1
.
  9
$ELEVATION
 40
0.0
  9
$PELEVATION
 40
0.0
  9
$THICKNESS
 40
0.0
  9
$LIMCHECK
 70
     0
  9
$BLIPMODE
 70
     0
  9
$CHAMFERA
 40
0.0
  9
$CHAMFERB
 40
0.0
  9
$SKPOLY
 70
     0
  9
$TDCREATE
 40
2458060.468368056230247
  9
$TDUPDATE
 40
2460020.6209375001490116
  9
$TDINDWG
 40
0.7509445602
  9
$TDUSRTIMER
 40
0.7509445602
  9
$USRTIMER
 70
     1
  9
$ANGBASE
 50
0.0
  9
$ANGDIR
 70
     0
  9
$PDMODE
 70
     0
  9
$PDSIZE
 40
0.3125
  9
$PLINEWID
 40
0.0
  9
$COORDS
 70
     1
  9
$SPLFRAME
 70
     0
  9
$SPLINETYPE
 70
     6
  9
$SPLINESEGS
 70
     8
  9
$ATTDIA
 70
     1
  9
$ATTREQ
 70
     1
  9
$HANDLING
 70
     1
  9
$HANDSEED
  5
161B4
  9
$SURFTAB1
 70
     6
  9
$SURFTAB2
 70
     6
  9
$SURFTYPE
 70
     6
  9
$SURFU
 70
     6
  9
$SURFV
 70
     6
  9
$UCSNAME
  2

  9
$UCSORG
 10
0.0
 20
0.0
 30
0.0
  9
$UCSXDIR
 10
1.0
 20
0.0
 30
0.0
  9
$UCSYDIR
 10
0.0
 20
1.0
 30
0.0
  9
$PUCSNAME
  2

  9
$PUCSORG
 10
0.0
 20
0.0
 30
0.0
  9
$PUCSXDIR
 10
1.0
 20
0.0
 30
0.0
  9
$PUCSYDIR
 10
0.0
 20
1.0
 30
0.0
  9
$USERI1
 70
     0
  9
$USERI2
 70
     0
  9
$USERI3
 70
     0
  9
$USERI4
 70
     0
  9
$USERI5
 70
     0
  9
$USERR1
 40
0.0
  9
$USERR2
 40
0.0
  9
$USERR3
 40
0.0
  9
$USERR4
 40
0.0
  9
$USERR5
 40
0.0
  9
$WORLDVIEW
 70
     1
  9
$SHADEDGE
 70
     3
  9
$SHADEDIF
 70
    70
  9
$TILEMODE
 70
     1
  9
$MAXACTVP
 70
    64
  9
$PLIMCHECK
 70
     0
  9
$PEXTMIN
 10
1.0000000000000000E+20
 20
1.0000000000000000E+20
 30
1.0000000000000000E+20
  9
$PEXTMAX
 10
-1.0000000000000000E+20
 20
-1.0000000000000000E+20
 30
-1.0000000000000000E+20
  9
$PLIMMIN
 10
0.0
 20
0.0
  9
$PLIMMAX
 10
12.0
 20
9.0
  9
$UNITMODE
 70
     0
  9
$VISRETAIN
 70
     1
  9
$PLINEGEN
 70
     0
  9
$PSLTSCALE
 70
     1
  0
ENDSEC
  0
SECTION
  2
TABLES
  0
TABLE
  2
VPORT
 70
     1
  0
VPORT
  2
*ACTIVE
 70
     0
 10
0.0
 20
0.0
 11
1.0
 21
1.0
 12
191.653048698518603
 22
27.3756302305283015
 13
0.0
 23
0.0
 14
1.0
 24
1.0
 15
0.0
 25
0.0
 16
0.0
 26
0.0
 36
137.7247118064013875
 17
3671.2738037109379547
 27
154.7234736785077018
 37
0.0
 40
2.600017326986602
 41
1.943097014925373
 42
50.0
 43
0.0
 44
0.0
 50
0.0
 51
0.0
 71
     0
 72
   100
 73
     1
 74
     1
 75
     0
 76
     0
 77
     0
 78
     0
  0
ENDTAB
  0
TABLE
  2
LTYPE
 70
     2
  0
LTYPE
  2
CONTINUOUS
 70
     0
  3
Solid line
 72
    65
 73
     0
 40
0.0
  0
LTYPE
  2
PHANTOM2
 70
     0
  3
___ _ _ ___ _ _ ___ _ _ ___ _ _
 72
    65
 73
     6
 40
1.25
 49
0.625
 49
-0.125
 49
0.125
 49
-0.125
 49
0.125
 49
-0.125
  0
ENDTAB
  0
TABLE
  2
LAYER
 70
     2
  0
LAYER
  2
0
 70
     0
 62
   255
  6
CONTINUOUS
  0
LAYER
  2
DEFPOINTS
 70
     0
 62
     7
  6
CONTINUOUS
  0
ENDTAB
  0
TABLE
  2
STYLE
 70
     1
  0
STYLE
  2
STANDARD
 70
     0
 40
0.0
 41
0.8
 50
0.0
 71
     0
 42
0.2
  3
txt
  4

  0
ENDTAB
  0
TABLE
  2
VIEW
 70
     0
  0
ENDTAB
  0
TABLE
  2
UCS
 70
     0
  0
ENDTAB
  0
TABLE
  2
APPID
 70
    10
  0
APPID
  2
ACAD
 70
     0
  0
APPID
  2
ACAD_MLEADERVER
 70
     0
  0
APPID
  2
ACAD_EXEMPT_FROM_CAD_STANDARDS
 70
     0
  0
APPID
  2
ACAD_NAV_VCDISPLAY
 70
     0
  0
APPID
  2
ACAECLAYERSTANDARD
 70
     0
  0
APPID
  2
ACCMTRANSPARENCY
 70
     0
  0
APPID
  2
ACAD_DSTYLE_DIMJAG
 70
     0
  0
APPID
  2
ACAD_DSTYLE_DIMTALN
 70
     0
  0
APPID
  2
ACDBATTR
 70
     0
  0
APPID
  2
ACAD_PSEXT
 70
     0
  0
ENDTAB
  0
TABLE
  2
DIMSTYLE
 70
     1
  0
DIMSTYLE
  2
STANDARD
 70
     0
  3

  4

  5

  6

  7

 40
1.0
 41
0.1875
 42
0.0625
 43
0.38
 44
0.125
 45
0.0
 46
0.0
 47
0.01
 48
0.01
140
0.15625
141
0.09
142
0.0
143
25.3999999999999986
144
1.0
145
0.0
146
1.0
147
0.09
 71
     1
 72
     0
 73
     1
 74
     1
 75
     0
 76
     0
 77
     0
 78
     4
170
     0
171
     2
172
     0
173
     0
174
     0
175
     0
176
     0
177
     0
178
     0
  0
ENDTAB
  0
ENDSEC
  0
SECTION
  2
BLOCKS
  0
BLOCK
  8
0
  2
$MODEL_SPACE
 70
     0
 10
0.0
 20
0.0
 30
0.0
  3
$MODEL_SPACE
  1

  0
ENDBLK
  5
21
  8
0
  0
BLOCK
 67
     1
  8
0
  2
$PAPER_SPACE
 70
     0
 10
0.0
 20
0.0
 30
0.0
  3
$PAPER_SPACE
  1

  0
ENDBLK
  5
1D
 67
     1
  8
0
  0
ENDSEC
  0
SECTION
  2
ENTITIES
  0
ATTDEF
  5
AA11
  8
DEFPOINTS
 10
3865.3872762642640737
 20
182.1999003323103921
 30
0.0
 40
0.001
  1
K-97384D
  3

  2
MODELNUMBER
 70
     0
1001
ACDBATTR
1070
     0
1070
     1
  0
ATTDEF
  5
AA12
  8
DEFPOINTS
 10
3865.3872762642640737
 20
182.1982336656436985
 30
0.0
 40
0.001
  1
AVID
  3

  2
TRADENAME
 70
     0
1001
ACDBATTR
1070
     0
1070
     1
  0
ATTDEF
  5
AA13
  8
DEFPOINTS
 10
3865.3872762642640737
 20
182.1965669989770902
 30
0.0
 40
0.001
  1
BATH/SHOWER MIXER
  3

  2
PRODUCT
 70
     0
1001
ACDBATTR
1070
     0
1070
     1
  0
LINE
  5
16072
  8
0
 10
3863.3229983348828682
 20
182.9181138147600905
 30
0.0
 11
3863.3231239643000663
 21
181.4820449231229986
 31
0.0
  0
ARC
  5
16073
  8
0
 10
3863.2931239644158268
 20
181.4820422986788913
 30
0.0
 40
0.03
 50
270.0
 51
0.0050123190012418
  0
ARC
  5
16074
  8
0
 10
3863.292998334998174
 20
182.9181111903160115
 30
0.0
 40
0.03
 50
0.0050123190012418
 51
90.0000046157919655
  0
LINE
  5
16075
  8
0
 10
3863.2929983325811918
 20
182.9481111903160127
 30
0.0
 11
3862.2970185297590433
 21
182.9481111100789121
 31
0.0
  0
ARC
  5
16076
  8
0
 10
3862.2509055291370714
 20
183.4500956251681885
 30
0.0
 40
0.5040980680540026
 50
232.8253730021569083
 51
275.2485403295970059
  0
LINE
  5
16077
  8
0
 10
3861.3994294354588419
 20
181.2777856944788937
 30
0.0
 11
3861.3226546797591254
 21
181.2777856949788884
 31
0.0
  0
ARC
  5
16078
  8
0
 10
3861.3226546799642165
 20
181.3092817581475913
 30
0.0
 40
0.0314960631686919
 50
204.8015400127960106
 51
269.9999996268647919
  0
ARC
  5
16079
  8
0
 10
3860.9841279973411474
 20
181.1528494287765909
 30
0.0
 40
0.3414267016502079
 50
24.8015400127974388
 51
55.6401540260742706
  0
ARC
  5
1607A
  8
0
 10
3860.6184730052059422
 20
180.5723086107873883
 30
0.0
 40
1.027364003477047
 50
57.0791105799921112
 51
68.2493490024001659
  0
ARC
  5
1607B
  8
0
 10
3861.3517546436219163
 20
182.3282285983760005
 30
0.0
 40
0.8758019211922607
 50
243.5372263529353916
 51
246.2609279646003131
  0
ARC
  5
1607C
  8
0
 10
3861.3616119904390871
 20
182.3566861842533058
 30
0.0
 40
0.905678642607218
 50
187.0234836545737949
 51
243.7812082794197011
  0
ARC
  5
1607D
  8
0
 10
3861.3605623303878929
 20
182.3580145438025966
 30
0.0
 40
0.9048004424080403
 50
127.5619384809191956
 51
187.1150973763564878
  0
ARC
  5
1607E
  8
0
 10
3861.3592776302280072
 20
182.3609732500925134
 30
0.0
 40
0.901672256078452
 50
89.90282260974341
 51
127.6118400015795942
  0
ARC
  5
1607F
  8
0
 10
3861.3623923087488947
 20
182.3597100999039924
 30
0.0
 40
0.9029355011934767
 50
49.7079564932751907
 51
90.1006006138439943
  0
ARC
  5
16080
  8
0
 10
3861.4123160535109491
 20
182.3988422052254066
 30
0.0
 40
0.8408993134611245
 50
25.8347503384075416
 51
50.5783388239098386
  0
ARC
  5
16081
  8
0
 10
3861.3815854031590789
 20
182.3643696835947026
 30
0.0
 40
0.883756888036267
 50
14.63641481885867
 51
26.9781681423511586
  0
LINE
  5
16082
  8
0
 10
3862.2156862075321442
 20
182.5876694311789095
 30
0.0
 11
3862.3610420577588229
 21
182.5876694311789095
 31
0.0
  0
ARC
  5
16083
  8
0
 10
3862.3610420577588229
 20
182.5679843917789071
 30
0.0
 40
0.0196850393999988
 50
359.9999999999968168
 51
90.0
  0
LINE
  5
16084
  8
0
 10
3862.3807270971587968
 20
182.5679843917789071
 30
0.0
 11
3862.3807270971587968
 21
182.1467245492789004
 31
0.0
  0
ARC
  5
16085
  8
0
 10
3862.3610420577588229
 20
182.1467245492789004
 30
0.0
 40
0.0196850394000023
 50
270.0000000000782165
 51
0.0
  0
LINE
  5
16086
  8
0
 10
3862.3610420577588229
 20
182.1270395098788981
 30
0.0
 11
3862.2153688370581222
 21
182.1270395098786992
 31
0.0
  0
ARC
  5
16087
  8
0
 10
3860.7734578323438654
 20
182.6003739902448899
 30
0.0
 40
1.520757839676613
 50
341.4228816812383798
 51
341.865477948972682
  0
ARC
  5
16088
  8
0
 10
3862.1774977836830658
 20
182.1284864824120007
 30
0.0
 40
0.0395400957227424
 50
330.6359371489310774
 51
341.4228816812383798
  0
ARC
  5
16089
  8
0
 10
3862.3618706945658232
 20
182.089892143151701
 30
0.0
 40
0.1511380862265396
 50
165.7718126346264
 51
172.6995160093592006
  0
ARC
  5
1608A
  8
0
 10
3861.2372191235249375
 20
182.3630890939058986
 30
0.0
 40
1.006228735528232
 50
346.4326386845955881
 51
358.2398564072182126
  0
ARC
  5
1608B
  8
0
 10
3861.2585685484309579
 20
182.3562453295051
 30
0.0
 40
0.9846985976422162
 50
358.5997269197617925
 51
13.5928159108139202
  0
ARC
  5
1608C
  8
0
 10
3862.5520272838248275
 20
182.658193826653104
 30
0.0
 40
0.3436553650950853
 50
188.8102749946606878
 51
191.8422827899813115
  0
ARC
  5
1608D
  8
0
 10
3862.0808474665332142
 20
182.5470817959121916
 30
0.0
 40
0.1439883001142307
 50
16.3725295124632702
 51
23.9614167791385491
  0
ARC
  5
1608E
  8
0
 10
3861.356451333690984
 20
182.3603456910446994
 30
0.0
 40
0.9101717899288583
 50
316.3370355571668142
 51
345.1474715656401031
  0
ARC
  5
1608F
  8
0
 10
3861.3495028214529157
 20
182.3669772457492115
 30
0.0
 40
0.9197769624995258
 50
296.5455571599405857
 51
316.3370355571668142
  0
ARC
  5
16090
  8
0
 10
3862.5734095099719525
 20
179.6392590193995886
 30
0.0
 40
2.07108357419053
 50
113.1086289365924955
 51
118.9446308927308991
  0
ARC
  5
16091
  8
0
 10
3861.7603324129531757
 20
181.1306688462067882
 30
0.0
 40
0.3726105264866339
 50
120.5248166474937932
 51
143.3269389805242042
  0
ARC
  5
16092
  8
0
 10
3861.7357510089218522
 20
181.1542490212463008
 30
0.0
 40
0.3388380579235154
 50
144.0424718383929985
 51
155.2568716133806959
  0
ARC
  5
16093
  8
0
 10
3861.3993791795987818
 20
181.3093328974321139
 30
0.0
 40
0.031563145691675
 50
293.8482812562407958
 51
335.1525934573704149
  0
ARC
  5
16094
  8
0
 10
3861.399422992999007
 20
181.3093123261328969
 30
0.0
 40
0.0315266323122255
 50
270.0117083802937827
 51
293.7905699441658953
  0
LINE
  5
16095
  8
0
 10
3861.5718088142612032
 20
181.4520422986788901
 30
0.0
 11
3863.2931239644158268
 21
181.4520422986788901
 31
0.0
  0
ARC
  5
16096
  8
0
 10
3861.3608138507188414
 20
182.3108656309725859
 30
0.0
 40
0.2521282798419884
 50
89.9486555208915632
 51
163.4014005822241131
  0
ARC
  5
16097
  8
0
 10
3861.3598850751159262
 20
182.3125433215456042
 30
0.0
 40
0.250762542821561
 50
163.7081360457096082
 51
264.4137297118983838
  0
ARC
  5
16098
  8
0
 10
3861.3614661534948027
 20
182.3133410356865909
 30
0.0
 40
0.251714822649004
 50
264.0732245246966841
 51
353.1607215304334204
  0
ARC
  5
16099
  8
0
 10
3861.3618433517090125
 20
182.3118304590524019
 30
0.0
 40
0.251164635962893
 50
353.4926178248143742
 51
90.1833090338325434
  0
ARC
  5
1609A
  8
0
 10
3861.3612435296217882
 20
182.3126432285440899
 30
0.0
 40
0.3027568575705594
 50
90.0381279925660039
 51
142.0383202147430097
  0
ARC
  5
1609B
  8
0
 10
3861.3620033440502084
 20
182.3114862262306133
 30
0.0
 40
0.3040679494158308
 50
141.9545026510685091
 51
190.2768183826393908
  0
ARC
  5
1609C
  8
0
 10
3861.3573949173328401
 20
182.3109880553641915
 30
0.0
 40
0.299444762596868
 50
190.3403401345283044
 51
234.5448981935971915
  0
ARC
  5
1609D
  8
0
 10
3861.3607729327268316
 20
182.3162609419642024
 30
0.0
 40
0.3056995215459741
 50
234.6024349014097083
 51
270.0504402633362133
  0
ARC
  5
1609E
  8
0
 10
3861.3615558706460433
 20
182.3154735965451891
 30
0.0
 40
0.304912490588672
 50
269.9034493799476877
 51
307.3062747626802889
  0
ARC
  5
1609F
  8
0
 10
3861.3647767873158045
 20
182.3109382829302945
 30
0.0
 40
0.2993530094493708
 50
307.3420285229425986
 51
341.1854457735954043
  0
ARC
  5
160A0
  8
0
 10
3861.3605207308110039
 20
182.3116797561841054
 30
0.0
 40
0.3036215242384177
 50
341.3120217025534089
 51
40.7391703656472828
  0
ARC
  5
160A1
  8
0
 10
3861.3607440104251509
 20
182.3124572866130961
 30
0.0
 40
0.3029452431508621
 50
40.655308616757047
 51
78.809606153274828
  0
ARC
  5
160A2
  8
0
 10
3861.3648175417220045
 20
182.353721114084891
 30
0.0
 40
0.2617061397847069
 50
77.9312215562753039
 51
90.8266020198913537
  0
LINE
  5
160A3
  8
0
 10
3861.0984256366291447
 20
180.844940201716895
 30
0.0
 11
3861.0722133252597814
 21
180.8312702804250875
 31
0.0
  0
LINE
  5
160A4
  8
0
 10
3861.0646332348769647
 20
180.880647419497592
 30
0.0
 11
3861.0984248314698561
 21
180.8630286691380036
 31
0.0
  0
LINE
  5
160A5
  8
0
 10
3861.0984471204210422
 20
180.9163691714921072
 30
0.0
 11
3861.0646327106078388
 21
180.8987360333997003
 31
0.0
  0
LINE
  5
160A6
  8
0
 10
3861.064656385132821
 20
180.9520767372115131
 30
0.0
 11
3861.0984467905818747
 21
180.9344576840163938
 31
0.0
  0
LINE
  5
160A7
  8
0
 10
3861.0984522665448821
 20
180.9877890487757099
 30
0.0
 11
3861.0646560235431934
 21
180.9701652331775961
 31
0.0
  0
LINE
  5
160A8
  8
0
 10
3861.0646361388708101
 20
181.023511896191394
 30
0.0
 11
3861.0984523412089402
 21
181.0058773172555107
 31
0.0
  0
LINE
  5
160A9
  8
0
 10
3861.0984096767788287
 20
181.0591968722374077
 30
0.0
 11
3861.0646394208438323
 21
181.0416018364709885
 31
0.0
  0
LINE
  5
160AA
  8
0
 10
3861.0646297067510204
 20
181.0949011283595098
 30
0.0
 11
3861.0984123104421997
 21
181.0772871505699015
 31
0.0
  0
LINE
  5
160AB
  8
0
 10
3861.080527390763109
 20
181.1212848393805075
 30
0.0
 11
3861.0646270769921102
 21
181.1129886623876075
 31
0.0
  0
LINE
  5
160AC
  8
0
 10
3861.0090000685590894
 20
181.2000249967805132
 30
0.0
 11
3861.9341969189599695
 21
181.2000249967805132
 31
0.0
  0
LINE
  5
160AD
  8
0
 10
3861.0090000685590894
 20
181.2000249967805132
 30
0.0
 11
3861.0090000685590894
 21
181.5225535310206055
 31
0.0
  0
LINE
  5
160AE
  8
0
 10
3861.111362273359191
 20
181.1803249967805129
 30
0.0
 11
3861.111362273359191
 21
181.1409848393805078
 31
0.0
  0
ARC
  5
160AF
  8
0
 10
3861.091662273359816
 20
181.1409848393805078
 30
0.0
 40
0.0197
 50
270.0
 51
0.0
  0
ARC
  5
160B0
  8
0
 10
3861.091662273359816
 20
181.1803249967805129
 30
0.0
 40
0.0197
 50
0.0000000000032569
 51
90.0
  0
ARC
  5
160B1
  8
0
 10
3861.0693454116931207
 20
181.1039455811842913
 30
0.0
 40
0.0102
 50
117.5538343884493031
 51
242.4628261571471057
  0
ARC
  5
160B2
  8
0
 10
3861.0936966054991899
 20
181.0682426977450916
 30
0.0
 40
0.0102
 50
297.5204910976326005
 51
62.4628261571463597
  0
ARC
  5
160B3
  8
0
 10
3861.0693524921230164
 20
181.0325560109633045
 30
0.0
 40
0.0102
 50
117.5204910976310941
 51
242.4587190991165073
  0
ARC
  5
160B4
  8
0
 10
3861.0937359879580981
 20
180.9968332024834865
 30
0.0
 40
0.0102
 50
297.5408078908091056
 51
62.4587190990911907
  0
ARC
  5
160B5
  8
0
 10
3861.0693723021299775
 20
180.9611210794697911
 30
0.0
 40
0.0102
 50
117.5408078907837961
 51
242.4614828051431914
  0
ARC
  5
160B6
  8
0
 10
3861.0937308735860825
 20
180.9254133417580874
 30
0.0
 40
0.0102
 50
297.5406067344291046
 51
62.4614828051432198
  0
ARC
  5
160B7
  8
0
 10
3861.0693489574427986
 20
180.8896918631338053
 30
0.0
 40
0.0102
 50
117.5406067344290051
 51
242.4627145151364118
  0
ARC
  5
160B8
  8
0
 10
3861.0937091089040223
 20
180.8539842255019039
 30
0.0
 40
0.0102
 50
297.542386219365028
 51
62.4627145151364616
  0
LINE
  5
160B9
  8
0
 10
3861.8447713508899142
 20
180.8806686166255986
 30
0.0
 11
3861.8788700613449691
 21
180.8628858777628921
 31
0.0
  0
LINE
  5
160BA
  8
0
 10
3861.8785637526420942
 20
180.9163758344064092
 30
0.0
 11
3861.8447721560492027
 21
180.8987570840467072
 31
0.0
  0
LINE
  5
160BB
  8
0
 10
3861.8447498670980167
 20
180.952097586400896
 30
0.0
 11
3861.8785642769112201
 21
180.9344644483084039
 31
0.0
  0
LINE
  5
160BC
  8
0
 10
3861.8785406023848736
 20
180.9878051521201883
 30
0.0
 11
3861.8447501969371842
 21
180.9701860989250974
 31
0.0
  0
LINE
  5
160BD
  8
0
 10
3861.8447447209741767
 20
181.0235174636844135
 30
0.0
 11
3861.8785409639767749
 21
181.0058936480864134
 31
0.0
  0
LINE
  5
160BE
  8
0
 10
3861.878560848647794
 20
181.0592403111000976
 30
0.0
 11
3861.8447446463101187
 21
181.0416057321641858
 31
0.0
  0
LINE
  5
160BF
  8
0
 10
3861.8447873107411397
 20
181.0949252871461113
 30
0.0
 11
3861.878557566676136
 21
181.0773302513796921
 31
0.0
  0
LINE
  5
160C0
  8
0
 10
3861.8606446722687906
 20
181.1212848393805075
 30
0.0
 11
3861.8447846770768592
 21
181.1130155654786904
 31
0.0
  0
LINE
  5
160C1
  8
0
 10
3861.8318347141589584
 20
181.1803249967805129
 30
0.0
 11
3861.8318347141589584
 21
181.1409848393805078
 31
0.0
  0
ARC
  5
160C2
  8
0
 10
3861.8515347141601524
 20
181.1803249967805129
 30
0.0
 40
0.0197
 50
90.0
 51
179.9999999999967031
  0
ARC
  5
160C3
  8
0
 10
3861.849500382019869
 20
181.1039711126537952
 30
0.0
 40
0.0102
 50
117.5371738428536048
 51
242.4795089023672858
  0
ARC
  5
160C4
  8
0
 10
3861.8738444953960425
 20
181.0682844258720081
 30
0.0
 40
0.0102
 50
297.5412809008835211
 51
62.4795089023688632
  0
ARC
  5
160C5
  8
0
 10
3861.8494609995609608
 20
181.0325616173923038
 30
0.0
 40
0.0102
 50
117.5412809009088022
 51
242.4591921091908944
  0
ARC
  5
160C6
  8
0
 10
3861.8738246853890814
 20
180.9968494943784947
 30
0.0
 40
0.0102
 50
297.5385171948568086
 51
62.4591921092162181
  0
ARC
  5
160C7
  8
0
 10
3861.8494661139329764
 20
180.961141756666791
 30
0.0
 40
0.0102
 50
117.5385171948567944
 51
242.4593932655710091
  0
ARC
  5
160C8
  8
0
 10
3861.8738480300771698
 20
180.9254202780425089
 30
0.0
 40
0.0102
 50
297.5372854848636166
 51
62.4593932655709878
  0
ARC
  5
160C9
  8
0
 10
3861.8494878786150366
 20
180.8897126404106075
 30
0.0
 40
0.0102
 50
117.5372854848635029
 51
242.4576137806348868
  0
LINE
  5
160CA
  8
0
 10
3861.9341969189599695
 20
181.2000249967805132
 30
0.0
 11
3861.9341969189599695
 21
181.4520422986788901
 31
0.0
  0
LINE
  5
160CB
  8
0
 10
3861.8843535336068271
 20
180.8538413405715062
 30
0.0
 11
3861.0722133252597814
 21
180.8312702804250875
 31
0.0
  0
LINE
  5
160CC
  8
0
 10
3861.1039091089041904
 20
180.8539842255019039
 30
0.0
 11
3861.839287878624873
 21
180.8897130944361038
 31
0.0
  0
LINE
  5
160CD
  8
0
 10
3861.8840480300768832
 20
180.9254202780425089
 30
0.0
 11
3861.0591489574430852
 21
180.8896918631338053
 31
0.0
  0
LINE
  5
160CE
  8
0
 10
3861.1039308735848863
 20
180.9254135277516866
 30
0.0
 11
3861.8392778064899176
 21
180.9606535031801116
 31
0.0
  0
LINE
  5
160CF
  8
0
 10
3861.8840246853887948
 20
180.9968494943784947
 30
0.0
 11
3861.0591723021288999
 21
180.9611210794697911
 31
0.0
  0
LINE
  5
160D0
  8
0
 10
3861.1039359879578114
 20
180.9968332024834865
 30
0.0
 11
3861.8392609995607927
 21
181.0325616173923038
 31
0.0
  0
LINE
  5
160D1
  8
0
 10
3861.8840444952288635
 20
181.0682862764095944
 30
0.0
 11
3861.0591622876941074
 21
181.0321090951867973
 31
0.0
  0
LINE
  5
160D2
  8
0
 10
3861.1038966054989032
 20
181.0682426977450916
 30
0.0
 11
3861.8393003820187914
 21
181.1039711126537952
 31
0.0
  0
LINE
  5
160D3
  8
0
 10
3861.8606446722687906
 20
181.1212848393805075
 30
0.0
 11
3861.080527390763109
 21
181.1212848393805075
 31
0.0
  0
ARC
  5
160D4
  8
0
 10
3861.8515347141601524
 20
181.1409848393805078
 30
0.0
 40
0.0197
 50
179.9999999999951115
 51
270.0
  0
LINE
  5
160D5
  8
0
 10
3861.8489314591679431
 20
180.8063242093805059
 30
0.0
 11
3861.09715939630496
 21
180.8063242093805059
 31
0.0
  0
LINE
  5
160D6
  8
0
 10
3861.8443524404278833
 20
180.8268010458876915
 30
0.0
 11
3861.8788691508780175
 21
180.844797355435702
 31
0.0
  0
LINE
  5
160D7
  8
0
 10
3861.8489314591679431
 20
180.8063242093805059
 30
0.0
 11
3861.844351769062996
 21
180.8087123988713927
 31
0.0
  0
ARC
  5
160D8
  8
0
 10
3861.8490680576860541
 20
180.8177565473455957
 30
0.0
 40
0.0102
 50
117.5366183718876982
 51
242.4591285272036885
  0
ARC
  5
160D9
  8
0
 10
3861.874153533621211
 20
180.8538418539779116
 30
0.0
 40
0.0102
 50
297.5366183719153241
 51
62.4576137806088525
  0
LINE
  5
160DA
  8
0
 10
3861.0722133252597814
 20
180.8312702804250875
 30
0.0
 11
3861.09715939630496
 21
180.8063242093805059
 31
0.0
  0
LINE
  5
160DB
  8
0
 10
3861.838868057693162
 20
180.8177569259217137
 30
0.0
 11
3861.09715939630496
 21
180.8063242093805059
 31
0.0
  0
LINE
  5
160DC
  8
0
 10
3864.1445939438931418
 20
181.0971140119274878
 30
0.0
 11
3864.1445939438931418
 21
183.3030447259556013
 31
0.0
  0
LINE
  5
160DD
  8
0
 10
3865.3847514295930523
 20
181.0082751291915031
 30
0.0
 11
3864.2226071655459236
 21
181.0184170085823894
 31
0.0
  0
LINE
  5
160DE
  8
0
 10
3865.3847514295930523
 20
181.0082751291915031
 30
0.0
 11
3865.3847514295930523
 21
183.3918836086915007
 31
0.0
  0
ARC
  5
160DF
  8
0
 10
3864.2232939438940775
 20
181.0971140119274878
 30
0.0
 40
0.0787
 50
180.0
 51
269.4999999977936795
  0
LINE
  5
160E0
  8
0
 10
3865.3847514295930523
 20
183.3918836086915007
 30
0.0
 11
3864.2226071655459236
 21
183.3817417293006997
 31
0.0
  0
ARC
  5
160E1
  8
0
 10
3864.2232939438940775
 20
183.3030447259556013
 30
0.0
 40
0.0787
 50
90.5000000022063347
 51
180.0
  0
LINE
  5
160E3
  8
0
 10
3863.360422442503932
 20
182.7906308270804914
 30
0.0
 11
3863.360422442503932
 21
181.6095279108025977
 31
0.0
  0
LINE
  5
160E4
  8
0
 10
3863.7738082692007993
 20
182.7906308270804914
 30
0.0
 11
3863.360422442503932
 21
182.7906308270804914
 31
0.0
  0
LINE
  5
160E5
  8
0
 10
3863.8151025424049294
 20
182.8398434254804954
 30
0.0
 11
3864.1445939438931418
 21
182.8398434254804954
 31
0.0
  0
LINE
  5
160E6
  8
0
 10
3863.8151025424049294
 20
182.8398434254804954
 30
0.0
 11
3863.7738082692007993
 21
182.7906308270804914
 31
0.0
  0
LINE
  5
160E7
  8
0
 10
3863.3801075963037874
 20
182.7906308270804914
 30
0.0
 11
3863.3801075963037874
 21
181.6095279108025977
 31
0.0
  0
LINE
  5
160E8
  8
0
 10
3863.7738082692007993
 20
181.6095279108025977
 30
0.0
 11
3863.360422442503932
 21
181.6095279108025977
 31
0.0
  0
LINE
  5
160E9
  8
0
 10
3863.8151025424049294
 20
181.5603153124025937
 30
0.0
 11
3864.1445939438931418
 21
181.5603153124025937
 31
0.0
  0
LINE
  5
160EA
  8
0
 10
3863.8151025424049294
 20
181.5603153124025937
 30
0.0
 11
3863.7738082692007993
 21
181.6095279108025977
 31
0.0
  0
LINE
  5
160EB
  8
0
 10
3863.360422442503932
 20
181.7768512995804997
 30
0.0
 11
3863.3230981742049153
 21
181.7768512995804997
 31
0.0
  0
LINE
  5
160EC
  8
0
 10
3863.360422442503932
 20
182.6233079924805054
 30
0.0
 11
3863.3230241249289065
 21
182.6233079924805054
 31
0.0
  0
ARC
  5
160ED
  8
0
 10
3858.8529476490220986
 20
179.8471347644388061
 30
0.0
 40
4.4504107384024021
 50
44.5132914918925877
 51
45.534305461153437
  0
ARC
  5
160EE
  8
0
 10
3861.6446217605689526
 20
182.6411289492033916
 30
0.0
 40
0.5021379084419265
 50
40.494557430636327
 51
49.5530395224019529
  0
ENDSEC
  0
EOF
