  0
SECTION
  2
HEADER
  9
$ACADVER
  1
AC1009
  9
$INSBASE
 10
470.3916058179855781
 20
96.4579395286919947
 30
0.0
  9
$EXTMIN
 10
465.7872337215727043
 20
82.3092824257240068
 30
-0.0015258207003583
  9
$EXTMAX
 10
470.4168968517598159
 20
114.063090531202306
 30
0.0000000349246037
  9
$LIMMIN
 10
0.0
 20
0.0
  9
$LIMMAX
 10
11.6929133858000007
 20
8.2677165353999982
  9
$ORTHOMODE
 70
     0
  9
$REGENMODE
 70
     1
  9
$FILLMODE
 70
     1
  9
$QTEXTMODE
 70
     0
  9
$MIRRTEXT
 70
     0
  9
$DRAGMODE
 70
     2
  9
$LTSCALE
 40
0.6431102362
  9
$OSMODE
 70
  2039
  9
$ATTMODE
 70
     1
  9
$TEXTSIZE
 40
0.2
  9
$TRACEWID
 40
0.05
  9
$TEXTSTYLE
  7
STANDARD
  9
$CLAYER
  8
0
  9
$CELTYPE
  6
BYLAYER
  9
$CECOLOR
 62
   256
  9
$DIMSCALE
 40
1.0
  9
$DIMASZ
 40
0.1875
  9
$DIMEXO
 40
0.0625
  9
$DIMDLI
 40
0.4443307087
  9
$DIMRND
 40
0.0
  9
$DIMDLE
 40
0.0
  9
$DIMEXE
 40
0.125
  9
$DIMTP
 40
0.01
  9
$DIMTM
 40
0.01
  9
$DIMTXT
 40
1.0
  9
$DIMCEN
 40
0.1052362205
  9
$DIMTSZ
 40
0.0
  9
$DIMTOL
 70
     1
  9
$DIMLIM
 70
     0
  9
$DIMTIH
 70
     0
  9
$DIMTOH
 70
     1
  9
$DIMSE1
 70
     0
  9
$DIMSE2
 70
     0
  9
$DIMTAD
 70
     0
  9
$DIMZIN
 70
     0
  9
$DIMBLK
  1

  9
$DIMASO
 70
     1
  9
$DIMSHO
 70
     1
  9
$DIMPOST
  1
\X
  9
$DIMAPOST
  1

  9
$DIMALT
 70
     1
  9
$DIMALTD
 70
     2
  9
$DIMALTF
 40
25.3999999999999986
  9
$DIMLFAC
 40
1.0
  9
$DIMTOFL
 70
     0
  9
$DIMTVP
 40
0.0
  9
$DIMTIX
 70
     0
  9
$DIMSOXD
 70
     0
  9
$DIMSAH
 70
     0
  9
$DIMBLK1
  1

  9
$DIMBLK2
  1

  9
$DIMSTYLE
  2
STANDARD
  9
$DIMCLRD
 70
     0
  9
$DIMCLRE
 70
     0
  9
$DIMCLRT
 70
     0
  9
$DIMTFAC
 40
1.0
  9
$DIMGAP
 40
0.09
  9
$LUNITS
 70
     2
  9
$LUPREC
 70
     4
  9
$SKETCHINC
 40
0.1
  9
$FILLETRAD
 40
0.0
  9
$AUNITS
 70
     0
  9
$AUPREC
 70
     0
  9
$MENU
  1
.
  9
$ELEVATION
 40
0.0
  9
$PELEVATION
 40
0.0
  9
$THICKNESS
 40
0.0
  9
$LIMCHECK
 70
     0
  9
$BLIPMODE
 70
     0
  9
$CHAMFERA
 40
0.0
  9
$CHAMFERB
 40
0.0
  9
$SKPOLY
 70
     0
  9
$TDCREATE
 40
2458172.5207638889551163
  9
$TDUPDATE
 40
2459145.5922337961383164
  9
$TDINDWG
 40
0.3017252546
  9
$TDUSRTIMER
 40
0.3017252546
  9
$USRTIMER
 70
     1
  9
$ANGBASE
 50
0.0
  9
$ANGDIR
 70
     0
  9
$PDMODE
 70
     0
  9
$PDSIZE
 40
0.3125
  9
$PLINEWID
 40
0.0
  9
$COORDS
 70
     1
  9
$SPLFRAME
 70
     0
  9
$SPLINETYPE
 70
     6
  9
$SPLINESEGS
 70
     8
  9
$ATTDIA
 70
     1
  9
$ATTREQ
 70
     1
  9
$HANDLING
 70
     1
  9
$HANDSEED
  5
F91E
  9
$SURFTAB1
 70
     6
  9
$SURFTAB2
 70
     6
  9
$SURFTYPE
 70
     6
  9
$SURFU
 70
     6
  9
$SURFV
 70
     6
  9
$UCSNAME
  2

  9
$UCSORG
 10
0.0
 20
0.0
 30
0.0
  9
$UCSXDIR
 10
1.0
 20
0.0
 30
0.0
  9
$UCSYDIR
 10
0.0
 20
1.0
 30
0.0
  9
$PUCSNAME
  2

  9
$PUCSORG
 10
0.0
 20
0.0
 30
0.0
  9
$PUCSXDIR
 10
1.0
 20
0.0
 30
0.0
  9
$PUCSYDIR
 10
0.0
 20
1.0
 30
0.0
  9
$USERI1
 70
     0
  9
$USERI2
 70
     0
  9
$USERI3
 70
     0
  9
$USERI4
 70
     0
  9
$USERI5
 70
     0
  9
$USERR1
 40
0.0
  9
$USERR2
 40
0.0
  9
$USERR3
 40
0.0
  9
$USERR4
 40
0.0
  9
$USERR5
 40
0.0
  9
$WORLDVIEW
 70
     1
  9
$SHADEDGE
 70
     3
  9
$SHADEDIF
 70
    70
  9
$TILEMODE
 70
     1
  9
$MAXACTVP
 70
    64
  9
$PLIMCHECK
 70
     0
  9
$PEXTMIN
 10
1.0000000000000000E+20
 20
1.0000000000000000E+20
 30
1.0000000000000000E+20
  9
$PEXTMAX
 10
-1.0000000000000000E+20
 20
-1.0000000000000000E+20
 30
-1.0000000000000000E+20
  9
$PLIMMIN
 10
0.0
 20
0.0
  9
$PLIMMAX
 10
12.0
 20
9.0
  9
$UNITMODE
 70
     0
  9
$VISRETAIN
 70
     1
  9
$PLINEGEN
 70
     0
  9
$PSLTSCALE
 70
     1
  0
ENDSEC
  0
SECTION
  2
TABLES
  0
TABLE
  2
VPORT
 70
     1
  0
VPORT
  2
*ACTIVE
 70
     0
 10
0.0
 20
0.0
 11
1.0
 21
1.0
 12
-35.438480934520733
 22
4.339770499046776
 13
0.0
 23
0.0
 14
1.0
 24
1.0
 15
0.0
 25
0.0
 16
0.0
 26
0.0
 36
25.7967328817476016
 17
503.5405462211870145
 27
93.8464159794164061
 37
0.0
 40
32.0180561618346218
 41
2.6486111111111108
 42
50.0
 43
0.0
 44
0.0
 50
0.0
 51
0.0
 71
     0
 72
   100
 73
     1
 74
     1
 75
     0
 76
     0
 77
     0
 78
     0
  0
ENDTAB
  0
TABLE
  2
LTYPE
 70
     2
  0
LTYPE
  2
CONTINUOUS
 70
     0
  3
Solid line
 72
    65
 73
     0
 40
0.0
  0
LTYPE
  2
PHANTOM2
 70
     0
  3
___ _ _ ___ _ _ ___ _ _ ___ _ _
 72
    65
 73
     6
 40
1.25
 49
0.625
 49
-0.125
 49
0.125
 49
-0.125
 49
0.125
 49
-0.125
  0
ENDTAB
  0
TABLE
  2
LAYER
 70
     2
  0
LAYER
  2
0
 70
     0
 62
   255
  6
CONTINUOUS
  0
LAYER
  2
DEFPOINTS
 70
     0
 62
     7
  6
CONTINUOUS
  0
ENDTAB
  0
TABLE
  2
STYLE
 70
     1
  0
STYLE
  2
STANDARD
 70
     0
 40
0.0
 41
0.8
 50
0.0
 71
     0
 42
0.2
  3
txt
  4

  0
ENDTAB
  0
TABLE
  2
VIEW
 70
     0
  0
ENDTAB
  0
TABLE
  2
UCS
 70
     0
  0
ENDTAB
  0
TABLE
  2
APPID
 70
    10
  0
APPID
  2
ACAD
 70
     0
  0
APPID
  2
ACAD_MLEADERVER
 70
     0
  0
APPID
  2
ACAD_EXEMPT_FROM_CAD_STANDARDS
 70
     0
  0
APPID
  2
ACAD_DSTYLE_DIMJAG
 70
     0
  0
APPID
  2
ACAD_DSTYLE_DIMTALN
 70
     0
  0
APPID
  2
ACAD_NAV_VCDISPLAY
 70
     0
  0
APPID
  2
ACAECLAYERSTANDARD
 70
     0
  0
APPID
  2
ACCMTRANSPARENCY
 70
     0
  0
APPID
  2
DCO15
 70
     0
  0
APPID
  2
ACDBATTR
 70
     0
  0
ENDTAB
  0
TABLE
  2
DIMSTYLE
 70
     1
  0
DIMSTYLE
  2
STANDARD
 70
     0
  3

  4

  5

  6

  7

 40
1.0
 41
0.1875
 42
0.0625
 43
0.38
 44
0.125
 45
0.0
 46
0.0
 47
0.01
 48
0.01
140
0.15625
141
0.09
142
0.0
143
25.3999999999999986
144
1.0
145
0.0
146
1.0
147
0.09
 71
     1
 72
     0
 73
     1
 74
     1
 75
     0
 76
     0
 77
     0
 78
     4
170
     0
171
     2
172
     0
173
     0
174
     0
175
     0
176
     0
177
     0
178
     0
  0
ENDTAB
  0
ENDSEC
  0
SECTION
  2
BLOCKS
  0
BLOCK
  8
0
  2
$MODEL_SPACE
 70
     0
 10
0.0
 20
0.0
 30
0.0
  3
$MODEL_SPACE
  1

  0
ENDBLK
  5
21
  8
0
  0
BLOCK
 67
     1
  8
0
  2
$PAPER_SPACE
 70
     0
 10
0.0
 20
0.0
 30
0.0
  3
$PAPER_SPACE
  1

  0
ENDBLK
  5
1D
 67
     1
  8
0
  0
BLOCK
  8
0
  2
_FILLED
 70
     0
 10
0.0
 20
0.0
 30
0.0
  3
_FILLED
  1

  0
SOLID
  5
EC95
  8
0
  6
BYBLOCK
 62
     0
 10
0.0
 20
0.0
 30
0.0
 11
-1.0
 21
0.1666666667
 31
0.0
 12
-1.0
 22
-0.1666666667
 32
0.0
 13
-1.0
 23
-0.1666666667
 33
0.0
  0
ENDBLK
  5
EC96
  8
0
  6
BYBLOCK
 62
     0
  0
ENDSEC
  0
SECTION
  2
ENTITIES
  0
ATTDEF
  5
AF70
  8
DEFPOINTS
 10
470.3918735435640883
 20
96.461621135302039
 30
0.0
 40
0.001
  1
K-97384T-9
  3

  2
MODELNUMBER
 70
     0
1001
ACDBATTR
1070
     0
1070
     1
  0
ATTDEF
  5
AF71
  8
DEFPOINTS
 10
470.3918735435640883
 20
96.4599544686353738
 30
0.0
 40
0.001
  1
AVID
  3

  2
TRADENAME
 70
     0
1001
ACDBATTR
1070
     0
1070
     1
  0
ATTDEF
  5
AF72
  8
DEFPOINTS
 10
470.3918735435640883
 20
96.4582878019687229
 30
0.0
 40
0.001
  1
BATH AND SHOWER FAUCET
  3

  2
PRODUCT
 70
     0
1001
ACDBATTR
1070
     0
1070
     1
  0
ARC
  5
F1F8
  8
0
 10
466.2757480806836838
 20
113.8664947477817009
 30
0.0
 40
0.0394797022361402
 50
106.9278453429443942
 51
178.3687900141852083
  0
LINE
  5
F1F9
  8
0
 10
466.236284377306788
 20
113.8676185824808016
 30
0.0
 11
466.2349486352708254
 21
113.8065797910026049
 31
0.0
  0
ARC
  5
F1FA
  8
0
 10
466.1636297583855821
 20
113.7952793618211018
 30
0.0
 40
0.0722085999022637
 50
6.4016178231780279
 51
9.0036276076851021
  0
ARC
  5
F1FB
  8
0
 10
461.6634739676579215
 20
111.7794009904379067
 30
0.0
 40
4.9998689278986221
 50
22.8872508561064407
 51
23.8783750460522306
  0
ARC
  5
F1FC
  8
0
 10
464.730159564982614
 20
113.1299345695937006
 30
0.0
 40
1.650173671313429
 50
14.5104428287742593
 51
21.0982510952660185
  0
ARC
  5
F1FD
  8
0
 10
657.7608246123734261
 20
163.3616314930820863
 30
0.0
 40
197.8092497894774908
 50
194.5870054247413918
 51
195.8452651419825088
  0
ARC
  5
F1FE
  8
0
 10
463.3515454214127089
 20
108.3434372995208008
 30
0.0
 40
4.2379621462852377
 50
7.3952777285192832
 51
13.7637207325192907
  0
ARC
  5
F1FF
  8
0
 10
470.3448793165132997
 20
109.2873400856116035
 30
0.0
 40
2.8189217570273839
 50
188.1252274670821976
 51
194.3346337494920988
  0
ARC
  5
F200
  8
0
 10
465.442619656929196
 20
108.0332629192123051
 30
0.0
 40
2.2412028919103739
 50
5.1347256180621281
 51
14.3680851874328308
  0
ARC
  5
F201
  8
0
 10
466.1145622800390242
 20
108.129090065956305
 30
0.0
 40
1.563779025391467
 50
350.2912228098870173
 51
3.8410612875853851
  0
ARC
  5
F202
  8
0
 10
467.6676217951892909
 20
107.8635064769239023
 30
0.0
 40
0.0118258400427157
 50
170.9149626349546054
 51
187.469024647780202
  0
ARC
  5
F203
  8
0
 10
459.7876235429155258
 20
106.8274470572199988
 30
0.0
 40
7.9359909413087522
 50
6.3524717447398871
 51
7.4902967759279102
  0
ARC
  5
F204
  8
0
 10
443.4955993100201113
 20
105.1613487595127054
 30
0.0
 40
24.3127704515037202
 50
2.3059319175521402
 51
6.0066250073691734
  0
ARC
  5
F205
  8
0
 10
427.4822274078068745
 20
104.882735031894299
 30
0.0
 40
40.3260455367654771
 50
359.3292347231716235
 51
1.78602967824369
  0
ARC
  5
F206
  8
0
 10
389.1184388467274857
 20
106.7982518161540071
 30
0.0
 40
79.7222621766294139
 50
358.2841497142400726
 51
359.599158738733081
  0
ARC
  5
F207
  8
0
 10
453.8870350088042755
 20
106.6324220255246047
 30
0.0
 40
14.95685029805664
 50
358.4985518985566273
 51
11.2987234189305905
  0
ARC
  5
F208
  8
0
 10
449.711401841933025
 20
105.2316508174481982
 30
0.0
 40
19.3339830629812504
 50
12.9452046761692703
 51
20.4154928571819916
  0
ARC
  5
F209
  8
0
 10
456.033587546543913
 20
107.7358963229628017
 30
0.0
 40
12.5361635771861994
 50
19.7682653250522193
 51
26.7472106609670313
  0
ARC
  5
F20A
  8
0
 10
460.1882644660062738
 20
109.7193788774331011
 30
0.0
 40
7.9339698326801926
 50
27.45914200035687
 51
32.8841756277912722
  0
ARC
  5
F20B
  8
0
 10
466.7810378838212841
 20
113.9808253723288942
 30
0.0
 40
0.0838413551333616
 50
33.4738353572029226
 51
53.6051424550100819
  0
ARC
  5
F20C
  8
0
 10
466.7882543430208102
 20
113.981500623937194
 30
0.0
 40
0.0792008164069753
 50
57.5206183001672002
 51
87.915399197343703
  0
ARC
  5
F20D
  8
0
 10
466.7965594041212967
 20
113.9430509399563931
 30
0.0
 40
0.1177231110609129
 50
92.6408523333558662
 51
105.7670243233749972
  0
LINE
  5
F20E
  8
0
 10
466.7645709254630901
 20
114.0563446648973951
 30
0.0
 11
466.2642528876082224
 21
113.9042638810099959
 31
0.0
  0
LINE
  5
F20F
  8
0
 10
466.2465446919630949
 20
113.7779384637373994
 30
0.0
 11
466.2394601071450779
 21
113.7760052232550976
 31
0.0
  0
ARC
  5
F210
  8
0
 10
466.2426027651987965
 20
113.7644885869451059
 30
0.0
 40
0.0119377222089732
 50
105.2632555044954046
 51
179.5399821481861977
  0
LINE
  5
F211
  8
0
 10
466.2306654277527969
 20
113.7645844318114001
 30
0.0
 11
466.2356275513917012
 21
113.4380682917603025
 31
0.0
  0
ARC
  5
F212
  8
0
 10
466.2062881547909114
 20
113.4666377669675938
 30
0.0
 40
0.0292203209398747
 50
286.2701618476306749
 51
352.404202118398473
  0
ARC
  5
F213
  8
0
 10
465.9047238474810229
 20
114.499904472316004
 30
0.0
 40
1.105594380375001
 50
284.5198116937714872
 51
286.2701618476306749
  0
ARC
  5
F214
  8
0
 10
466.1885834830521844
 20
113.4035112394647058
 30
0.0
 40
0.0269491001077986
 50
104.3316203603014998
 51
184.5105813448967069
  0
LINE
  5
F215
  8
0
 10
466.1617178489706816
 20
113.4013918758766977
 30
0.0
 11
466.1660270920947937
 21
113.3204450496706954
 31
0.0
  0
ARC
  5
F216
  8
0
 10
466.1934019311162274
 20
113.3220337927855041
 30
0.0
 40
0.0274209029051607
 50
183.3215274513426039
 51
222.8489953820538858
  0
LINE
  5
F217
  8
0
 10
466.2446856274384004
 20
113.4064452057859
 30
0.0
 11
466.2415522260153011
 21
113.4467236630932945
 31
0.0
  0
ARC
  5
F218
  8
0
 10
466.1611669601717836
 20
113.4404702134026053
 30
0.0
 40
0.0806281377545626
 50
4.4482791953448109
 51
8.4474288865753042
  0
ARC
  5
F219
  8
0
 10
466.2035193556037029
 20
113.4467600988089941
 30
0.0
 40
0.037811224539757
 50
8.4474288865744978
 51
11.7165100031674392
  0
ARC
  5
F21A
  8
0
 10
466.2393343827088756
 20
113.4541877978430051
 30
0.0
 40
0.0012340885189196
 50
11.7165100031286507
 51
25.6240424027223703
  0
ARC
  5
F21B
  8
0
 10
466.240030460759499
 20
113.4545216617749048
 30
0.0
 40
0.000462084777018
 50
25.6240424026801499
 51
40.1854629179319573
  0
ARC
  5
F21C
  8
0
 10
466.2403370536400757
 20
113.4547806195350006
 30
0.0
 40
0.0000607640623924
 50
40.1854629168331314
 51
121.9727223844606954
  0
ARC
  5
F21D
  8
0
 10
466.2406544439791105
 20
113.4545581546530002
 30
0.0
 40
0.0004441602646495
 50
141.9084849025392998
 51
168.8741638832634919
  0
ARC
  5
F21E
  8
0
 10
466.2561559186523823
 20
113.4519935739860017
 30
0.0
 40
0.0161561490232173
 50
170.5584102778805971
 51
178.8644422196526875
  0
ARC
  5
F21F
  8
0
 10
466.1902256191057177
 20
113.4527901626233017
 30
0.0
 40
0.049779603240005
 50
355.152847121797322
 51
359.4516520388704066
  0
ARC
  5
F220
  8
0
 10
466.2150043413612934
 20
113.4525587914288991
 30
0.0
 40
0.0251390894996103
 50
336.7775250665233102
 51
350.9024212640202904
  0
ARC
  5
F221
  8
0
 10
466.2114806516322005
 20
113.4541046100333972
 30
0.0
 40
0.0289868292807409
 50
326.4112670072486253
 51
336.7158979083172881
  0
ARC
  5
F222
  8
0
 10
466.2119806876585812
 20
113.4539077018174993
 30
0.0
 40
0.0284615719061756
 50
286.2012774385759144
 51
326.1845854579274828
  0
ARC
  5
F223
  8
0
 10
466.3250853765042052
 20
113.0070868575583063
 30
0.0
 40
0.432470644797826
 50
104.0736667379457998
 51
108.4814447814568013
  0
ARC
  5
F224
  8
0
 10
466.193654503673315
 20
113.3918133295730968
 30
0.0
 40
0.0260623850588973
 50
102.5457577473113986
 51
171.4928001184478887
  0
ARC
  5
F225
  8
0
 10
466.2599966236359137
 20
113.3857224914829942
 30
0.0
 40
0.0926531662840404
 50
173.8374070416261077
 51
183.8417438176001042
  0
ARC
  5
F226
  8
0
 10
472.4725700549902854
 20
113.740527448654305
 30
0.0
 40
6.3153453780991056
 50
183.2770641010089889
 51
183.8748153874470859
  0
ARC
  5
F227
  8
0
 10
466.2383822148429999
 20
113.3189751504975931
 30
0.0
 40
0.0669249009430919
 50
184.471949024807401
 51
193.4701915983633
  0
ARC
  5
F228
  8
0
 10
466.2002467399128136
 20
113.3106635091653942
 30
0.0
 40
0.0279138500705956
 50
195.1130213651593124
 51
232.723681318477901
  0
ARC
  5
F229
  8
0
 10
466.1999217324133156
 20
113.3105061321154068
 30
0.0
 40
0.027592260724512
 50
233.0627769838737038
 51
257.8043014744611128
  0
ARC
  5
F22A
  8
0
 10
466.3593837398980213
 20
113.3465811903870986
 30
0.0
 40
0.0637613640561361
 50
171.4373491409886014
 51
180.6040859011671955
  0
ARC
  5
F22B
  8
0
 10
466.3067641130527932
 20
113.3545040787412006
 30
0.0
 40
0.0105486091077415
 50
157.4070180720746066
 51
171.4373491409805865
  0
ARC
  5
F22C
  8
0
 10
466.2980414639117726
 20
113.3581337136508012
 30
0.0
 40
0.0011009185109082
 50
59.883468325278848
 51
157.4070180720227938
  0
ARC
  5
F22D
  8
0
 10
466.2765507066238797
 20
113.3445044532041948
 30
0.0
 40
0.0264295785323474
 50
14.0575008768909306
 51
33.4846641223453929
  0
ARC
  5
F22E
  8
0
 10
465.8003581931017152
 20
113.217140019556993
 30
0.0
 40
0.5193574075940779
 50
8.8857689585593871
 51
14.9274272593688906
  0
ARC
  5
F22F
  8
0
 10
465.3323570739722186
 20
113.1304653580528026
 30
0.0
 40
0.9952193721908933
 50
4.679937542067881
 51
9.6540554610391656
  0
ARC
  5
F230
  8
0
 10
466.110438663077673
 20
113.1910019693680027
 30
0.0
 40
0.2148158154950223
 50
355.5584879054014209
 51
5.5197434936477707
  0
ARC
  5
F231
  8
0
 10
466.3114460747374892
 20
113.1758195025745977
 30
0.0
 40
0.0132432605887001
 50
335.6069192805122157
 51
353.700306360944694
  0
ARC
  5
F232
  8
0
 10
466.3216011859848891
 20
113.1712341259424051
 30
0.0
 40
0.0021010017190104
 50
301.0806647910745824
 51
335.1174515454462153
  0
ARC
  5
F233
  8
0
 10
466.322264433912494
 20
113.1704768906394065
 30
0.0
 40
0.0011241167700033
 50
237.5199400115180026
 51
292.0154352622320744
  0
ARC
  5
F234
  8
0
 10
466.3360845782277124
 20
113.1820899277458068
 30
0.0
 40
0.0191267551368978
 50
195.6337850829607987
 51
221.0517678597151985
  0
ARC
  5
F235
  8
0
 10
466.4126601187700771
 20
113.2103450157909066
 30
0.0
 40
0.1006984837270954
 50
195.7165318971763952
 51
199.3767115513394117
  0
ARC
  5
F236
  8
0
 10
466.2974883484575912
 20
113.1700902427432993
 30
0.0
 40
0.0223841007625947
 50
35.4347390382984031
 51
49.5066427822846507
  0
ARC
  5
F237
  8
0
 10
466.2947437284381067
 20
113.1667880260543058
 30
0.0
 40
0.0266776818927338
 50
49.6292659918670012
 51
105.5960523541715048
  0
ARC
  5
F238
  8
0
 10
464.8588876420096199
 20
118.3684302946440994
 30
0.0
 40
5.369503021478911
 50
285.2892306273129179
 51
285.4307637922071876
  0
ARC
  5
F239
  8
0
 10
466.2681362597410839
 20
113.216679684009307
 30
0.0
 40
0.0284952160284676
 50
232.2474633805358053
 51
283.4853884116459994
  0
ARC
  5
F23A
  8
0
 10
466.2757675321834085
 20
113.2226378735284982
 30
0.0
 40
0.0379534610706581
 50
193.3432717614209082
 51
228.643336918979287
  0
ARC
  5
F23B
  8
0
 10
466.5597766863789957
 20
113.2916592820288031
 30
0.0
 40
0.3302287686052489
 50
186.3523564898322888
 51
193.6231705141607051
  0
ARC
  5
F23C
  8
0
 10
466.6711358185513063
 20
113.3040564545889026
 30
0.0
 40
0.4422758399888894
 50
182.2634892037939949
 51
186.352356489831493
  0
ARC
  5
F23D
  8
0
 10
466.2754497727493117
 20
113.2884166060666047
 30
0.0
 40
0.0462808252421438
 50
152.9196766258806974
 51
182.2634892037931991
  0
ARC
  5
F23E
  8
0
 10
466.2589065423039187
 20
113.2937470217449061
 30
0.0
 40
0.0292574896707947
 50
122.6311738117739054
 51
147.4572872894387103
  0
ARC
  5
F23F
  8
0
 10
466.2793535722919955
 20
113.2416929173045048
 30
0.0
 40
0.0848177250908332
 50
102.4449662931194069
 51
115.2820668075516011
  0
ARC
  5
F240
  8
0
 10
684.4675434927543165
 20
-679.1241870709633304
 30
0.0
 40
821.9422197004516875
 50
105.394088465630702
 51
105.3952774294143069
  0
ARC
  5
F241
  8
0
 10
466.2706367265752192
 20
113.3545879557769069
 30
0.0
 40
0.0264534485741384
 50
285.0812631244120894
 51
340.8473525993907742
  0
ARC
  5
F242
  8
0
 10
466.2133680262047051
 20
113.3259354561411953
 30
0.0
 40
0.0660484752423873
 50
282.2383264110039249
 51
285.3402939900939259
  0
ARC
  5
F243
  8
0
 10
466.221541105168285
 20
113.2882555134407028
 30
0.0
 40
0.0274923174767049
 50
221.7563350337318013
 51
282.2383264110005143
  0
ARC
  5
F244
  8
0
 10
466.2229850194996743
 20
113.289544543111603
 30
0.0
 40
0.0294279016492044
 50
198.2147486697855925
 51
221.7563350337331087
  0
ARC
  5
F245
  8
0
 10
466.2448352314438011
 20
113.2967347603232042
 30
0.0
 40
0.0524307489849882
 50
194.5796685262237133
 51
198.214748669789401
  0
ARC
  5
F246
  8
0
 10
466.5763985384130024
 20
113.3536015200219964
 30
0.0
 40
0.3886730654523706
 50
184.1263107140426882
 51
190.385314023416214
  0
ARC
  5
F247
  8
0
 10
466.5249640406501044
 20
113.3607860200767021
 30
0.0
 40
0.338063559226222
 50
178.722035969891806
 51
185.968380909529202
  0
ARC
  5
F248
  8
0
 10
466.2157948012418274
 20
113.3676830848404933
 30
0.0
 40
0.0288173982174621
 50
141.4972954691046141
 51
178.7220359698943071
  0
ARC
  5
F249
  8
0
 10
466.2152791803691798
 20
113.3680932679419016
 30
0.0
 40
0.0281585241317393
 50
105.8038173478271062
 51
141.4972954691027098
  0
ARC
  5
F24A
  8
0
 10
466.8141918335956007
 20
111.2521189288824957
 30
0.0
 40
2.2272591970779558
 50
104.9898994364787939
 51
105.8038173478271062
  0
ARC
  5
F24B
  8
0
 10
466.2318520216385878
 20
113.4269742262976024
 30
0.0
 40
0.0242103721778355
 50
284.9898994364755254
 51
302.0113395161076824
  0
ARC
  5
F24C
  8
0
 10
466.2278937647859038
 20
113.433305972603705
 30
0.0
 40
0.0316775542832799
 50
302.0113395161031917
 51
321.4274893585355244
  0
ARC
  5
F24D
  8
0
 10
466.2366569444440074
 20
113.4267744641819036
 30
0.0
 40
0.0207569798893199
 50
320.4408477305693168
 51
352.9931175634870897
  0
ARC
  5
F24E
  8
0
 10
466.3380645140430261
 20
113.4222227573337989
 30
0.0
 40
0.0808308472244307
 50
175.1581551461740958
 51
178.5682919515340075
  0
ARC
  5
F24F
  8
0
 10
466.2794670761817883
 20
113.4271035639725937
 30
0.0
 40
0.0220307027726086
 50
168.8089483405657063
 51
174.9434338412187913
  0
ARC
  5
F250
  8
0
 10
466.2601747516794717
 20
113.4310691998223035
 30
0.0
 40
0.0023401135340287
 50
147.4846138980614114
 51
172.384852827816303
  0
ARC
  5
F251
  8
0
 10
466.2584504805153074
 20
113.4320309098397956
 30
0.0
 40
0.0003869422750494
 50
40.0593227611786276
 51
130.0582372678995
  0
ARC
  5
F252
  8
0
 10
466.2521596291434776
 20
113.4283963644950006
 30
0.0
 40
0.0076462658104045
 50
11.8104357337169397
 51
30.5384297912876015
  0
ARC
  5
F253
  8
0
 10
465.221460449772394
 20
113.2128761573684983
 30
0.0
 40
1.0606371290358449
 50
11.3590481215231502
 51
11.8104357337169397
  0
ARC
  5
F254
  8
0
 10
465.337163893794127
 20
113.2795026928311017
 30
0.0
 40
0.9350453814677209
 50
5.7410580553358601
 51
8.7519049607971482
  0
ARC
  5
F255
  8
0
 10
464.1699101408613046
 20
113.1502540404620021
 30
0.0
 40
2.1094066679278072
 50
4.8196826604491649
 51
6.0625692230716357
  0
ARC
  5
F256
  8
0
 10
466.1873135619266009
 20
113.3440143321256954
 30
0.0
 40
0.002243443663533
 50
10.4109589035022196
 51
29.6414389074574416
  0
ARC
  5
F257
  8
0
 10
466.1556551155745183
 20
113.3359544427705003
 30
0.0
 40
0.034906968966685
 50
8.6819458431853285
 51
14.0347417339604803
  0
ARC
  5
F258
  8
0
 10
465.932942154077125
 20
113.3030366076374946
 30
0.0
 40
0.2600391327549474
 50
5.3521828356320498
 51
8.4444839379063268
  0
ARC
  5
F259
  8
0
 10
465.7594963658286815
 20
113.2842700711165946
 30
0.0
 40
0.434486446604547
 50
3.4282344909459961
 51
5.6826699350874561
  0
ARC
  5
F25A
  8
0
 10
466.0451581402793977
 20
113.300302838568598
 30
0.0
 40
0.1483810532055839
 50
0.0898233775271091
 51
3.8444993240151151
  0
ARC
  5
F25B
  8
0
 10
466.1712394298585878
 20
113.3004117295003965
 30
0.0
 40
0.0222999245326703
 50
353.8784358844844746
 51
0.3178991679539814
  0
ARC
  5
F25C
  8
0
 10
466.1898844771719723
 20
113.2985105704824065
 30
0.0
 40
0.0035598052037022
 50
342.8955665778576076
 51
352.301587600545588
  0
ARC
  5
F25D
  8
0
 10
466.1931120375359114
 20
113.2975366451156987
 30
0.0
 40
0.0001894514970199
 50
304.3859229170327012
 51
337.3151755003016774
  0
ARC
  5
F25E
  8
0
 10
466.1931663614146828
 20
113.2974572652614
 30
0.0
 40
0.0000932629058422
 50
236.1102164792594067
 51
304.3859229175131986
  0
ARC
  5
F25F
  8
0
 10
466.1938407197312131
 20
113.2980417581132002
 30
0.0
 40
0.0009827144837928
 50
199.6486683385249989
 51
222.3419771418519133
  0
ARC
  5
F260
  8
0
 10
466.2482561207270919
 20
113.3117818580686986
 30
0.0
 40
0.057101616809815
 50
186.3493758699007969
 51
194.2653101794172983
  0
ARC
  5
F261
  8
0
 10
466.5901463663108188
 20
113.3546324351454047
 30
0.0
 40
0.4016620130325414
 50
183.5310982036463088
 51
187.0309301317857091
  0
ARC
  5
F262
  8
0
 10
466.3614814796125074
 20
113.342161732714402
 30
0.0
 40
0.1726709240528408
 50
179.6228534429824037
 51
184.074133610128996
  0
ARC
  5
F263
  8
0
 10
466.1973733534420035
 20
113.3432484088343983
 30
0.0
 40
0.0085592026345688
 50
167.6898188125352931
 51
179.6658759951889124
  0
ARC
  5
F264
  8
0
 10
466.1892197466523271
 20
113.3450382953976003
 30
0.0
 40
0.0002117082226376
 50
118.292143718618405
 51
170.4923898087010059
  0
ARC
  5
F265
  8
0
 10
466.1891418583834934
 20
113.3451441694876962
 30
0.0
 40
0.0000836154110723
 50
40.7270739119806819
 51
105.5777344393890047
  0
ARC
  5
F266
  8
0
 10
466.1889361808819103
 20
113.3449294873203996
 30
0.0
 40
0.0003806221952186
 50
30.7108736693335516
 51
45.02066551369618
  0
ARC
  5
F267
  8
0
 10
466.1684803462367768
 20
113.367873214467906
 30
0.0
 40
0.002243443663533
 50
10.4109589035022196
 51
29.6414389074574416
  0
ARC
  5
F268
  8
0
 10
466.1368218998846942
 20
113.3598133251125972
 30
0.0
 40
0.034906968966685
 50
8.6819458431853285
 51
14.0347417339604803
  0
ARC
  5
F269
  8
0
 10
465.9141089383873009
 20
113.3268954899796057
 30
0.0
 40
0.2600391327549474
 50
5.3521828356320498
 51
8.4444839379063268
  0
ARC
  5
F26A
  8
0
 10
465.7406631501389143
 20
113.3081289534588052
 30
0.0
 40
0.434486446604547
 50
3.4282344909459961
 51
5.6826699350874561
  0
ARC
  5
F26B
  8
0
 10
466.0263249245895736
 20
113.3241617209106948
 30
0.0
 40
0.1483810532055839
 50
0.0898233775271091
 51
3.8444993240151151
  0
ARC
  5
F26C
  8
0
 10
466.1524062141688205
 20
113.3242706118424934
 30
0.0
 40
0.0222999245326703
 50
353.8784358844844746
 51
0.3178991679539814
  0
ARC
  5
F26D
  8
0
 10
466.1710512614820914
 20
113.3223694528245034
 30
0.0
 40
0.0035598052037022
 50
342.8955665778576076
 51
352.301587600545588
  0
ARC
  5
F26E
  8
0
 10
466.1742788218460873
 20
113.321395527457895
 30
0.0
 40
0.0001894514970199
 50
304.3859229170327012
 51
337.3151755003016774
  0
ARC
  5
F26F
  8
0
 10
466.1743331457249155
 20
113.3213161476035964
 30
0.0
 40
0.0000932629058422
 50
236.1102164792594067
 51
304.3859229175131986
  0
ARC
  5
F270
  8
0
 10
466.175007504041389
 20
113.3219006404553966
 30
0.0
 40
0.0009827144837928
 50
199.6486683385249989
 51
222.3419771418519133
  0
ARC
  5
F271
  8
0
 10
466.2294229050373247
 20
113.335640740410895
 30
0.0
 40
0.057101616809815
 50
186.3493758699007969
 51
194.2653101794172983
  0
ARC
  5
F272
  8
0
 10
466.5713131506208811
 20
113.378491317487601
 30
0.0
 40
0.4016620130325414
 50
183.5310982036463088
 51
187.0309301317857091
  0
ARC
  5
F273
  8
0
 10
466.3426482639226265
 20
113.3660206150565983
 30
0.0
 40
0.1726709240528408
 50
179.6228534429824037
 51
184.074133610128996
  0
ARC
  5
F274
  8
0
 10
466.1785401377521794
 20
113.3671072911765947
 30
0.0
 40
0.0085592026345688
 50
167.6898188125352931
 51
179.6658759951889124
  0
ARC
  5
F275
  8
0
 10
466.1703865309623893
 20
113.3688971777396972
 30
0.0
 40
0.0002117082226376
 50
118.292143718618405
 51
170.4923898087010059
  0
ARC
  5
F276
  8
0
 10
466.1703086426937261
 20
113.3690030518297931
 30
0.0
 40
0.0000836154110723
 50
40.7270739119806819
 51
105.5777344393890047
  0
ARC
  5
F277
  8
0
 10
466.1701029651920862
 20
113.3687883696624965
 30
0.0
 40
0.0003806221952186
 50
30.7108736693335516
 51
45.02066551369618
  0
ARC
  5
F278
  8
0
 10
466.2329112806958165
 20
113.270648526662697
 30
0.0
 40
0.002243443663533
 50
10.4109589035022196
 51
29.6414389074574416
  0
ARC
  5
F279
  8
0
 10
466.201252834343677
 20
113.2625886373074025
 30
0.0
 40
0.034906968966685
 50
8.6819458431853285
 51
14.0347417339604803
  0
ARC
  5
F27A
  8
0
 10
465.9785398728462837
 20
113.2296708021743967
 30
0.0
 40
0.2600391327549474
 50
5.3521828356320498
 51
8.4444839379063268
  0
ARC
  5
F27B
  8
0
 10
465.8050940845980108
 20
113.2109042656534967
 30
0.0
 40
0.434486446604547
 50
3.4282344909459961
 51
5.6826699350874561
  0
ARC
  5
F27C
  8
0
 10
466.0907558590486133
 20
113.2269370331055001
 30
0.0
 40
0.1483810532055839
 50
0.0898233775271091
 51
3.8444993240151151
  0
ARC
  5
F27D
  8
0
 10
466.2168371486278033
 20
113.2270459240372986
 30
0.0
 40
0.0222999245326703
 50
353.8784358844844746
 51
0.3178991679539814
  0
ARC
  5
F27E
  8
0
 10
466.2354821959410742
 20
113.2251447650192944
 30
0.0
 40
0.0035598052037022
 50
342.8955665778576076
 51
352.301587600545588
  0
ARC
  5
F27F
  8
0
 10
466.238709756305127
 20
113.2241708396526008
 30
0.0
 40
0.0001894514970199
 50
304.3859229170327012
 51
337.3151755003016774
  0
ARC
  5
F280
  8
0
 10
466.2387640801837847
 20
113.2240914597983021
 30
0.0
 40
0.0000932629058422
 50
236.1102164792594067
 51
304.3859229175131986
  0
ARC
  5
F281
  8
0
 10
466.2394384385003718
 20
113.2246759526501023
 30
0.0
 40
0.0009827144837928
 50
199.6486683385249989
 51
222.3419771418519133
  0
ARC
  5
F282
  8
0
 10
466.2938538394961938
 20
113.2384160526056007
 30
0.0
 40
0.057101616809815
 50
186.3493758699007969
 51
194.2653101794172983
  0
ARC
  5
F283
  8
0
 10
466.6357440850799208
 20
113.2812666296823068
 30
0.0
 40
0.4016620130325414
 50
183.5310982036463088
 51
187.0309301317857091
  0
ARC
  5
F284
  8
0
 10
466.4070791983816093
 20
113.2687959272513041
 30
0.0
 40
0.1726709240528408
 50
179.6228534429824037
 51
184.074133610128996
  0
ARC
  5
F285
  8
0
 10
466.2429710722112191
 20
113.2698826033713004
 30
0.0
 40
0.0085592026345688
 50
167.6898188125352931
 51
179.6658759951889124
  0
ARC
  5
F286
  8
0
 10
466.2348174654213722
 20
113.2716724899345024
 30
0.0
 40
0.0002117082226376
 50
118.292143718618405
 51
170.4923898087010059
  0
ARC
  5
F287
  8
0
 10
466.234739577152709
 20
113.2717783640245983
 30
0.0
 40
0.0000836154110723
 50
40.7270739119806819
 51
105.5777344393890047
  0
ARC
  5
F288
  8
0
 10
466.2345338996511259
 20
113.2715636818573017
 30
0.0
 40
0.0003806221952186
 50
30.7108736693335516
 51
45.02066551369618
  0
ARC
  5
F289
  8
0
 10
466.1155990711793038
 20
112.3220982112182043
 30
0.0
 40
0.4404371077961129
 50
6.6874416223605122
 51
13.2618710430601503
  0
ARC
  5
F28A
  8
0
 10
466.3334463800356957
 20
112.3476409818804029
 30
0.0
 40
0.2210974554095047
 50
0.5952805693978006
 51
6.6874416223588939
  0
ARC
  5
F28B
  8
0
 10
466.4731827667222888
 20
112.3490928401094067
 30
0.0
 40
0.0813535265375987
 50
347.5213760978124924
 51
0.5952805693978006
  0
ARC
  5
F28C
  8
0
 10
466.5435175515954143
 20
112.3335275218554017
 30
0.0
 40
0.0093170004172256
 50
332.127909742969905
 51
347.5213760978109008
  0
ARC
  5
F28D
  8
0
 10
466.540270777586727
 20
112.3352445757899005
 30
0.0
 40
0.0129898488591793
 50
316.6496801069361027
 51
332.1279097429808189
  0
ARC
  5
F28E
  8
0
 10
466.5476168532404131
 20
112.3283097932559969
 30
0.0
 40
0.0028875700913796
 50
264.7416780593799785
 51
316.649680106964297
  0
ARC
  5
F28F
  8
0
 10
466.5479446594296746
 20
112.3318716045200034
 30
0.0
 40
0.0064644341338394
 50
243.1846991259999982
 51
264.7416780593637213
  0
ARC
  5
F290
  8
0
 10
466.5572420515557042
 20
112.3441732945291989
 30
0.0
 40
0.0218112847146872
 50
210.9322906706815957
 51
235.9464799032228939
  0
ARC
  5
F291
  8
0
 10
466.6060947044612135
 20
112.3772352108920956
 30
0.0
 40
0.0807758661428903
 50
205.8996835226130031
 51
213.2369358246187971
  0
ARC
  5
F292
  8
0
 10
466.5230096991992923
 20
112.3345342062149967
 30
0.0
 40
0.0127927886864253
 50
35.4425478992932099
 51
56.6920086396517107
  0
ARC
  5
F293
  8
0
 10
466.5205125658347924
 20
112.3226774601573936
 30
0.0
 40
0.0244762556996301
 50
67.1054374380601217
 51
105.0766286771061004
  0
ARC
  5
F294
  8
0
 10
465.8138619071490893
 20
114.8727244317516067
 30
0.0
 40
2.6216715279059399
 50
285.0801343026953987
 51
285.4925812503498719
  0
ARC
  5
F295
  8
0
 10
466.4894224857267773
 20
112.3714964621232042
 30
0.0
 40
0.0308572597805068
 50
213.9549178866367072
 51
282.1964357332469717
  0
ARC
  5
F296
  8
0
 10
466.5777178275087067
 20
112.4227062190622064
 30
0.0
 40
0.1328750869583456
 50
191.0406655683011081
 51
211.0045551080168877
  0
ARC
  5
F297
  8
0
 10
466.6253109181380978
 20
112.4405527935527971
 30
0.0
 40
0.1831977892772341
 50
181.1842357016091114
 51
193.6693174152667041
  0
ARC
  5
F298
  8
0
 10
466.4808102598826167
 20
112.4388439001994016
 30
0.0
 40
0.0387137742946708
 50
140.0743249413933995
 51
183.0758749419420042
  0
ARC
  5
F299
  8
0
 10
466.4725743705106993
 20
112.4439713417284992
 30
0.0
 40
0.0291385549695079
 50
105.4539302993498069
 51
137.4117164272743992
  0
ARC
  5
F29A
  8
0
 10
761.6829539108664449
 20
-959.6152907373544849
 30
0.0
 40
1111.9914713543280413
 50
105.3946544557776974
 51
105.3958317140071017
  0
ARC
  5
F29B
  8
0
 10
466.4821917138024219
 20
112.4977065899252011
 30
0.0
 40
0.0201282359872012
 50
283.3470284637148211
 51
336.3414776724728767
  0
ARC
  5
F29C
  8
0
 10
466.5837363840502121
 20
112.4895799018813989
 30
0.0
 40
0.0831081601849189
 50
171.8070063284135927
 51
179.9658514619517007
  0
ARC
  5
F29D
  8
0
 10
466.5206392359992265
 20
112.4993989421615055
 30
0.0
 40
0.0192694303625214
 50
148.0006193762532973
 51
173.9691293290267993
  0
ARC
  5
F29E
  8
0
 10
466.5074483913343784
 20
112.506194151454693
 30
0.0
 40
0.0046470198012067
 50
55.3792051605465971
 51
132.6873857075254932
  0
ARC
  5
F29F
  8
0
 10
466.4301765475203752
 20
112.4434484618155068
 30
0.0
 40
0.1040070980612172
 50
15.5571561331335104
 51
39.7956336986668404
  0
ARC
  5
F2A0
  8
0
 10
466.1029620632451724
 20
112.3218390076326045
 30
0.0
 40
0.4528043056890389
 50
12.9269723443069307
 51
19.2793234645483409
  0
ARC
  5
F2A1
  8
0
 10
466.4549368152138982
 20
112.4186752851887974
 30
0.0
 40
0.0076445180078591
 50
156.643736898165912
 51
177.1384472939946875
  0
ARC
  5
F2A2
  8
0
 10
466.4490384558848177
 20
112.4212223892750018
 30
0.0
 40
0.0012196925626757
 50
128.2592180107180013
 51
156.6437368982869884
  0
ARC
  5
F2A3
  8
0
 10
466.4489299621338887
 20
112.4213599674097992
 30
0.0
 40
0.0010444822971991
 50
41.0594386649774989
 51
128.2592180109047035
  0
ARC
  5
F2A4
  8
0
 10
466.4181428430692904
 20
112.3993369866130934
 30
0.0
 40
0.0388929487995592
 50
13.7030365674983905
 51
35.7243153021709787
  0
ARC
  5
F2A5
  8
0
 10
466.3463321339988283
 20
112.3753313427671969
 30
0.0
 40
0.114520400732351
 50
5.1270124854257109
 51
16.8621717974701291
  0
ARC
  5
F2A6
  8
0
 10
466.4289961973545928
 20
112.3827589598062957
 30
0.0
 40
0.0315233137472356
 50
352.8262156663276983
 51
5.107531312612708
  0
ARC
  5
F2A7
  8
0
 10
466.4563593767931025
 20
112.3792026212721993
 30
0.0
 40
0.0039318004451346
 50
324.2210631574025115
 51
354.4498744823092125
  0
ARC
  5
F2A8
  8
0
 10
466.4587938713734729
 20
112.3774125260955969
 30
0.0
 40
0.0009106097089856
 50
239.2873214325400966
 51
326.0407685269420881
  0
ARC
  5
F2A9
  8
0
 10
466.4674046174844193
 20
112.3865743675014954
 30
0.0
 40
0.0134635885147087
 50
199.0885885120339083
 51
227.6155876276083063
  0
ARC
  5
F2AA
  8
0
 10
466.5549242081316947
 20
112.4221959898535061
 30
0.0
 40
0.107937959331763
 50
188.8613748220990942
 51
201.7656612362085866
  0
ARC
  5
F2AB
  8
0
 10
466.5073970516592112
 20
112.4166118624475956
 30
0.0
 40
0.0601449420990958
 50
177.6701260962819049
 51
190.5799970835954014
  0
ARC
  5
F2AC
  8
0
 10
466.1195434835240121
 20
112.0030271453977946
 30
0.0
 40
0.4404371077961129
 50
6.6874416223605122
 51
13.2618710430601503
  0
ARC
  5
F2AD
  8
0
 10
466.337390792380404
 20
112.0285699160599933
 30
0.0
 40
0.2210974554095047
 50
0.5952805693978006
 51
6.6874416223588939
  0
ARC
  5
F2AE
  8
0
 10
466.4771271790668834
 20
112.030021774288997
 30
0.0
 40
0.0813535265375987
 50
347.5213760978124924
 51
0.5952805693978006
  0
ARC
  5
F2AF
  8
0
 10
466.5474619639400089
 20
112.0144564560349068
 30
0.0
 40
0.0093170004172256
 50
332.127909742969905
 51
347.5213760978109008
  0
ARC
  5
F2B0
  8
0
 10
466.5442151899313785
 20
112.0161735099695051
 30
0.0
 40
0.0129898488591793
 50
316.6496801069361027
 51
332.1279097429808189
  0
ARC
  5
F2B1
  8
0
 10
466.5515612655851214
 20
112.0092387274356014
 30
0.0
 40
0.0028875700913796
 50
264.7416780593799785
 51
316.649680106964297
  0
ARC
  5
F2B2
  8
0
 10
466.551889071774383
 20
112.0128005386995937
 30
0.0
 40
0.0064644341338394
 50
243.1846991259999982
 51
264.7416780593637213
  0
ARC
  5
F2B3
  8
0
 10
466.5611864639004125
 20
112.0251022287088034
 30
0.0
 40
0.0218112847146872
 50
210.9322906706815957
 51
235.9464799032228939
  0
ARC
  5
F2B4
  8
0
 10
466.6100391168059218
 20
112.0581641450717001
 30
0.0
 40
0.0807758661428903
 50
205.8996835226130031
 51
213.2369358246187971
  0
ARC
  5
F2B5
  8
0
 10
466.5269541115438869
 20
112.0154631403946013
 30
0.0
 40
0.0127927886864253
 50
35.4425478992932099
 51
56.6920086396517107
  0
ARC
  5
F2B6
  8
0
 10
466.5244569781795008
 20
112.0036063943369982
 30
0.0
 40
0.0244762556996301
 50
67.1054374380601217
 51
105.0766286771061004
  0
ARC
  5
F2B7
  8
0
 10
465.817806319493684
 20
114.5536533659311971
 30
0.0
 40
2.6216715279059399
 50
285.0801343026953987
 51
285.4925812503498719
  0
ARC
  5
F2B8
  8
0
 10
466.4933668980713719
 20
112.0524253963027945
 30
0.0
 40
0.0308572597805068
 50
213.9549178866367072
 51
282.1964357332469717
  0
ARC
  5
F2B9
  8
0
 10
466.581662239853415
 20
112.1036351532417967
 30
0.0
 40
0.1328750869583456
 50
191.0406655683011081
 51
211.0045551080168877
  0
ARC
  5
F2BA
  8
0
 10
466.6292553304828061
 20
112.1214817277324016
 30
0.0
 40
0.1831977892772341
 50
181.1842357016091114
 51
193.6693174152667041
  0
ARC
  5
F2BB
  8
0
 10
466.4847546722272114
 20
112.1197728343789066
 30
0.0
 40
0.0387137742946708
 50
140.0743249413933995
 51
183.0758749419420042
  0
ARC
  5
F2BC
  8
0
 10
466.4765187828554076
 20
112.1249002759081037
 30
0.0
 40
0.0291385549695079
 50
105.4539302993498069
 51
137.4117164272743992
  0
ARC
  5
F2BD
  8
0
 10
761.6868983232112669
 20
-959.9343618031747383
 30
0.0
 40
1111.9914713543280413
 50
105.3946544557776974
 51
105.3958317140071017
  0
ARC
  5
F2BE
  8
0
 10
466.4861361261470734
 20
112.1786355241048057
 30
0.0
 40
0.0201282359872012
 50
283.3470284637148211
 51
336.3414776724728767
  0
ARC
  5
F2BF
  8
0
 10
466.5876807963948067
 20
112.1705088360609039
 30
0.0
 40
0.0831081601849189
 50
171.8070063284135927
 51
179.9658514619517007
  0
ARC
  5
F2C0
  8
0
 10
466.5245836483438211
 20
112.1803278763410958
 30
0.0
 40
0.0192694303625214
 50
148.0006193762532973
 51
173.9691293290267993
  0
ARC
  5
F2C1
  8
0
 10
466.5113928036792004
 20
112.1871230856342976
 30
0.0
 40
0.0046470198012067
 50
55.3792051605465971
 51
132.6873857075254932
  0
ARC
  5
F2C2
  8
0
 10
466.4341209598650835
 20
112.1243773959950971
 30
0.0
 40
0.1040070980612172
 50
15.5571561331335104
 51
39.7956336986668404
  0
ARC
  5
F2C3
  8
0
 10
466.1069064755898239
 20
112.0027679418121949
 30
0.0
 40
0.4528043056890389
 50
12.9269723443069307
 51
19.2793234645483409
  0
ARC
  5
F2C4
  8
0
 10
466.4588812275584928
 20
112.0996042193684019
 30
0.0
 40
0.0076445180078591
 50
156.643736898165912
 51
177.1384472939946875
  0
ARC
  5
F2C5
  8
0
 10
466.452982868229526
 20
112.1021513234546063
 30
0.0
 40
0.0012196925626757
 50
128.2592180107180013
 51
156.6437368982869884
  0
ARC
  5
F2C6
  8
0
 10
466.452874374478597
 20
112.1022889015894037
 30
0.0
 40
0.0010444822971991
 50
41.0594386649774989
 51
128.2592180109047035
  0
ARC
  5
F2C7
  8
0
 10
466.4220872554141124
 20
112.0802659207926979
 30
0.0
 40
0.0388929487995592
 50
13.7030365674983905
 51
35.7243153021709787
  0
ARC
  5
F2C8
  8
0
 10
466.3502765463434798
 20
112.0562602769468015
 30
0.0
 40
0.114520400732351
 50
5.1270124854257109
 51
16.8621717974701291
  0
ARC
  5
F2C9
  8
0
 10
466.4329406096991875
 20
112.0636878939858008
 30
0.0
 40
0.0315233137472356
 50
352.8262156663276983
 51
5.107531312612708
  0
ARC
  5
F2CA
  8
0
 10
466.4603037891379245
 20
112.0601315554518038
 30
0.0
 40
0.0039318004451346
 50
324.2210631574025115
 51
354.4498744823092125
  0
ARC
  5
F2CB
  8
0
 10
466.4627382837181244
 20
112.0583414602752015
 30
0.0
 40
0.0009106097089856
 50
239.2873214325400966
 51
326.0407685269420881
  0
ARC
  5
F2CC
  8
0
 10
466.4713490298290139
 20
112.0675033016811
 30
0.0
 40
0.0134635885147087
 50
199.0885885120339083
 51
227.6155876276083063
  0
ARC
  5
F2CD
  8
0
 10
466.5588686204762894
 20
112.1031249240330965
 30
0.0
 40
0.107937959331763
 50
188.8613748220990942
 51
201.7656612362085866
  0
ARC
  5
F2CE
  8
0
 10
466.5113414640038059
 20
112.0975407966272002
 30
0.0
 40
0.0601449420990958
 50
177.6701260962819049
 51
190.5799970835954014
  0
ARC
  5
F2CF
  8
0
 10
466.2416762478356986
 20
111.8213180199225008
 30
0.0
 40
0.4404371077961129
 50
6.6874416223605122
 51
13.2618710430601503
  0
ARC
  5
F2D0
  8
0
 10
466.4595235566920906
 20
111.8468607905847989
 30
0.0
 40
0.2210974554095047
 50
0.5952805693978006
 51
6.6874416223588939
  0
ARC
  5
F2D1
  8
0
 10
466.5992599433787973
 20
111.8483126488137032
 30
0.0
 40
0.0813535265375987
 50
347.5213760978124924
 51
0.5952805693978006
  0
ARC
  5
F2D2
  8
0
 10
466.6695947282518091
 20
111.8327473305596982
 30
0.0
 40
0.0093170004172256
 50
332.127909742969905
 51
347.5213760978109008
  0
ARC
  5
F2D3
  8
0
 10
466.6663479542431787
 20
111.834464384494197
 30
0.0
 40
0.0129898488591793
 50
316.6496801069361027
 51
332.1279097429808189
  0
ARC
  5
F2D4
  8
0
 10
466.6736940298969216
 20
111.827529601960407
 30
0.0
 40
0.0028875700913796
 50
264.7416780593799785
 51
316.649680106964297
  0
ARC
  5
F2D5
  8
0
 10
466.6740218360861832
 20
111.8310914132243994
 30
0.0
 40
0.0064644341338394
 50
243.1846991259999982
 51
264.7416780593637213
  0
ARC
  5
F2D6
  8
0
 10
466.6833192282122127
 20
111.8433931032335948
 30
0.0
 40
0.0218112847146872
 50
210.9322906706815957
 51
235.9464799032228939
  0
ARC
  5
F2D7
  8
0
 10
466.732171881117722
 20
111.8764550195964063
 30
0.0
 40
0.0807758661428903
 50
205.8996835226130031
 51
213.2369358246187971
  0
ARC
  5
F2D8
  8
0
 10
466.6490868758558008
 20
111.8337540149194069
 30
0.0
 40
0.0127927886864253
 50
35.4425478992932099
 51
56.6920086396517107
  0
ARC
  5
F2D9
  8
0
 10
466.646589742491301
 20
111.8218972688618038
 30
0.0
 40
0.0244762556996301
 50
67.1054374380601217
 51
105.0766286771061004
  0
ARC
  5
F2DA
  8
0
 10
465.9399390838054842
 20
114.3719442404559032
 30
0.0
 40
2.6216715279059399
 50
285.0801343026953987
 51
285.4925812503498719
  0
ARC
  5
F2DB
  8
0
 10
466.6154996623831721
 20
111.8707162708275007
 30
0.0
 40
0.0308572597805068
 50
213.9549178866367072
 51
282.1964357332469717
  0
ARC
  5
F2DC
  8
0
 10
466.7037950041652152
 20
111.9219260277666024
 30
0.0
 40
0.1328750869583456
 50
191.0406655683011081
 51
211.0045551080168877
  0
ARC
  5
F2DD
  8
0
 10
466.75138809479472
 20
111.9397726022571931
 30
0.0
 40
0.1831977892772341
 50
181.1842357016091114
 51
193.6693174152667041
  0
ARC
  5
F2DE
  8
0
 10
466.6068874365390116
 20
111.9380637089036981
 30
0.0
 40
0.0387137742946708
 50
140.0743249413933995
 51
183.0758749419420042
  0
ARC
  5
F2DF
  8
0
 10
466.5986515471672078
 20
111.9431911504328951
 30
0.0
 40
0.0291385549695079
 50
105.4539302993498069
 51
137.4117164272743992
  0
ARC
  5
F2E0
  8
0
 10
761.8090310875230671
 20
-960.1160709286499468
 30
0.0
 40
1111.9914713543280413
 50
105.3946544557776974
 51
105.3958317140071017
  0
ARC
  5
F2E1
  8
0
 10
466.6082688904588736
 20
111.9969263986295971
 30
0.0
 40
0.0201282359872012
 50
283.3470284637148211
 51
336.3414776724728767
  0
ARC
  5
F2E2
  8
0
 10
466.7098135607067206
 20
111.9887997105856954
 30
0.0
 40
0.0831081601849189
 50
171.8070063284135927
 51
179.9658514619517007
  0
ARC
  5
F2E3
  8
0
 10
466.6467164126556213
 20
111.9986187508659015
 30
0.0
 40
0.0192694303625214
 50
148.0006193762532973
 51
173.9691293290267993
  0
ARC
  5
F2E4
  8
0
 10
466.6335255679910006
 20
112.0054139601591032
 30
0.0
 40
0.0046470198012067
 50
55.3792051605465971
 51
132.6873857075254932
  0
ARC
  5
F2E5
  8
0
 10
466.5562537241768837
 20
111.9426682705198033
 30
0.0
 40
0.1040070980612172
 50
15.5571561331335104
 51
39.7956336986668404
  0
ARC
  5
F2E6
  8
0
 10
466.2290392399015104
 20
111.8210588163370005
 30
0.0
 40
0.4528043056890389
 50
12.9269723443069307
 51
19.2793234645483409
  0
ARC
  5
F2E7
  8
0
 10
466.581013991870293
 20
111.9178950938931933
 30
0.0
 40
0.0076445180078591
 50
156.643736898165912
 51
177.1384472939946875
  0
ARC
  5
F2E8
  8
0
 10
466.5751156325412126
 20
111.9204421979793977
 30
0.0
 40
0.0012196925626757
 50
128.2592180107180013
 51
156.6437368982869884
  0
ARC
  5
F2E9
  8
0
 10
466.5750071387903972
 20
111.9205797761140957
 30
0.0
 40
0.0010444822971991
 50
41.0594386649774989
 51
128.2592180109047035
  0
ARC
  5
F2EA
  8
0
 10
466.5442200197259126
 20
111.8985567953175035
 30
0.0
 40
0.0388929487995592
 50
13.7030365674983905
 51
35.7243153021709787
  0
ARC
  5
F2EB
  8
0
 10
466.47240931065528
 20
111.8745511514715929
 30
0.0
 40
0.114520400732351
 50
5.1270124854257109
 51
16.8621717974701291
  0
ARC
  5
F2EC
  8
0
 10
466.5550733740109877
 20
111.8819787685106064
 30
0.0
 40
0.0315233137472356
 50
352.8262156663276983
 51
5.107531312612708
  0
ARC
  5
F2ED
  8
0
 10
466.5824365534497247
 20
111.8784224299764958
 30
0.0
 40
0.0039318004451346
 50
324.2210631574025115
 51
354.4498744823092125
  0
ARC
  5
F2EE
  8
0
 10
466.5848710480299246
 20
111.8766323347998934
 30
0.0
 40
0.0009106097089856
 50
239.2873214325400966
 51
326.0407685269420881
  0
ARC
  5
F2EF
  8
0
 10
466.5934817941408141
 20
111.8857941762058061
 30
0.0
 40
0.0134635885147087
 50
199.0885885120339083
 51
227.6155876276083063
  0
ARC
  5
F2F0
  8
0
 10
466.6810013847880896
 20
111.9214157985578026
 30
0.0
 40
0.107937959331763
 50
188.8613748220990942
 51
201.7656612362085866
  0
ARC
  5
F2F1
  8
0
 10
466.6334742283156061
 20
111.9158316711520058
 30
0.0
 40
0.0601449420990958
 50
177.6701260962819049
 51
190.5799970835954014
  0
ARC
  5
F2F2
  8
0
 10
466.1376089817463253
 20
111.7016824406096021
 30
0.0
 40
0.4404371077961129
 50
6.6874416223605122
 51
13.2618710430601503
  0
ARC
  5
F2F3
  8
0
 10
466.3554562906027172
 20
111.7272252112718007
 30
0.0
 40
0.2210974554095047
 50
0.5952805693978006
 51
6.6874416223588939
  0
ARC
  5
F2F4
  8
0
 10
466.4951926772893103
 20
111.728677069500705
 30
0.0
 40
0.0813535265375987
 50
347.5213760978124924
 51
0.5952805693978006
  0
ARC
  5
F2F5
  8
0
 10
466.5655274621623789
 20
111.7131117512467
 30
0.0
 40
0.0093170004172256
 50
332.127909742969905
 51
347.5213760978109008
  0
ARC
  5
F2F6
  8
0
 10
466.5622806881536917
 20
111.7148288051811988
 30
0.0
 40
0.0129898488591793
 50
316.6496801069361027
 51
332.1279097429808189
  0
ARC
  5
F2F7
  8
0
 10
466.5696267638073778
 20
111.7078940226473946
 30
0.0
 40
0.0028875700913796
 50
264.7416780593799785
 51
316.649680106964297
  0
ARC
  5
F2F8
  8
0
 10
466.5699545699966961
 20
111.7114558339114012
 30
0.0
 40
0.0064644341338394
 50
243.1846991259999982
 51
264.7416780593637213
  0
ARC
  5
F2F9
  8
0
 10
466.5792519621227257
 20
111.7237575239205967
 30
0.0
 40
0.0218112847146872
 50
210.9322906706815957
 51
235.9464799032228939
  0
ARC
  5
F2FA
  8
0
 10
466.6281046150282918
 20
111.7568194402834933
 30
0.0
 40
0.0807758661428903
 50
205.8996835226130031
 51
213.2369358246187971
  0
ARC
  5
F2FB
  8
0
 10
466.5450196097664275
 20
111.7141184356063945
 30
0.0
 40
0.0127927886864253
 50
35.4425478992932099
 51
56.6920086396517107
  0
ARC
  5
F2FC
  8
0
 10
466.5425224764019276
 20
111.7022616895488056
 30
0.0
 40
0.0244762556996301
 50
67.1054374380601217
 51
105.0766286771061004
  0
ARC
  5
F2FD
  8
0
 10
465.8358718177161109
 20
114.2523086611429051
 30
0.0
 40
2.6216715279059399
 50
285.0801343026953987
 51
285.4925812503498719
  0
ARC
  5
F2FE
  8
0
 10
466.5114323962937988
 20
111.7510806915145025
 30
0.0
 40
0.0308572597805068
 50
213.9549178866367072
 51
282.1964357332469717
  0
ARC
  5
F2FF
  8
0
 10
466.5997277380757851
 20
111.8022904484536042
 30
0.0
 40
0.1328750869583456
 50
191.0406655683011081
 51
211.0045551080168877
  0
ARC
  5
F300
  8
0
 10
466.6473208287051193
 20
111.8201370229441949
 30
0.0
 40
0.1831977892772341
 50
181.1842357016091114
 51
193.6693174152667041
  0
ARC
  5
F301
  8
0
 10
466.5028201704495814
 20
111.8184281295906999
 30
0.0
 40
0.0387137742946708
 50
140.0743249413933995
 51
183.0758749419420042
  0
ARC
  5
F302
  8
0
 10
466.4945842810777776
 20
111.823555571119897
 30
0.0
 40
0.0291385549695079
 50
105.4539302993498069
 51
137.4117164272743992
  0
ARC
  5
F303
  8
0
 10
761.7049638214335801
 20
-960.2357065079629592
 30
0.0
 40
1111.9914713543280413
 50
105.3946544557776974
 51
105.3958317140071017
  0
ARC
  5
F304
  8
0
 10
466.5042016243693865
 20
111.8772908193165989
 30
0.0
 40
0.0201282359872012
 50
283.3470284637148211
 51
336.3414776724728767
  0
ARC
  5
F305
  8
0
 10
466.6057462946172905
 20
111.8691641312726972
 30
0.0
 40
0.0831081601849189
 50
171.8070063284135927
 51
179.9658514619517007
  0
ARC
  5
F306
  8
0
 10
466.5426491465661911
 20
111.8789831715529033
 30
0.0
 40
0.0192694303625214
 50
148.0006193762532973
 51
173.9691293290267993
  0
ARC
  5
F307
  8
0
 10
466.5294583019015136
 20
111.8857783808461051
 30
0.0
 40
0.0046470198012067
 50
55.3792051605465971
 51
132.6873857075254932
  0
ARC
  5
F308
  8
0
 10
466.4521864580875103
 20
111.8230326912069046
 30
0.0
 40
0.1040070980612172
 50
15.5571561331335104
 51
39.7956336986668404
  0
ARC
  5
F309
  8
0
 10
466.1249719738121939
 20
111.7014232370240023
 30
0.0
 40
0.4528043056890389
 50
12.9269723443069307
 51
19.2793234645483409
  0
ARC
  5
F30A
  8
0
 10
466.4769467257809197
 20
111.7982595145801952
 30
0.0
 40
0.0076445180078591
 50
156.643736898165912
 51
177.1384472939946875
  0
ARC
  5
F30B
  8
0
 10
466.4710483664517824
 20
111.8008066186663996
 30
0.0
 40
0.0012196925626757
 50
128.2592180107180013
 51
156.6437368982869884
  0
ARC
  5
F30C
  8
0
 10
466.4709398727010239
 20
111.8009441968010975
 30
0.0
 40
0.0010444822971991
 50
41.0594386649774989
 51
128.2592180109047035
  0
ARC
  5
F30D
  8
0
 10
466.4401527536364256
 20
111.7789212160045054
 30
0.0
 40
0.0388929487995592
 50
13.7030365674983905
 51
35.7243153021709787
  0
ARC
  5
F30E
  8
0
 10
466.3683420445659067
 20
111.7549155721584953
 30
0.0
 40
0.114520400732351
 50
5.1270124854257109
 51
16.8621717974701291
  0
ARC
  5
F30F
  8
0
 10
466.451006107921728
 20
111.762343189197594
 30
0.0
 40
0.0315233137472356
 50
352.8262156663276983
 51
5.107531312612708
  0
ARC
  5
F310
  8
0
 10
466.4783692873601808
 20
111.7587868506634976
 30
0.0
 40
0.0039318004451346
 50
324.2210631574025115
 51
354.4498744823092125
  0
ARC
  5
F311
  8
0
 10
466.4808037819404944
 20
111.7569967554868953
 30
0.0
 40
0.0009106097089856
 50
239.2873214325400966
 51
326.0407685269420881
  0
ARC
  5
F312
  8
0
 10
466.489414528051384
 20
111.7661585968927938
 30
0.0
 40
0.0134635885147087
 50
199.0885885120339083
 51
227.6155876276083063
  0
ARC
  5
F313
  8
0
 10
466.5769341186987731
 20
111.8017802192448045
 30
0.0
 40
0.107937959331763
 50
188.8613748220990942
 51
201.7656612362085866
  0
ARC
  5
F314
  8
0
 10
466.5294069622261759
 20
111.7961960918389934
 30
0.0
 40
0.0601449420990958
 50
177.6701260962819049
 51
190.5799970835954014
  0
ARC
  5
F315
  8
0
 10
466.2381154741166256
 20
111.5476006256332937
 30
0.0
 40
0.4404371077961129
 50
6.6874416223605122
 51
13.2618710430601503
  0
ARC
  5
F316
  8
0
 10
466.4559627829730175
 20
111.5731433962955066
 30
0.0
 40
0.2210974554095047
 50
0.5952805693978006
 51
6.6874416223588939
  0
ARC
  5
F317
  8
0
 10
466.5956991696597242
 20
111.5745952545244961
 30
0.0
 40
0.0813535265375987
 50
347.5213760978124924
 51
0.5952805693978006
  0
ARC
  5
F318
  8
0
 10
466.6660339545327929
 20
111.5590299362705053
 30
0.0
 40
0.0093170004172256
 50
332.127909742969905
 51
347.5213760978109008
  0
ARC
  5
F319
  8
0
 10
466.6627871805241057
 20
111.5607469902050042
 30
0.0
 40
0.0129898488591793
 50
316.6496801069361027
 51
332.1279097429808189
  0
ARC
  5
F31A
  8
0
 10
466.670133256177678
 20
111.5538122076711005
 30
0.0
 40
0.0028875700913796
 50
264.7416780593799785
 51
316.649680106964297
  0
ARC
  5
F31B
  8
0
 10
466.6704610623669964
 20
111.5573740189351071
 30
0.0
 40
0.0064644341338394
 50
243.1846991259999982
 51
264.7416780593637213
  0
ARC
  5
F31C
  8
0
 10
466.679758454493026
 20
111.569675708944402
 30
0.0
 40
0.0218112847146872
 50
210.9322906706815957
 51
235.9464799032228939
  0
ARC
  5
F31D
  8
0
 10
466.7286111073985921
 20
111.6027376253071992
 30
0.0
 40
0.0807758661428903
 50
205.8996835226130031
 51
213.2369358246187971
  0
ARC
  5
F31E
  8
0
 10
466.6455261021367278
 20
111.5600366206301999
 30
0.0
 40
0.0127927886864253
 50
35.4425478992932099
 51
56.6920086396517107
  0
ARC
  5
F31F
  8
0
 10
466.6430289687722279
 20
111.5481798745724973
 30
0.0
 40
0.0244762556996301
 50
67.1054374380601217
 51
105.0766286771061004
  0
ARC
  5
F320
  8
0
 10
465.9363783100864111
 20
114.0982268461666962
 30
0.0
 40
2.6216715279059399
 50
285.0801343026953987
 51
285.4925812503498719
  0
ARC
  5
F321
  8
0
 10
466.6119388886640991
 20
111.5969988765382936
 30
0.0
 40
0.0308572597805068
 50
213.9549178866367072
 51
282.1964357332469717
  0
ARC
  5
F322
  8
0
 10
466.7002342304460853
 20
111.6482086334772958
 30
0.0
 40
0.1328750869583456
 50
191.0406655683011081
 51
211.0045551080168877
  0
ARC
  5
F323
  8
0
 10
466.7478273210754764
 20
111.6660552079679007
 30
0.0
 40
0.1831977892772341
 50
181.1842357016091114
 51
193.6693174152667041
  0
ARC
  5
F324
  8
0
 10
466.6033266628198817
 20
111.6643463146145052
 30
0.0
 40
0.0387137742946708
 50
140.0743249413933995
 51
183.0758749419420042
  0
ARC
  5
F325
  8
0
 10
466.5950907734480779
 20
111.6694737561437023
 30
0.0
 40
0.0291385549695079
 50
105.4539302993498069
 51
137.4117164272743992
  0
ARC
  5
F326
  8
0
 10
761.8054703138038803
 20
-960.3897883229391255
 30
0.0
 40
1111.9914713543280413
 50
105.3946544557776974
 51
105.3958317140071017
  0
ARC
  5
F327
  8
0
 10
466.6047081167396868
 20
111.7232090043404042
 30
0.0
 40
0.0201282359872012
 50
283.3470284637148211
 51
336.3414776724728767
  0
ARC
  5
F328
  8
0
 10
466.7062527869875908
 20
111.7150823162965025
 30
0.0
 40
0.0831081601849189
 50
171.8070063284135927
 51
179.9658514619517007
  0
ARC
  5
F329
  8
0
 10
466.6431556389364914
 20
111.7249013565766944
 30
0.0
 40
0.0192694303625214
 50
148.0006193762532973
 51
173.9691293290267993
  0
ARC
  5
F32A
  8
0
 10
466.6299647942718138
 20
111.7316965658698962
 30
0.0
 40
0.0046470198012067
 50
55.3792051605465971
 51
132.6873857075254932
  0
ARC
  5
F32B
  8
0
 10
466.5526929504578106
 20
111.6689508762305962
 30
0.0
 40
0.1040070980612172
 50
15.5571561331335104
 51
39.7956336986668404
  0
ARC
  5
F32C
  8
0
 10
466.2254784661824942
 20
111.5473414220477935
 30
0.0
 40
0.4528043056890389
 50
12.9269723443069307
 51
19.2793234645483409
  0
ARC
  5
F32D
  8
0
 10
466.57745321815122
 20
111.644177699603901
 30
0.0
 40
0.0076445180078591
 50
156.643736898165912
 51
177.1384472939946875
  0
ARC
  5
F32E
  8
0
 10
466.5715548588220827
 20
111.6467248036902049
 30
0.0
 40
0.0012196925626757
 50
128.2592180107180013
 51
156.6437368982869884
  0
ARC
  5
F32F
  8
0
 10
466.5714463650713242
 20
111.6468623818249029
 30
0.0
 40
0.0010444822971991
 50
41.0594386649774989
 51
128.2592180109047035
  0
ARC
  5
F330
  8
0
 10
466.5406592460067259
 20
111.624839401028197
 30
0.0
 40
0.0388929487995592
 50
13.7030365674983905
 51
35.7243153021709787
  0
ARC
  5
F331
  8
0
 10
466.468848536936207
 20
111.6008337571823006
 30
0.0
 40
0.114520400732351
 50
5.1270124854257109
 51
16.8621717974701291
  0
ARC
  5
F332
  8
0
 10
466.5515126002920283
 20
111.6082613742213994
 30
0.0
 40
0.0315233137472356
 50
352.8262156663276983
 51
5.107531312612708
  0
ARC
  5
F333
  8
0
 10
466.5788757797304811
 20
111.6047050356873029
 30
0.0
 40
0.0039318004451346
 50
324.2210631574025115
 51
354.4498744823092125
  0
ARC
  5
F334
  8
0
 10
466.5813102743107947
 20
111.6029149405107006
 30
0.0
 40
0.0009106097089856
 50
239.2873214325400966
 51
326.0407685269420881
  0
ARC
  5
F335
  8
0
 10
466.5899210204216843
 20
111.6120767819165991
 30
0.0
 40
0.0134635885147087
 50
199.0885885120339083
 51
227.6155876276083063
  0
ARC
  5
F336
  8
0
 10
466.6774406110690734
 20
111.6476984042685956
 30
0.0
 40
0.107937959331763
 50
188.8613748220990942
 51
201.7656612362085866
  0
ARC
  5
F337
  8
0
 10
466.6299134545964762
 20
111.6421142768626993
 30
0.0
 40
0.0601449420990958
 50
177.6701260962819049
 51
190.5799970835954014
  0
ARC
  5
F338
  8
0
 10
466.3755657332463898
 20
111.3220361705981958
 30
0.0
 40
0.4404371077961129
 50
6.6874416223605122
 51
13.2618710430601503
  0
ARC
  5
F339
  8
0
 10
466.5934130421027817
 20
111.3475789412603945
 30
0.0
 40
0.2210974554095047
 50
0.5952805693978006
 51
6.6874416223588939
  0
ARC
  5
F33A
  8
0
 10
466.7331494287893747
 20
111.3490307994893982
 30
0.0
 40
0.0813535265375987
 50
347.5213760978124924
 51
0.5952805693978006
  0
ARC
  5
F33B
  8
0
 10
466.8034842136626139
 20
111.3334654812353932
 30
0.0
 40
0.0093170004172256
 50
332.127909742969905
 51
347.5213760978109008
  0
ARC
  5
F33C
  8
0
 10
466.8002374396539267
 20
111.3351825351699063
 30
0.0
 40
0.0129898488591793
 50
316.6496801069361027
 51
332.1279097429808189
  0
ARC
  5
F33D
  8
0
 10
466.8075835153076127
 20
111.3282477526360026
 30
0.0
 40
0.0028875700913796
 50
264.7416780593799785
 51
316.649680106964297
  0
ARC
  5
F33E
  8
0
 10
466.8079113214968743
 20
111.3318095638999949
 30
0.0
 40
0.0064644341338394
 50
243.1846991259999982
 51
264.7416780593637213
  0
ARC
  5
F33F
  8
0
 10
466.8172087136229038
 20
111.3441112539092046
 30
0.0
 40
0.0218112847146872
 50
210.9322906706815957
 51
235.9464799032228939
  0
ARC
  5
F340
  8
0
 10
466.8660613665284131
 20
111.3771731702721013
 30
0.0
 40
0.0807758661428903
 50
205.8996835226130031
 51
213.2369358246187971
  0
ARC
  5
F341
  8
0
 10
466.7829763612663783
 20
111.334472165595102
 30
0.0
 40
0.0127927886864253
 50
35.4425478992932099
 51
56.6920086396517107
  0
ARC
  5
F342
  8
0
 10
466.7804792279019921
 20
111.3226154195373994
 30
0.0
 40
0.0244762556996301
 50
67.1054374380601217
 51
105.0766286771061004
  0
ARC
  5
F343
  8
0
 10
466.0738285692161753
 20
113.8726623911315983
 30
0.0
 40
2.6216715279059399
 50
285.0801343026953987
 51
285.4925812503498719
  0
ARC
  5
F344
  8
0
 10
466.7493891477938064
 20
111.3714344215031957
 30
0.0
 40
0.0308572597805068
 50
213.9549178866367072
 51
282.1964357332469717
  0
ARC
  5
F345
  8
0
 10
466.8376844895757927
 20
111.4226441784421979
 30
0.0
 40
0.1328750869583456
 50
191.0406655683011081
 51
211.0045551080168877
  0
ARC
  5
F346
  8
0
 10
466.8852775802052975
 20
111.4404907529328028
 30
0.0
 40
0.1831977892772341
 50
181.1842357016091114
 51
193.6693174152667041
  0
ARC
  5
F347
  8
0
 10
466.7407769219497027
 20
111.4387818595793931
 30
0.0
 40
0.0387137742946708
 50
140.0743249413933995
 51
183.0758749419420042
  0
ARC
  5
F348
  8
0
 10
466.7325410325778989
 20
111.4439093011086044
 30
0.0
 40
0.0291385549695079
 50
105.4539302993498069
 51
137.4117164272743992
  0
ARC
  5
F349
  8
0
 10
761.9429205729337582
 20
-960.6153527779741808
 30
0.0
 40
1111.9914713543280413
 50
105.3946544557776974
 51
105.3958317140071017
  0
ARC
  5
F34A
  8
0
 10
466.7421583758696215
 20
111.4976445493053063
 30
0.0
 40
0.0201282359872012
 50
283.3470284637148211
 51
336.3414776724728767
  0
ARC
  5
F34B
  8
0
 10
466.8437030461172981
 20
111.4895178612614046
 30
0.0
 40
0.0831081601849189
 50
171.8070063284135927
 51
179.9658514619517007
  0
ARC
  5
F34C
  8
0
 10
466.7806058980663124
 20
111.499336901541497
 30
0.0
 40
0.0192694303625214
 50
148.0006193762532973
 51
173.9691293290267993
  0
ARC
  5
F34D
  8
0
 10
466.7674150534016917
 20
111.5061321108347983
 30
0.0
 40
0.0046470198012067
 50
55.3792051605465971
 51
132.6873857075254932
  0
ARC
  5
F34E
  8
0
 10
466.6901432095875748
 20
111.4433864211954983
 30
0.0
 40
0.1040070980612172
 50
15.5571561331335104
 51
39.7956336986668404
  0
ARC
  5
F34F
  8
0
 10
466.3629287253122015
 20
111.3217769670126955
 30
0.0
 40
0.4528043056890389
 50
12.9269723443069307
 51
19.2793234645483409
  0
ARC
  5
F350
  8
0
 10
466.7149034772809841
 20
111.4186132445688031
 30
0.0
 40
0.0076445180078591
 50
156.643736898165912
 51
177.1384472939946875
  0
ARC
  5
F351
  8
0
 10
466.7090051179520174
 20
111.421160348655107
 30
0.0
 40
0.0012196925626757
 50
128.2592180107180013
 51
156.6437368982869884
  0
ARC
  5
F352
  8
0
 10
466.7088966242010883
 20
111.4212979267898049
 30
0.0
 40
0.0010444822971991
 50
41.0594386649774989
 51
128.2592180109047035
  0
ARC
  5
F353
  8
0
 10
466.6781095051366037
 20
111.3992749459930991
 30
0.0
 40
0.0388929487995592
 50
13.7030365674983905
 51
35.7243153021709787
  0
ARC
  5
F354
  8
0
 10
466.606298796066028
 20
111.3752693021472027
 30
0.0
 40
0.114520400732351
 50
5.1270124854257109
 51
16.8621717974701291
  0
ARC
  5
F355
  8
0
 10
466.6889628594216788
 20
111.3826969191863014
 30
0.0
 40
0.0315233137472356
 50
352.8262156663276983
 51
5.107531312612708
  0
ARC
  5
F356
  8
0
 10
466.7163260388604158
 20
111.379140580652205
 30
0.0
 40
0.0039318004451346
 50
324.2210631574025115
 51
354.4498744823092125
  0
ARC
  5
F357
  8
0
 10
466.7187605334406157
 20
111.3773504854756027
 30
0.0
 40
0.0009106097089856
 50
239.2873214325400966
 51
326.0407685269420881
  0
ARC
  5
F358
  8
0
 10
466.7273712795515053
 20
111.3865123268815012
 30
0.0
 40
0.0134635885147087
 50
199.0885885120339083
 51
227.6155876276083063
  0
ARC
  5
F359
  8
0
 10
466.8148908701987807
 20
111.4221339492334977
 30
0.0
 40
0.107937959331763
 50
188.8613748220990942
 51
201.7656612362085866
  0
ARC
  5
F35A
  8
0
 10
466.7673637137261835
 20
111.4165498218276014
 30
0.0
 40
0.0601449420990958
 50
177.6701260962819049
 51
190.5799970835954014
  0
ARC
  5
F35B
  8
0
 10
466.3713420531447014
 20
111.0574615446004003
 30
0.0
 40
0.4404371077961129
 50
6.6874416223605122
 51
13.2618710430601503
  0
ARC
  5
F35C
  8
0
 10
466.5891893620010933
 20
111.0830043152626985
 30
0.0
 40
0.2210974554095047
 50
0.5952805693978006
 51
6.6874416223588939
  0
ARC
  5
F35D
  8
0
 10
466.7289257486878
 20
111.0844561734917022
 30
0.0
 40
0.0813535265375987
 50
347.5213760978124924
 51
0.5952805693978006
  0
ARC
  5
F35E
  8
0
 10
466.7992605335609255
 20
111.0688908552376972
 30
0.0
 40
0.0093170004172256
 50
332.127909742969905
 51
347.5213760978109008
  0
ARC
  5
F35F
  8
0
 10
466.7960137595521246
 20
111.0706079091721961
 30
0.0
 40
0.0129898488591793
 50
316.6496801069361027
 51
332.1279097429808189
  0
ARC
  5
F360
  8
0
 10
466.8033598352058107
 20
111.0636731266383066
 30
0.0
 40
0.0028875700913796
 50
264.7416780593799785
 51
316.649680106964297
  0
ARC
  5
F361
  8
0
 10
466.8036876413950722
 20
111.067234937902299
 30
0.0
 40
0.0064644341338394
 50
243.1846991259999982
 51
264.7416780593637213
  0
ARC
  5
F362
  8
0
 10
466.8129850335211017
 20
111.0795366279114944
 30
0.0
 40
0.0218112847146872
 50
210.9322906706815957
 51
235.9464799032228939
  0
ARC
  5
F363
  8
0
 10
466.8618376864267248
 20
111.1125985442744053
 30
0.0
 40
0.0807758661428903
 50
205.8996835226130031
 51
213.2369358246187971
  0
ARC
  5
F364
  8
0
 10
466.7787526811646899
 20
111.0698975395973065
 30
0.0
 40
0.0127927886864253
 50
35.4425478992932099
 51
56.6920086396517107
  0
ARC
  5
F365
  8
0
 10
466.77625554780019
 20
111.0580407935397034
 30
0.0
 40
0.0244762556996301
 50
67.1054374380601217
 51
105.0766286771061004
  0
ARC
  5
F366
  8
0
 10
466.0696048891144869
 20
113.6080877651338028
 30
0.0
 40
2.6216715279059399
 50
285.0801343026953987
 51
285.4925812503498719
  0
ARC
  5
F367
  8
0
 10
466.7451654676921748
 20
111.1068597955054003
 30
0.0
 40
0.0308572597805068
 50
213.9549178866367072
 51
282.1964357332469717
  0
ARC
  5
F368
  8
0
 10
466.8334608094741043
 20
111.1580695524445019
 30
0.0
 40
0.1328750869583456
 50
191.0406655683011081
 51
211.0045551080168877
  0
ARC
  5
F369
  8
0
 10
466.8810539001036091
 20
111.1759161269351068
 30
0.0
 40
0.1831977892772341
 50
181.1842357016091114
 51
193.6693174152667041
  0
ARC
  5
F36A
  8
0
 10
466.7365532418480143
 20
111.1742072335815976
 30
0.0
 40
0.0387137742946708
 50
140.0743249413933995
 51
183.0758749419420042
  0
ARC
  5
F36B
  8
0
 10
466.7283173524760969
 20
111.1793346751107947
 30
0.0
 40
0.0291385549695079
 50
105.4539302993498069
 51
137.4117164272743992
  0
ARC
  5
F36C
  8
0
 10
761.938696892832013
 20
-960.8799274039722604
 30
0.0
 40
1111.9914713543280413
 50
105.3946544557776974
 51
105.3958317140071017
  0
ARC
  5
F36D
  8
0
 10
466.7379346957678194
 20
111.2330699233074967
 30
0.0
 40
0.0201282359872012
 50
283.3470284637148211
 51
336.3414776724728767
  0
ARC
  5
F36E
  8
0
 10
466.8394793660156097
 20
111.2249432352636944
 30
0.0
 40
0.0831081601849189
 50
171.8070063284135927
 51
179.9658514619517007
  0
ARC
  5
F36F
  8
0
 10
466.776382217964624
 20
111.234762275543801
 30
0.0
 40
0.0192694303625214
 50
148.0006193762532973
 51
173.9691293290267993
  0
ARC
  5
F370
  8
0
 10
466.7631913732998896
 20
111.2415574848370028
 30
0.0
 40
0.0046470198012067
 50
55.3792051605465971
 51
132.6873857075254932
  0
ARC
  5
F371
  8
0
 10
466.6859195294858864
 20
111.1788117951978023
 30
0.0
 40
0.1040070980612172
 50
15.5571561331335104
 51
39.7956336986668404
  0
ARC
  5
F372
  8
0
 10
466.3587050452106268
 20
111.0572023410149001
 30
0.0
 40
0.4528043056890389
 50
12.9269723443069307
 51
19.2793234645483409
  0
ARC
  5
F373
  8
0
 10
466.7106797971792957
 20
111.1540386185710929
 30
0.0
 40
0.0076445180078591
 50
156.643736898165912
 51
177.1384472939946875
  0
ARC
  5
F374
  8
0
 10
466.7047814378502153
 20
111.1565857226572973
 30
0.0
 40
0.0012196925626757
 50
128.2592180107180013
 51
156.6437368982869884
  0
ARC
  5
F375
  8
0
 10
466.7046729440992863
 20
111.1567233007920947
 30
0.0
 40
0.0010444822971991
 50
41.0594386649774989
 51
128.2592180109047035
  0
ARC
  5
F376
  8
0
 10
466.6738858250348017
 20
111.1347003199954031
 30
0.0
 40
0.0388929487995592
 50
13.7030365674983905
 51
35.7243153021709787
  0
ARC
  5
F377
  8
0
 10
466.6020751159642259
 20
111.1106946761495067
 30
0.0
 40
0.114520400732351
 50
5.1270124854257109
 51
16.8621717974701291
  0
ARC
  5
F378
  8
0
 10
466.6847391793199904
 20
111.1181222931886055
 30
0.0
 40
0.0315233137472356
 50
352.8262156663276983
 51
5.107531312612708
  0
ARC
  5
F379
  8
0
 10
466.7121023587586137
 20
111.1145659546543953
 30
0.0
 40
0.0039318004451346
 50
324.2210631574025115
 51
354.4498744823092125
  0
ARC
  5
F37A
  8
0
 10
466.7145368533389274
 20
111.1127758594779067
 30
0.0
 40
0.0009106097089856
 50
239.2873214325400966
 51
326.0407685269420881
  0
ARC
  5
F37B
  8
0
 10
466.7231475994498169
 20
111.1219377008838052
 30
0.0
 40
0.0134635885147087
 50
199.0885885120339083
 51
227.6155876276083063
  0
ARC
  5
F37C
  8
0
 10
466.8106671900970923
 20
111.1575593232357022
 30
0.0
 40
0.107937959331763
 50
188.8613748220990942
 51
201.7656612362085866
  0
ARC
  5
F37D
  8
0
 10
466.7631400336246088
 20
111.1519751958299054
 30
0.0
 40
0.0601449420990958
 50
177.6701260962819049
 51
190.5799970835954014
  0
ARC
  5
F37E
  8
0
 10
466.5124338865699087
 20
110.8235742908936032
 30
0.0
 40
0.4404371077961129
 50
6.6874416223605122
 51
13.2618710430601503
  0
ARC
  5
F37F
  8
0
 10
466.7302811954264143
 20
110.8491170615558019
 30
0.0
 40
0.2210974554095047
 50
0.5952805693978006
 51
6.6874416223588939
  0
ARC
  5
F380
  8
0
 10
466.8700175821130074
 20
110.8505689197848056
 30
0.0
 40
0.0813535265375987
 50
347.5213760978124924
 51
0.5952805693978006
  0
ARC
  5
F381
  8
0
 10
466.940352366986076
 20
110.8350036015308007
 30
0.0
 40
0.0093170004172256
 50
332.127909742969905
 51
347.5213760978109008
  0
ARC
  5
F382
  8
0
 10
466.9371055929772751
 20
110.8367206554652995
 30
0.0
 40
0.0129898488591793
 50
316.6496801069361027
 51
332.1279097429808189
  0
ARC
  5
F383
  8
0
 10
466.944451668631018
 20
110.8297858729313958
 30
0.0
 40
0.0028875700913796
 50
264.7416780593799785
 51
316.649680106964297
  0
ARC
  5
F384
  8
0
 10
466.9447794748203933
 20
110.8333476841955019
 30
0.0
 40
0.0064644341338394
 50
243.1846991259999982
 51
264.7416780593637213
  0
ARC
  5
F385
  8
0
 10
466.9540768669464228
 20
110.8456493742046973
 30
0.0
 40
0.0218112847146872
 50
210.9322906706815957
 51
235.9464799032228939
  0
ARC
  5
F386
  8
0
 10
467.002929519851989
 20
110.8787112905674945
 30
0.0
 40
0.0807758661428903
 50
205.8996835226130031
 51
213.2369358246187971
  0
ARC
  5
F387
  8
0
 10
466.9198445145900109
 20
110.8360102858904952
 30
0.0
 40
0.0127927886864253
 50
35.4425478992932099
 51
56.6920086396517107
  0
ARC
  5
F388
  8
0
 10
466.9173473812255111
 20
110.8241535398328068
 30
0.0
 40
0.0244762556996301
 50
67.1054374380601217
 51
105.0766286771061004
  0
ARC
  5
F389
  8
0
 10
466.2106967225396943
 20
113.3742005114270057
 30
0.0
 40
2.6216715279059399
 50
285.0801343026953987
 51
285.4925812503498719
  0
ARC
  5
F38A
  8
0
 10
466.8862573011173822
 20
110.8729725417986032
 30
0.0
 40
0.0308572597805068
 50
213.9549178866367072
 51
282.1964357332469717
  0
ARC
  5
F38B
  8
0
 10
466.9745526428994253
 20
110.9241822987376054
 30
0.0
 40
0.1328750869583456
 50
191.0406655683011081
 51
211.0045551080168877
  0
ARC
  5
F38C
  8
0
 10
467.0221457335288164
 20
110.9420288732281961
 30
0.0
 40
0.1831977892772341
 50
181.1842357016091114
 51
193.6693174152667041
  0
ARC
  5
F38D
  8
0
 10
466.8776450752732785
 20
110.9403199798748005
 30
0.0
 40
0.0387137742946708
 50
140.0743249413933995
 51
183.0758749419420042
  0
ARC
  5
F38E
  8
0
 10
466.8694091859014179
 20
110.9454474214039976
 30
0.0
 40
0.0291385549695079
 50
105.4539302993498069
 51
137.4117164272743992
  0
ARC
  5
F38F
  8
0
 10
762.0797887262574477
 20
-961.1138146576790859
 30
0.0
 40
1111.9914713543280413
 50
105.3946544557776974
 51
105.3958317140071017
  0
ARC
  5
F390
  8
0
 10
466.8790265291930837
 20
110.9991826696006996
 30
0.0
 40
0.0201282359872012
 50
283.3470284637148211
 51
336.3414776724728767
  0
ARC
  5
F391
  8
0
 10
466.9805711994408739
 20
110.9910559815567979
 30
0.0
 40
0.0831081601849189
 50
171.8070063284135927
 51
179.9658514619517007
  0
ARC
  5
F392
  8
0
 10
466.9174740513897746
 20
111.0008750218370039
 30
0.0
 40
0.0192694303625214
 50
148.0006193762532973
 51
173.9691293290267993
  0
ARC
  5
F393
  8
0
 10
466.904283206725097
 20
111.0076702311302057
 30
0.0
 40
0.0046470198012067
 50
55.3792051605465971
 51
132.6873857075254932
  0
ARC
  5
F394
  8
0
 10
466.8270113629112075
 20
110.9449245414909058
 30
0.0
 40
0.1040070980612172
 50
15.5571561331335104
 51
39.7956336986668404
  0
ARC
  5
F395
  8
0
 10
466.4997968786357774
 20
110.823315087308103
 30
0.0
 40
0.4528043056890389
 50
12.9269723443069307
 51
19.2793234645483409
  0
ARC
  5
F396
  8
0
 10
466.8517716306046168
 20
110.9201513648641964
 30
0.0
 40
0.0076445180078591
 50
156.643736898165912
 51
177.1384472939946875
  0
ARC
  5
F397
  8
0
 10
466.8458732712754227
 20
110.9226984689505002
 30
0.0
 40
0.0012196925626757
 50
128.2592180107180013
 51
156.6437368982869884
  0
ARC
  5
F398
  8
0
 10
466.8457647775246073
 20
110.9228360470851982
 30
0.0
 40
0.0010444822971991
 50
41.0594386649774989
 51
128.2592180109047035
  0
ARC
  5
F399
  8
0
 10
466.8149776584601227
 20
110.9008130662885065
 30
0.0
 40
0.0388929487995592
 50
13.7030365674983905
 51
35.7243153021709787
  0
ARC
  5
F39A
  8
0
 10
466.7431669493894901
 20
110.8768074224425959
 30
0.0
 40
0.114520400732351
 50
5.1270124854257109
 51
16.8621717974701291
  0
ARC
  5
F39B
  8
0
 10
466.8258310127453115
 20
110.8842350394816947
 30
0.0
 40
0.0315233137472356
 50
352.8262156663276983
 51
5.107531312612708
  0
ARC
  5
F39C
  8
0
 10
466.8531941921838779
 20
110.8806787009475983
 30
0.0
 40
0.0039318004451346
 50
324.2210631574025115
 51
354.4498744823092125
  0
ARC
  5
F39D
  8
0
 10
466.8556286867641916
 20
110.8788886057709959
 30
0.0
 40
0.0009106097089856
 50
239.2873214325400966
 51
326.0407685269420881
  0
ARC
  5
F39E
  8
0
 10
466.8642394328750811
 20
110.8880504471768944
 30
0.0
 40
0.0134635885147087
 50
199.0885885120339083
 51
227.6155876276083063
  0
ARC
  5
F39F
  8
0
 10
466.9517590235224134
 20
110.9236720695289051
 30
0.0
 40
0.107937959331763
 50
188.8613748220990942
 51
201.7656612362085866
  0
ARC
  5
F3A0
  8
0
 10
466.904231867049873
 20
110.9180879421230941
 30
0.0
 40
0.0601449420990958
 50
177.6701260962819049
 51
190.5799970835954014
  0
ARC
  5
F3A1
  8
0
 10
466.4970542245525849
 20
110.6040010863154066
 30
0.0
 40
0.4404371077961129
 50
6.6874416223605122
 51
13.2618710430601503
  0
ARC
  5
F3A2
  8
0
 10
466.7149015334089768
 20
110.6295438569776053
 30
0.0
 40
0.2210974554095047
 50
0.5952805693978006
 51
6.6874416223588939
  0
ARC
  5
F3A3
  8
0
 10
466.8546379200956267
 20
110.6309957152065948
 30
0.0
 40
0.0813535265375987
 50
347.5213760978124924
 51
0.5952805693978006
  0
ARC
  5
F3A4
  8
0
 10
466.9249727049686953
 20
110.615430396952604
 30
0.0
 40
0.0093170004172256
 50
332.127909742969905
 51
347.5213760978109008
  0
ARC
  5
F3A5
  8
0
 10
466.9217259309601218
 20
110.6171474508871029
 30
0.0
 40
0.0129898488591793
 50
316.6496801069361027
 51
332.1279097429808189
  0
ARC
  5
F3A6
  8
0
 10
466.9290720066138078
 20
110.6102126683531992
 30
0.0
 40
0.0028875700913796
 50
264.7416780593799785
 51
316.649680106964297
  0
ARC
  5
F3A7
  8
0
 10
466.9293998128031262
 20
110.6137744796172058
 30
0.0
 40
0.0064644341338394
 50
243.1846991259999982
 51
264.7416780593637213
  0
ARC
  5
F3A8
  8
0
 10
466.9386972049290989
 20
110.6260761696264012
 30
0.0
 40
0.0218112847146872
 50
210.9322906706815957
 51
235.9464799032228939
  0
ARC
  5
F3A9
  8
0
 10
466.9875498578346082
 20
110.6591380859892979
 30
0.0
 40
0.0807758661428903
 50
205.8996835226130031
 51
213.2369358246187971
  0
ARC
  5
F3AA
  8
0
 10
466.9044648525725734
 20
110.6164370813121991
 30
0.0
 40
0.0127927886864253
 50
35.4425478992932099
 51
56.6920086396517107
  0
ARC
  5
F3AB
  8
0
 10
466.9019677192081872
 20
110.604580335254596
 30
0.0
 40
0.0244762556996301
 50
67.1054374380601217
 51
105.0766286771061004
  0
ARC
  5
F3AC
  8
0
 10
466.1953170605224273
 20
113.1546273068486954
 30
0.0
 40
2.6216715279059399
 50
285.0801343026953987
 51
285.4925812503498719
  0
ARC
  5
F3AD
  8
0
 10
466.8708776391000015
 20
110.6533993372204066
 30
0.0
 40
0.0308572597805068
 50
213.9549178866367072
 51
282.1964357332469717
  0
ARC
  5
F3AE
  8
0
 10
466.9591729808819878
 20
110.7046090941593945
 30
0.0
 40
0.1328750869583456
 50
191.0406655683011081
 51
211.0045551080168877
  0
ARC
  5
F3AF
  8
0
 10
467.0067660715114926
 20
110.7224556686499994
 30
0.0
 40
0.1831977892772341
 50
181.1842357016091114
 51
193.6693174152667041
  0
ARC
  5
F3B0
  8
0
 10
466.8622654132558978
 20
110.7207467752965044
 30
0.0
 40
0.0387137742946708
 50
140.0743249413933995
 51
183.0758749419420042
  0
ARC
  5
F3B1
  8
0
 10
466.854029523884094
 20
110.7258742168257015
 30
0.0
 40
0.0291385549695079
 50
105.4539302993498069
 51
137.4117164272743992
  0
ARC
  5
F3B2
  8
0
 10
762.0644090642399533
 20
-961.3333878622571547
 30
0.0
 40
1111.9914713543280413
 50
105.3946544557776974
 51
105.3958317140071017
  0
ARC
  5
F3B3
  8
0
 10
466.8636468671758166
 20
110.7796094650224035
 30
0.0
 40
0.0201282359872012
 50
283.3470284637148211
 51
336.3414776724728767
  0
ARC
  5
F3B4
  8
0
 10
466.9651915374234932
 20
110.7714827769786012
 30
0.0
 40
0.0831081601849189
 50
171.8070063284135927
 51
179.9658514619517007
  0
ARC
  5
F3B5
  8
0
 10
466.9020943893725075
 20
110.7813018172586936
 30
0.0
 40
0.0192694303625214
 50
148.0006193762532973
 51
173.9691293290267993
  0
ARC
  5
F3B6
  8
0
 10
466.8889035447078868
 20
110.7880970265518954
 30
0.0
 40
0.0046470198012067
 50
55.3792051605465971
 51
132.6873857075254932
  0
ARC
  5
F3B7
  8
0
 10
466.8116317008938267
 20
110.7253513369126949
 30
0.0
 40
0.1040070980612172
 50
15.5571561331335104
 51
39.7956336986668404
  0
ARC
  5
F3B8
  8
0
 10
466.4844172166183967
 20
110.6037418827298069
 30
0.0
 40
0.4528043056890389
 50
12.9269723443069307
 51
19.2793234645483409
  0
ARC
  5
F3B9
  8
0
 10
466.8363919685871792
 20
110.7005781602859997
 30
0.0
 40
0.0076445180078591
 50
156.643736898165912
 51
177.1384472939946875
  0
ARC
  5
F3BA
  8
0
 10
466.8304936092580988
 20
110.7031252643722041
 30
0.0
 40
0.0012196925626757
 50
128.2592180107180013
 51
156.6437368982869884
  0
ARC
  5
F3BB
  8
0
 10
466.8303851155072834
 20
110.7032628425070016
 30
0.0
 40
0.0010444822971991
 50
41.0594386649774989
 51
128.2592180109047035
  0
ARC
  5
F3BC
  8
0
 10
466.7995979964427988
 20
110.6812398617102957
 30
0.0
 40
0.0388929487995592
 50
13.7030365674983905
 51
35.7243153021709787
  0
ARC
  5
F3BD
  8
0
 10
466.7277872873722231
 20
110.6572342178643993
 30
0.0
 40
0.114520400732351
 50
5.1270124854257109
 51
16.8621717974701291
  0
ARC
  5
F3BE
  8
0
 10
466.8104513507278739
 20
110.6646618349034981
 30
0.0
 40
0.0315233137472356
 50
352.8262156663276983
 51
5.107531312612708
  0
ARC
  5
F3BF
  8
0
 10
466.8378145301666109
 20
110.6611054963694016
 30
0.0
 40
0.0039318004451346
 50
324.2210631574025115
 51
354.4498744823092125
  0
ARC
  5
F3C0
  8
0
 10
466.8402490247468108
 20
110.6593154011927993
 30
0.0
 40
0.0009106097089856
 50
239.2873214325400966
 51
326.0407685269420881
  0
ARC
  5
F3C1
  8
0
 10
466.8488597708577004
 20
110.6684772425986978
 30
0.0
 40
0.0134635885147087
 50
199.0885885120339083
 51
227.6155876276083063
  0
ARC
  5
F3C2
  8
0
 10
466.9363793615049758
 20
110.7040988649505948
 30
0.0
 40
0.107937959331763
 50
188.8613748220990942
 51
201.7656612362085866
  0
ARC
  5
F3C3
  8
0
 10
466.8888522050323786
 20
110.698514737544798
 30
0.0
 40
0.0601449420990958
 50
177.6701260962819049
 51
190.5799970835954014
  0
ARC
  5
F3C4
  8
0
 10
466.6525619260305007
 20
110.3266631451566013
 30
0.0
 40
0.4404371077961129
 50
6.6874416223605122
 51
13.2618710430601503
  0
ARC
  5
F3C5
  8
0
 10
466.8704092348868926
 20
110.3522059158188
 30
0.0
 40
0.2210974554095047
 50
0.5952805693978006
 51
6.6874416223588939
  0
ARC
  5
F3C6
  8
0
 10
467.0101456215735993
 20
110.3536577740477043
 30
0.0
 40
0.0813535265375987
 50
347.5213760978124924
 51
0.5952805693978006
  0
ARC
  5
F3C7
  8
0
 10
467.0804804064466111
 20
110.3380924557936993
 30
0.0
 40
0.0093170004172256
 50
332.127909742969905
 51
347.5213760978109008
  0
ARC
  5
F3C8
  8
0
 10
467.0772336324379808
 20
110.3398095097281981
 30
0.0
 40
0.0129898488591793
 50
316.6496801069361027
 51
332.1279097429808189
  0
ARC
  5
F3C9
  8
0
 10
467.0845797080917237
 20
110.3328747271942945
 30
0.0
 40
0.0028875700913796
 50
264.7416780593799785
 51
316.649680106964297
  0
ARC
  5
F3CA
  8
0
 10
467.0849075142809284
 20
110.3364365384584005
 30
0.0
 40
0.0064644341338394
 50
243.1846991259999982
 51
264.7416780593637213
  0
ARC
  5
F3CB
  8
0
 10
467.094204906406901
 20
110.3487382284675959
 30
0.0
 40
0.0218112847146872
 50
210.9322906706815957
 51
235.9464799032228939
  0
ARC
  5
F3CC
  8
0
 10
467.1430575593125241
 20
110.3818001448303932
 30
0.0
 40
0.0807758661428903
 50
205.8996835226130031
 51
213.2369358246187971
  0
ARC
  5
F3CD
  8
0
 10
467.0599725540504892
 20
110.3390991401533938
 30
0.0
 40
0.0127927886864253
 50
35.4425478992932099
 51
56.6920086396517107
  0
ARC
  5
F3CE
  8
0
 10
467.0574754206859893
 20
110.3272423940958049
 30
0.0
 40
0.0244762556996301
 50
67.1054374380601217
 51
105.0766286771061004
  0
ARC
  5
F3CF
  8
0
 10
466.3508247620001725
 20
112.8772893656899043
 30
0.0
 40
2.6216715279059399
 50
285.0801343026953987
 51
285.4925812503498719
  0
ARC
  5
F3D0
  8
0
 10
467.0263853405779741
 20
110.3760613960615018
 30
0.0
 40
0.0308572597805068
 50
213.9549178866367072
 51
282.1964357332469717
  0
ARC
  5
F3D1
  8
0
 10
467.1146806823599036
 20
110.4272711530006035
 30
0.0
 40
0.1328750869583456
 50
191.0406655683011081
 51
211.0045551080168877
  0
ARC
  5
F3D2
  8
0
 10
467.1622737729894084
 20
110.4451177274911942
 30
0.0
 40
0.1831977892772341
 50
181.1842357016091114
 51
193.6693174152667041
  0
ARC
  5
F3D3
  8
0
 10
467.0177731147338136
 20
110.4434088341376992
 30
0.0
 40
0.0387137742946708
 50
140.0743249413933995
 51
183.0758749419420042
  0
ARC
  5
F3D4
  8
0
 10
467.0095372253618962
 20
110.4485362756668962
 30
0.0
 40
0.0291385549695079
 50
105.4539302993498069
 51
137.4117164272743992
  0
ARC
  5
F3D5
  8
0
 10
762.2199167657178123
 20
-961.6107258034164715
 30
0.0
 40
1111.9914713543280413
 50
105.3946544557776974
 51
105.3958317140071017
  0
ARC
  5
F3D6
  8
0
 10
467.0191545686536188
 20
110.5022715238635982
 30
0.0
 40
0.0201282359872012
 50
283.3470284637148211
 51
336.3414776724728767
  0
ARC
  5
F3D7
  8
0
 10
467.1206992389015227
 20
110.4941448358196965
 30
0.0
 40
0.0831081601849189
 50
171.8070063284135927
 51
179.9658514619517007
  0
ARC
  5
F3D8
  8
0
 10
467.0576020908503097
 20
110.5039638760999026
 30
0.0
 40
0.0192694303625214
 50
148.0006193762532973
 51
173.9691293290267993
  0
ARC
  5
F3D9
  8
0
 10
467.0444112461856889
 20
110.5107590853931043
 30
0.0
 40
0.0046470198012067
 50
55.3792051605465971
 51
132.6873857075254932
  0
ARC
  5
F3DA
  8
0
 10
466.967139402371572
 20
110.4480133957538044
 30
0.0
 40
0.1040070980612172
 50
15.5571561331335104
 51
39.7956336986668404
  0
ARC
  5
F3DB
  8
0
 10
466.6399249180964262
 20
110.3264039415710016
 30
0.0
 40
0.4528043056890389
 50
12.9269723443077194
 51
19.2793234645483409
  0
ARC
  5
F3DC
  8
0
 10
466.9918996700649814
 20
110.4232402191271945
 30
0.0
 40
0.0076445180078591
 50
156.643736898165912
 51
177.1384472939946875
  0
ARC
  5
F3DD
  8
0
 10
466.9860013107360146
 20
110.4257873232133988
 30
0.0
 40
0.0012196925626757
 50
128.2592180107180013
 51
156.6437368982869884
  0
ARC
  5
F3DE
  8
0
 10
466.9858928169850856
 20
110.4259249013480968
 30
0.0
 40
0.0010444822971991
 50
41.0594386649774989
 51
128.2592180109047035
  0
ARC
  5
F3DF
  8
0
 10
466.955105697920601
 20
110.4039019205515046
 30
0.0
 40
0.0388929487995592
 50
13.7030365674983905
 51
35.7243153021709787
  0
ARC
  5
F3E0
  8
0
 10
466.8832949888500821
 20
110.379896276705594
 30
0.0
 40
0.114520400732351
 50
5.1270124854257109
 51
16.8621717974701291
  0
ARC
  5
F3E1
  8
0
 10
466.9659590522057897
 20
110.3873238937445933
 30
0.0
 40
0.0315233137472356
 50
352.8262156663276983
 51
5.107531312612708
  0
ARC
  5
F3E2
  8
0
 10
466.993322231644413
 20
110.3837675552104969
 30
0.0
 40
0.0039318004451346
 50
324.2210631574025115
 51
354.4498744823092125
  0
ARC
  5
F3E3
  8
0
 10
466.9957567262247267
 20
110.3819774600338945
 30
0.0
 40
0.0009106097089856
 50
239.2873214325400966
 51
326.0407685269420881
  0
ARC
  5
F3E4
  8
0
 10
467.0043674723356162
 20
110.3911393014399067
 30
0.0
 40
0.0134635885147087
 50
199.0885885120339083
 51
227.6155876276083063
  0
ARC
  5
F3E5
  8
0
 10
467.0918870629828916
 20
110.4267609237918037
 30
0.0
 40
0.107937959331763
 50
188.8613748220990942
 51
201.7656612362085866
  0
ARC
  5
F3E6
  8
0
 10
467.0443599065102944
 20
110.4211767963860069
 30
0.0
 40
0.0601449420990958
 50
177.6701260962819049
 51
190.5799970835954014
  0
ARC
  5
F3E7
  8
0
 10
466.7902353538282796
 20
109.8351840975802958
 30
0.0
 40
0.4404371077961129
 50
6.6874416223605122
 51
13.2618710430601503
  0
ARC
  5
F3E8
  8
0
 10
467.0080826626847852
 20
109.8607268682424944
 30
0.0
 40
0.2210974554095047
 50
0.5952805693978006
 51
6.6874416223588939
  0
ARC
  5
F3E9
  8
0
 10
467.1478190493713782
 20
109.8621787264714982
 30
0.0
 40
0.0813535265375987
 50
347.5213760978124924
 51
0.5952805693978006
  0
ARC
  5
F3EA
  8
0
 10
467.2181538342445037
 20
109.8466134082173937
 30
0.0
 40
0.0093170004172256
 50
332.127909742969905
 51
347.5213760978109008
  0
ARC
  5
F3EB
  8
0
 10
467.2149070602357028
 20
109.8483304621520062
 30
0.0
 40
0.0129898488591793
 50
316.6496801069361027
 51
332.1279097429808189
  0
ARC
  5
F3EC
  8
0
 10
467.2222531358896163
 20
109.8413956796181026
 30
0.0
 40
0.0028875700913796
 50
264.7416780593799785
 51
316.649680106964297
  0
ARC
  5
F3ED
  8
0
 10
467.2225809420788778
 20
109.8449574908820949
 30
0.0
 40
0.0064644341338394
 50
243.1846991259999982
 51
264.7416780593637213
  0
ARC
  5
F3EE
  8
0
 10
467.23187833420468
 20
109.8572591808913046
 30
0.0
 40
0.0218112847146872
 50
210.9322906706815957
 51
235.9464799032228939
  0
ARC
  5
F3EF
  8
0
 10
467.280730987110303
 20
109.8903210972542013
 30
0.0
 40
0.0807758661428903
 50
205.8996835226130031
 51
213.2369358246187971
  0
ARC
  5
F3F0
  8
0
 10
467.1976459818483818
 20
109.8476200925771025
 30
0.0
 40
0.0127927886864253
 50
35.4425478992932099
 51
56.6920086396517107
  0
ARC
  5
F3F1
  8
0
 10
467.1951488484838819
 20
109.8357633465194994
 30
0.0
 40
0.0244762556996301
 50
67.1054374380601217
 51
105.0766286771061004
  0
ARC
  5
F3F2
  8
0
 10
466.4884981897981788
 20
112.3858103181135988
 30
0.0
 40
2.6216715279059399
 50
285.0801343026953987
 51
285.4925812503498719
  0
ARC
  5
F3F3
  8
0
 10
467.1640587683758099
 20
109.8845823484851962
 30
0.0
 40
0.0308572597805068
 50
213.9549178866367072
 51
282.1964357332469717
  0
ARC
  5
F3F4
  8
0
 10
467.2523541101576825
 20
109.9357921054242979
 30
0.0
 40
0.1328750869583456
 50
191.0406655683011081
 51
211.0045551080168877
  0
ARC
  5
F3F5
  8
0
 10
467.2999472007871873
 20
109.9536386799149028
 30
0.0
 40
0.1831977892772341
 50
181.1842357016091114
 51
193.6693174152667041
  0
ARC
  5
F3F6
  8
0
 10
467.1554465425315925
 20
109.9519297865613936
 30
0.0
 40
0.0387137742946708
 50
140.0743249413933995
 51
183.0758749419420042
  0
ARC
  5
F3F7
  8
0
 10
467.1472106531599024
 20
109.9570572280906049
 30
0.0
 40
0.0291385549695079
 50
105.4539302993498069
 51
137.4117164272743992
  0
ARC
  5
F3F8
  8
0
 10
762.3575901935155343
 20
-962.1022048509922797
 30
0.0
 40
1111.9914713543280413
 50
105.3946544557776974
 51
105.3958317140071017
  0
ARC
  5
F3F9
  8
0
 10
467.156827996451625
 20
110.0107924762873068
 30
0.0
 40
0.0201282359872012
 50
283.3470284637148211
 51
336.3414776724728767
  0
ARC
  5
F3FA
  8
0
 10
467.2583726666993016
 20
110.0026657882434051
 30
0.0
 40
0.0831081601849189
 50
171.8070063284135927
 51
179.9658514619517007
  0
ARC
  5
F3FB
  8
0
 10
467.1952755186482023
 20
110.012484828523597
 30
0.0
 40
0.0192694303625214
 50
148.0006193762532973
 51
173.9691293290267993
  0
ARC
  5
F3FC
  8
0
 10
467.1820846739835247
 20
110.0192800378167988
 30
0.0
 40
0.0046470198012067
 50
55.3792051605465971
 51
132.6873857075254932
  0
ARC
  5
F3FD
  8
0
 10
467.1048128301695215
 20
109.9565343481775983
 30
0.0
 40
0.1040070980612172
 50
15.5571561331335104
 51
39.7956336986668404
  0
ARC
  5
F3FE
  8
0
 10
466.7775983458942051
 20
109.834924893994696
 30
0.0
 40
0.4528043056890389
 50
12.9269723443077194
 51
19.2793234645483409
  0
ARC
  5
F3FF
  8
0
 10
467.1295730978629877
 20
109.9317611715509031
 30
0.0
 40
0.0076445180078591
 50
156.643736898165912
 51
177.1384472939946875
  0
ARC
  5
F400
  8
0
 10
467.1236747385337935
 20
109.9343082756370933
 30
0.0
 40
0.0012196925626757
 50
128.2592180107180013
 51
156.6437368982869884
  0
ARC
  5
F401
  8
0
 10
467.1235662447830919
 20
109.9344458537719049
 30
0.0
 40
0.0010444822971991
 50
41.0594386649774989
 51
128.2592180109047035
  0
ARC
  5
F402
  8
0
 10
467.0927791257183799
 20
109.9124228729751991
 30
0.0
 40
0.0388929487995592
 50
13.7030365674983905
 51
35.7243153021709787
  0
ARC
  5
F403
  8
0
 10
467.0209684166479178
 20
109.8884172291293027
 30
0.0
 40
0.114520400732351
 50
5.1270124854257109
 51
16.8621717974701291
  0
ARC
  5
F404
  8
0
 10
467.1036324800036255
 20
109.895844846168302
 30
0.0
 40
0.0315233137472356
 50
352.8262156663276983
 51
5.107531312612708
  0
ARC
  5
F405
  8
0
 10
467.1309956594423056
 20
109.892288507634305
 30
0.0
 40
0.0039318004451346
 50
324.2210631574025115
 51
354.4498744823092125
  0
ARC
  5
F406
  8
0
 10
467.1334301540225056
 20
109.8904984124577027
 30
0.0
 40
0.0009106097089856
 50
239.2873214325400966
 51
326.0407685269420881
  0
ARC
  5
F407
  8
0
 10
467.1420409001333951
 20
109.8996602538636012
 30
0.0
 40
0.0134635885147087
 50
199.0885885120339083
 51
227.6155876276083063
  0
ARC
  5
F408
  8
0
 10
467.2295604907807842
 20
109.9352818762154982
 30
0.0
 40
0.107937959331763
 50
188.8613748220990942
 51
201.7656612362085866
  0
ARC
  5
F409
  8
0
 10
467.182033334308187
 20
109.9296977488097014
 30
0.0
 40
0.0601449420990958
 50
177.6701260962819049
 51
190.5799970835954014
  0
ARC
  5
F40A
  8
0
 10
466.6071345191854789
 20
111.4099203973815975
 30
0.0
 40
0.0286199307110216
 50
105.5150340927344956
 51
153.7085580026738114
  0
ARC
  5
F40B
  8
0
 10
466.6169176173376059
 20
111.4063165330312017
 30
0.0
 40
0.0390028568480171
 50
155.3279879180367118
 51
186.7032654547986965
  0
ARC
  5
F40C
  8
0
 10
466.7322089927877755
 20
111.4145796637280057
 30
0.0
 40
0.1545598581632171
 50
184.7563257960750889
 51
191.9416055895013073
  0
ARC
  5
F40D
  8
0
 10
466.8854716634352258
 20
111.4460341113048969
 30
0.0
 40
0.3110155730718826
 50
191.7687032790896069
 51
197.435000966261299
  0
ARC
  5
F40E
  8
0
 10
466.7301962265252087
 20
111.3937845583909052
 30
0.0
 40
0.1472562206060825
 50
196.1412163473453916
 51
208.8682431425716004
  0
ARC
  5
F40F
  8
0
 10
466.6287140452844824
 20
111.3384738330906032
 30
0.0
 40
0.031686056807893
 50
209.8771333335459985
 51
255.1717366095780051
  0
ARC
  5
F410
  8
0
 10
466.6276121010416773
 20
111.3349471382437059
 30
0.0
 40
0.0279952707635843
 50
255.50469422947819
 51
285.4016456706493159
  0
ARC
  5
F411
  8
0
 10
467.4100588467596253
 20
108.5137832694526026
 30
0.0
 40
2.8996639878896069
 50
105.0731357126583987
 51
105.5022588631773033
  0
ARC
  5
F412
  8
0
 10
466.660718146571412
 20
111.2905727307898047
 30
0.0
 40
0.0235881212003224
 50
41.8454035237580371
 51
101.5481424776315009
  0
ARC
  5
F413
  8
0
 10
466.7252494568584211
 20
111.3292956943969045
 30
0.0
 40
0.0522836228605228
 50
206.0819063143557059
 51
218.5169950892459099
  0
ARC
  5
F414
  8
0
 10
466.6913524357685787
 20
111.3023138415457964
 30
0.0
 40
0.0089589370651415
 50
218.5043617778391933
 51
241.1076236634189911
  0
ARC
  5
F415
  8
0
 10
466.6879542191277892
 20
111.2967579497656061
 30
0.0
 40
0.0024698725501039
 50
247.8696966799589916
 51
323.4390125583443023
  0
ARC
  5
F416
  8
0
 10
466.6480988415390811
 20
111.3079268945252949
 30
0.0
 40
0.0437069356344179
 50
343.1897301194151169
 51
8.7034833862799648
  0
ARC
  5
F417
  8
0
 10
466.2214282264411054
 20
111.2602769294051939
 30
0.0
 40
0.4729972154389153
 50
6.5876580281464703
 51
16.1595323677618907
  0
ARC
  5
F418
  8
0
 10
466.294339545685375
 20
111.2935131559703024
 30
0.0
 40
0.393888278741412
 50
14.46742838913047
 51
26.2723568133925411
  0
ARC
  5
F419
  8
0
 10
466.608092703895295
 20
111.4454451966276025
 30
0.0
 40
0.0453717794698529
 50
29.6103130110450685
 51
38.3695560536730369
  0
ARC
  5
F41A
  8
0
 10
466.6367376745640172
 20
111.4687788640660955
 30
0.0
 40
0.0084451296596551
 50
34.8848565632663608
 51
69.9896849384839044
  0
ARC
  5
F41B
  8
0
 10
466.6393639578902253
 20
111.4744565776899066
 30
0.0
 40
0.0022729235198892
 50
83.3414681909841448
 51
162.6815758218999974
  0
ARC
  5
F41C
  8
0
 10
466.6657112642644734
 20
111.4662410104427011
 30
0.0
 40
0.0298714035210924
 50
162.6815758219530892
 51
182.2073825678174899
  0
ARC
  5
F41D
  8
0
 10
466.603801205776108
 20
111.4638546769676992
 30
0.0
 40
0.0320846287073044
 50
341.2370184552945034
 51
2.207382567863073
  0
ARC
  5
F41E
  8
0
 10
466.6140274754637858
 20
111.4661634385831945
 30
0.0
 40
0.0237832854797508
 50
283.8937629916907781
 51
327.9269932060333872
  0
ARC
  5
F41F
  8
0
 10
789.9537611994139752
 20
-1062.8349809510689283
 30
0.0
 40
1217.9794108803760082
 50
105.3947371566517006
 51
105.3957256851324047
  0
ARC
  5
F420
  8
0
 10
466.7254386693625747
 20
111.4025685000230936
 30
0.0
 40
0.1433071359745676
 50
189.3339802749449916
 51
197.2361213032615126
  0
ARC
  5
F421
  8
0
 10
466.6888849848056111
 20
111.3892549052786052
 30
0.0
 40
0.1044670574844524
 50
196.2025108222374001
 51
204.1460138909573061
  0
ARC
  5
F422
  8
0
 10
466.6068490661103283
 20
111.3521937008813012
 30
0.0
 40
0.0144507614594371
 50
203.1124034099360074
 51
219.399388198525287
  0
ARC
  5
F423
  8
0
 10
466.5968557962120258
 20
111.3439853151467958
 30
0.0
 40
0.0015185134093904
 50
219.3993881985500991
 51
251.0300979349260899
  0
ARC
  5
F424
  8
0
 10
466.5965087731159997
 20
111.3429757644262992
 30
0.0
 40
0.0004509846339342
 50
251.0300979349848092
 51
311.8344174488341878
  0
ARC
  5
F425
  8
0
 10
466.595693454717491
 20
111.3437102492609938
 30
0.0
 40
0.0015465092365011
 50
316.1950403723944873
 51
348.9311534463698763
  0
ARC
  5
F426
  8
0
 10
466.570667413231206
 20
111.3458657085924983
 30
0.0
 40
0.0266568274724615
 50
354.7214469196442224
 51
9.4477796520482666
  0
ARC
  5
F427
  8
0
 10
466.4470303621902758
 20
111.3263652313878964
 30
0.0
 40
0.1518214875470274
 50
9.0481643425637586
 51
20.1801054869574514
  0
ARC
  5
F428
  8
0
 10
466.5524797835004165
 20
111.3661689983781002
 30
0.0
 40
0.0391264621195291
 50
18.740185379527901
 51
32.8477751575797328
  0
ARC
  5
F429
  8
0
 10
466.583217227236787
 20
111.3857488345809941
 30
0.0
 40
0.002692455839401
 50
37.5977638330137083
 51
59.3398667813017227
  0
ARC
  5
F42A
  8
0
 10
466.5843191700442958
 20
111.3876076628329059
 30
0.0
 40
0.0005315485251165
 50
59.3398667813401204
 51
153.4763044263962968
  0
ARC
  5
F42B
  8
0
 10
466.5883852767906887
 20
111.3858850636453042
 30
0.0
 40
0.0049465761537478
 50
156.6574202969491125
 51
184.5836367397789104
  0
ARC
  5
F42C
  8
0
 10
466.6233655098401982
 20
111.386100296494206
 30
0.0
 40
0.03991565830374
 50
180.8764086784362064
 51
189.7717746373353123
  0
ARC
  5
F42D
  8
0
 10
466.7126988074642782
 20
111.0035579640781975
 30
0.0
 40
0.0286199307110216
 50
105.5150340927344956
 51
153.7085580026738114
  0
ARC
  5
F42E
  8
0
 10
466.7224819056162914
 20
110.9999540997278018
 30
0.0
 40
0.0390028568480171
 50
155.3279879180367118
 51
186.7032654547986965
  0
ARC
  5
F42F
  8
0
 10
466.8377732810665179
 20
111.0082172304246058
 30
0.0
 40
0.1545598581632171
 50
184.7563257960750889
 51
191.9416055895013073
  0
ARC
  5
F430
  8
0
 10
466.9910359517139113
 20
111.039671678001497
 30
0.0
 40
0.3110155730718826
 50
191.7687032790896069
 51
197.435000966261299
  0
ARC
  5
F431
  8
0
 10
466.8357605148040079
 20
110.9874221250875053
 30
0.0
 40
0.1472562206060825
 50
196.1412163473453916
 51
208.8682431425716004
  0
ARC
  5
F432
  8
0
 10
466.7342783335632816
 20
110.9321113997872033
 30
0.0
 40
0.031686056807893
 50
209.8771333335459985
 51
255.1717366095780051
  0
ARC
  5
F433
  8
0
 10
466.7331763893204197
 20
110.928584704940306
 30
0.0
 40
0.0279952707635843
 50
255.50469422947819
 51
285.4016456706493159
  0
ARC
  5
F434
  8
0
 10
467.5156231350384246
 20
108.1074208361492026
 30
0.0
 40
2.8996639878896069
 50
105.0731357126583987
 51
105.5022588631773033
  0
ARC
  5
F435
  8
0
 10
466.7662824348500976
 20
110.8842102974864048
 30
0.0
 40
0.0235881212003224
 50
41.8454035237580371
 51
101.5481424776315009
  0
ARC
  5
F436
  8
0
 10
466.8308137451372204
 20
110.9229332610935046
 30
0.0
 40
0.0522836228605228
 50
206.0819063143557059
 51
218.5169950892459099
  0
ARC
  5
F437
  8
0
 10
466.796916724047378
 20
110.895951408242496
 30
0.0
 40
0.0089589370651415
 50
218.5043617778391933
 51
241.1076236634189911
  0
ARC
  5
F438
  8
0
 10
466.7935185074065885
 20
110.8903955164622062
 30
0.0
 40
0.0024698725501039
 50
247.8696966799589916
 51
323.4390125583443023
  0
ARC
  5
F439
  8
0
 10
466.7536631298178804
 20
110.9015644612218949
 30
0.0
 40
0.0437069356344179
 50
343.1897301194151169
 51
8.7034833862799648
  0
ARC
  5
F43A
  8
0
 10
466.3269925147199046
 20
110.8539144961017939
 30
0.0
 40
0.4729972154389153
 50
6.5876580281464703
 51
16.1595323677618907
  0
ARC
  5
F43B
  8
0
 10
466.3999038339641174
 20
110.8871507226669024
 30
0.0
 40
0.393888278741412
 50
14.46742838913047
 51
26.2723568133925411
  0
ARC
  5
F43C
  8
0
 10
466.7136569921739806
 20
111.0390827633242026
 30
0.0
 40
0.0453717794698529
 50
29.6103130110450685
 51
38.3695560536730369
  0
ARC
  5
F43D
  8
0
 10
466.7423019628428165
 20
111.0624164307626955
 30
0.0
 40
0.0084451296596551
 50
34.8848565632663608
 51
69.9896849384839044
  0
ARC
  5
F43E
  8
0
 10
466.7449282461689108
 20
111.0680941443865066
 30
0.0
 40
0.0022729235198892
 50
83.3414681909841448
 51
162.6815758218999974
  0
ARC
  5
F43F
  8
0
 10
466.7712755525432726
 20
111.0598785771393011
 30
0.0
 40
0.0298714035210924
 50
162.6815758219530892
 51
182.2073825678174899
  0
ARC
  5
F440
  8
0
 10
466.7093654940549072
 20
111.0574922436642993
 30
0.0
 40
0.0320846287073044
 50
341.2370184552945034
 51
2.207382567863073
  0
ARC
  5
F441
  8
0
 10
466.719591763742585
 20
111.0598010052797946
 30
0.0
 40
0.0237832854797508
 50
283.8937629916907781
 51
327.9269932060333872
  0
ARC
  5
F442
  8
0
 10
790.0593254876928313
 20
-1063.2413433843719304
 30
0.0
 40
1217.9794108803760082
 50
105.3947371566517006
 51
105.3957256851324047
  0
ARC
  5
F443
  8
0
 10
466.831002957641374
 20
110.9962060667196937
 30
0.0
 40
0.1433071359745676
 50
189.3339802749449916
 51
197.2361213032615126
  0
ARC
  5
F444
  8
0
 10
466.7944492730842967
 20
110.9828924719752052
 30
0.0
 40
0.1044670574844524
 50
196.2025108222374001
 51
204.1460138909573061
  0
ARC
  5
F445
  8
0
 10
466.7124133543891276
 20
110.9458312675779013
 30
0.0
 40
0.0144507614594371
 50
203.1124034099360074
 51
219.399388198525287
  0
ARC
  5
F446
  8
0
 10
466.7024200844907114
 20
110.9376228818433958
 30
0.0
 40
0.0015185134093904
 50
219.3993881985500991
 51
251.0300979349260899
  0
ARC
  5
F447
  8
0
 10
466.7020730613946853
 20
110.9366133311228992
 30
0.0
 40
0.0004509846339342
 50
251.0300979349848092
 51
311.8344174488341878
  0
ARC
  5
F448
  8
0
 10
466.7012577429962903
 20
110.9373478159575939
 30
0.0
 40
0.0015465092365011
 50
316.1950403723944873
 51
348.9311534463698763
  0
ARC
  5
F449
  8
0
 10
466.6762317015098915
 20
110.9395032752890984
 30
0.0
 40
0.0266568274724615
 50
354.7214469196442224
 51
9.4477796520482666
  0
ARC
  5
F44A
  8
0
 10
466.5525946504690751
 20
110.9200027980844965
 30
0.0
 40
0.1518214875470274
 50
9.0481643425637586
 51
20.1801054869574514
  0
ARC
  5
F44B
  8
0
 10
466.6580440717792158
 20
110.9598065650747003
 30
0.0
 40
0.0391264621195291
 50
18.740185379527901
 51
32.8477751575797328
  0
ARC
  5
F44C
  8
0
 10
466.6887815155155863
 20
110.9793864012775941
 30
0.0
 40
0.002692455839401
 50
37.5977638330137083
 51
59.3398667813017227
  0
ARC
  5
F44D
  8
0
 10
466.6898834583230951
 20
110.981245229529506
 30
0.0
 40
0.0005315485251165
 50
59.3398667813401204
 51
153.4763044263962968
  0
ARC
  5
F44E
  8
0
 10
466.693949565069488
 20
110.9795226303419042
 30
0.0
 40
0.0049465761537478
 50
156.6574202969491125
 51
184.5836367397789104
  0
ARC
  5
F44F
  8
0
 10
466.7289297981189975
 20
110.979737863190806
 30
0.0
 40
0.03991565830374
 50
180.8764086784362064
 51
189.7717746373353123
  0
ARC
  5
F450
  8
0
 10
466.3642716694153023
 20
112.5759825434417962
 30
0.0
 40
0.0286199307110216
 50
105.5150340927344956
 51
153.7085580026738114
  0
ARC
  5
F451
  8
0
 10
466.3740547675673156
 20
112.5723786790914005
 30
0.0
 40
0.0390028568480171
 50
155.3279879180367118
 51
186.7032654547986965
  0
ARC
  5
F452
  8
0
 10
466.4893461430175989
 20
112.5806418097882045
 30
0.0
 40
0.1545598581632171
 50
184.7563257960750889
 51
191.9416055895013073
  0
ARC
  5
F453
  8
0
 10
466.6426088136649923
 20
112.6120962573650957
 30
0.0
 40
0.3110155730718826
 50
191.7687032790896069
 51
197.435000966261299
  0
ARC
  5
F454
  8
0
 10
466.4873333767549752
 20
112.559846704451104
 30
0.0
 40
0.1472562206060825
 50
196.1412163473453916
 51
208.8682431425716004
  0
ARC
  5
F455
  8
0
 10
466.3858511955143058
 20
112.5045359791508019
 30
0.0
 40
0.031686056807893
 50
209.8771333335459985
 51
255.1717366095780051
  0
ARC
  5
F456
  8
0
 10
466.384749251271387
 20
112.5010092843039047
 30
0.0
 40
0.0279952707635843
 50
255.50469422947819
 51
285.4016456706493159
  0
ARC
  5
F457
  8
0
 10
467.1671959969893919
 20
109.6798454155128013
 30
0.0
 40
2.8996639878896069
 50
105.0731357126583987
 51
105.5022588631773033
  0
ARC
  5
F458
  8
0
 10
466.4178552968011786
 20
112.4566348768500035
 30
0.0
 40
0.0235881212003224
 50
41.8454035237580371
 51
101.5481424776315009
  0
ARC
  5
F459
  8
0
 10
466.4823866070881877
 20
112.4953578404571033
 30
0.0
 40
0.0522836228605228
 50
206.0819063143557059
 51
218.5169950892459099
  0
ARC
  5
F45A
  8
0
 10
466.4484895859984022
 20
112.4683759876060947
 30
0.0
 40
0.0089589370651415
 50
218.5043617778391933
 51
241.1076236634189911
  0
ARC
  5
F45B
  8
0
 10
466.4450913693577263
 20
112.4628200958258049
 30
0.0
 40
0.0024698725501039
 50
247.8696966799589916
 51
323.4390125583443023
  0
ARC
  5
F45C
  8
0
 10
466.4052359917689046
 20
112.4739890405854936
 30
0.0
 40
0.0437069356344179
 50
343.1897301194151169
 51
8.7034833862799648
  0
ARC
  5
F45D
  8
0
 10
465.9785653766709856
 20
112.4263390754654068
 30
0.0
 40
0.4729972154389153
 50
6.5876580281464703
 51
16.1595323677618907
  0
ARC
  5
F45E
  8
0
 10
466.0514766959150847
 20
112.4595753020305011
 30
0.0
 40
0.393888278741412
 50
14.46742838913047
 51
26.2723568133925411
  0
ARC
  5
F45F
  8
0
 10
466.3652298541250047
 20
112.6115073426878013
 30
0.0
 40
0.0453717794698529
 50
29.6103130110450685
 51
38.3695560536730369
  0
ARC
  5
F460
  8
0
 10
466.3938748247937838
 20
112.6348410101262942
 30
0.0
 40
0.0084451296596551
 50
34.8848565632663608
 51
69.9896849384839044
  0
ARC
  5
F461
  8
0
 10
466.3965011081198782
 20
112.6405187237501053
 30
0.0
 40
0.0022729235198892
 50
83.3414681909841448
 51
162.6815758218999974
  0
ARC
  5
F462
  8
0
 10
466.4228484144942968
 20
112.6323031565028998
 30
0.0
 40
0.0298714035210924
 50
162.6815758219530892
 51
182.2073825678174899
  0
ARC
  5
F463
  8
0
 10
466.3609383560058745
 20
112.629916823027898
 30
0.0
 40
0.0320846287073044
 50
341.2370184552945034
 51
2.207382567863073
  0
ARC
  5
F464
  8
0
 10
466.3711646256936092
 20
112.6322255846433933
 30
0.0
 40
0.0237832854797508
 50
283.8937629916907781
 51
327.9269932060333872
  0
ARC
  5
F465
  8
0
 10
789.7108983496439123
 20
-1061.6689188050079338
 30
0.0
 40
1217.9794108803760082
 50
105.3947371566517006
 51
105.3957256851324047
  0
ARC
  5
F466
  8
0
 10
466.4825758195923981
 20
112.5686306460833066
 30
0.0
 40
0.1433071359745676
 50
189.3339802749449916
 51
197.2361213032615126
  0
ARC
  5
F467
  8
0
 10
466.4460221350353777
 20
112.5553170513388039
 30
0.0
 40
0.1044670574844524
 50
196.2025108222374001
 51
204.1460138909573061
  0
ARC
  5
F468
  8
0
 10
466.3639862163400949
 20
112.5182558469415
 30
0.0
 40
0.0144507614594371
 50
203.1124034099360074
 51
219.399388198525287
  0
ARC
  5
F469
  8
0
 10
466.3539929464417924
 20
112.5100474612069945
 30
0.0
 40
0.0015185134093904
 50
219.3993881985500991
 51
251.0300979349260899
  0
ARC
  5
F46A
  8
0
 10
466.3536459233458231
 20
112.5090379104864979
 30
0.0
 40
0.0004509846339342
 50
251.0300979349848092
 51
311.8344174488341878
  0
ARC
  5
F46B
  8
0
 10
466.3528306049473144
 20
112.5097723953212068
 30
0.0
 40
0.0015465092365011
 50
316.1950403723944873
 51
348.9311534463698763
  0
ARC
  5
F46C
  8
0
 10
466.3278045634609725
 20
112.5119278546526971
 30
0.0
 40
0.0266568274724615
 50
354.7214469196442224
 51
9.4477796520482666
  0
ARC
  5
F46D
  8
0
 10
466.2041675124200992
 20
112.4924273774480952
 30
0.0
 40
0.1518214875470274
 50
9.0481643425637586
 51
20.1801054869574514
  0
ARC
  5
F46E
  8
0
 10
466.3096169337301831
 20
112.532231144438299
 30
0.0
 40
0.0391264621195291
 50
18.740185379527901
 51
32.8477751575797328
  0
ARC
  5
F46F
  8
0
 10
466.3403543774666105
 20
112.551810980641207
 30
0.0
 40
0.002692455839401
 50
37.5977638330137083
 51
59.3398667813017227
  0
ARC
  5
F470
  8
0
 10
466.3414563202741192
 20
112.5536698088931047
 30
0.0
 40
0.0005315485251165
 50
59.3398667813401204
 51
153.4763044263962968
  0
ARC
  5
F471
  8
0
 10
466.3455224270206259
 20
112.5519472097055029
 30
0.0
 40
0.0049465761537478
 50
156.6574202969491125
 51
184.5836367397789104
  0
ARC
  5
F472
  8
0
 10
466.3805026600700216
 20
112.5521624425544047
 30
0.0
 40
0.03991565830374
 50
180.8764086784362064
 51
189.7717746373353123
  0
ARC
  5
F473
  8
0
 10
466.3963685289288037
 20
112.219117940922203
 30
0.0
 40
0.0286199307110216
 50
105.5150340927344956
 51
153.7085580026738114
  0
ARC
  5
F474
  8
0
 10
466.4061516270808738
 20
112.2155140765716936
 30
0.0
 40
0.0390028568480171
 50
155.3279879180367118
 51
186.7032654547986965
  0
ARC
  5
F475
  8
0
 10
466.5214430025311003
 20
112.2237772072684976
 30
0.0
 40
0.1545598581632171
 50
184.7563257960750889
 51
191.9416055895013073
  0
ARC
  5
F476
  8
0
 10
466.6747056731784937
 20
112.255231654845403
 30
0.0
 40
0.3110155730718826
 50
191.7687032790896069
 51
197.435000966261299
  0
ARC
  5
F477
  8
0
 10
466.5194302362684766
 20
112.2029821019313971
 30
0.0
 40
0.1472562206060825
 50
196.1412163473453916
 51
208.8682431425716004
  0
ARC
  5
F478
  8
0
 10
466.4179480550278072
 20
112.1476713766311946
 30
0.0
 40
0.031686056807893
 50
209.8771333335459985
 51
255.1717366095780051
  0
ARC
  5
F479
  8
0
 10
466.4168461107850021
 20
112.1441446817841978
 30
0.0
 40
0.0279952707635843
 50
255.50469422947819
 51
285.4016456706493159
  0
ARC
  5
F47A
  8
0
 10
467.1992928565028933
 20
109.3229808129930944
 30
0.0
 40
2.8996639878896069
 50
105.0731357126583987
 51
105.5022588631773033
  0
ARC
  5
F47B
  8
0
 10
466.44995215631468
 20
112.0997702743303961
 30
0.0
 40
0.0235881212003224
 50
99.2014525760796317
 51
101.5481424776315009
  0
ARC
  5
F47C
  8
0
 10
466.0106622361843733
 20
112.0694744729457
 30
0.0
 40
0.4729972154389153
 50
10.4105921665327603
 51
16.1595323677618907
  0
ARC
  5
F47D
  8
0
 10
466.0835735554285861
 20
112.1027106995107943
 30
0.0
 40
0.393888278741412
 50
14.46742838913047
 51
26.2723568133925411
  0
ARC
  5
F47E
  8
0
 10
466.3973267136385061
 20
112.2546427401680944
 30
0.0
 40
0.0453717794698529
 50
29.6103130110450685
 51
38.3695560536730369
  0
ARC
  5
F47F
  8
0
 10
466.4259716843072852
 20
112.2779764076066016
 30
0.0
 40
0.0084451296596551
 50
34.8848565632663608
 51
69.9896849384839044
  0
ARC
  5
F480
  8
0
 10
466.4285979676333795
 20
112.2836541212303985
 30
0.0
 40
0.0022729235198892
 50
83.3414681909841448
 51
162.6815758218999974
  0
ARC
  5
F481
  8
0
 10
466.4549452740077982
 20
112.2754385539831929
 30
0.0
 40
0.0298714035210924
 50
162.6815758219530892
 51
182.2073825678174899
  0
ARC
  5
F482
  8
0
 10
466.3930352155193759
 20
112.2730522205082053
 30
0.0
 40
0.0320846287073044
 50
341.2370184552945034
 51
2.207382567863073
  0
ARC
  5
F483
  8
0
 10
466.4032614852071106
 20
112.2753609821238001
 30
0.0
 40
0.0237832854797508
 50
283.8937629916907781
 51
327.9269932060333872
  0
ARC
  5
F484
  8
0
 10
789.7429952091575842
 20
-1062.0257834075280243
 30
0.0
 40
1217.9794108803760082
 50
105.3947371566517006
 51
105.3957256851324047
  0
ARC
  5
F485
  8
0
 10
466.5146726791058995
 20
112.2117660435635997
 30
0.0
 40
0.1433071359745676
 50
189.3339802749449916
 51
197.2361213032615126
  0
ARC
  5
F486
  8
0
 10
466.4781189945488791
 20
112.1984524488190971
 30
0.0
 40
0.1044670574844524
 50
196.2025108222374001
 51
204.1460138909573061
  0
ARC
  5
F487
  8
0
 10
466.3960830758535963
 20
112.1613912444219068
 30
0.0
 40
0.0144507614594371
 50
203.1124034099360074
 51
219.399388198525287
  0
ARC
  5
F488
  8
0
 10
466.3860898059551801
 20
112.1531828586874013
 30
0.0
 40
0.0015185134093904
 50
219.3993881985500991
 51
251.0300979349260899
  0
ARC
  5
F489
  8
0
 10
466.3857427828593245
 20
112.1521733079669048
 30
0.0
 40
0.0004509846339342
 50
251.0300979349848092
 51
311.8344174488341878
  0
ARC
  5
F48A
  8
0
 10
466.3849274644608158
 20
112.1529077928015994
 30
0.0
 40
0.0015465092365011
 50
316.1950403723944873
 51
348.9311534463698763
  0
ARC
  5
F48B
  8
0
 10
466.3599014229744171
 20
112.1550632521330044
 30
0.0
 40
0.0266568274724615
 50
354.7214469196442224
 51
9.4477796520482666
  0
ARC
  5
F48C
  8
0
 10
466.2362643719336006
 20
112.1355627749284025
 30
0.0
 40
0.1518214875470274
 50
9.0481643425637586
 51
20.1801054869574514
  0
ARC
  5
F48D
  8
0
 10
466.3417137932436844
 20
112.1753665419186063
 30
0.0
 40
0.0391264621195291
 50
18.740185379527901
 51
32.8477751575797328
  0
ARC
  5
F48E
  8
0
 10
466.3724512369801118
 20
112.1949463781215997
 30
0.0
 40
0.002692455839401
 50
37.5977638330137083
 51
59.3398667813017227
  0
ARC
  5
F48F
  8
0
 10
466.3735531797876206
 20
112.1968052063734973
 30
0.0
 40
0.0005315485251165
 50
59.3398667813401204
 51
153.4763044263962968
  0
ARC
  5
F490
  8
0
 10
466.3776192865340136
 20
112.1950826071858955
 30
0.0
 40
0.0049465761537478
 50
156.6574202969491125
 51
184.5836367397789104
  0
ARC
  5
F491
  8
0
 10
466.412599519583523
 20
112.1952978400346979
 30
0.0
 40
0.03991565830374
 50
180.8764086784362064
 51
189.7717746373353123
  0
ARC
  5
F492
  8
0
 10
466.3612351718941795
 20
112.9427769869762983
 30
0.0
 40
0.0286199307110216
 50
105.5150340927344956
 51
153.7085580026738114
  0
ARC
  5
F493
  8
0
 10
466.3710182700461928
 20
112.9391731226259026
 30
0.0
 40
0.0390028568480171
 50
155.3279879180367118
 51
186.7032654547986965
  0
ARC
  5
F494
  8
0
 10
466.4863096454964762
 20
112.9474362533227065
 30
0.0
 40
0.1545598581632171
 50
184.7563257960750889
 51
191.9416055895013073
  0
ARC
  5
F495
  8
0
 10
466.6395723161439264
 20
112.9788907008995977
 30
0.0
 40
0.3110155730718826
 50
191.7687032790896069
 51
197.435000966261299
  0
ARC
  5
F496
  8
0
 10
466.4842968792339093
 20
112.926641147985606
 30
0.0
 40
0.1472562206060825
 50
196.1412163473453916
 51
208.8682431425716004
  0
ARC
  5
F497
  8
0
 10
466.382814697993183
 20
112.8713304226854035
 30
0.0
 40
0.031686056807893
 50
209.8771333335459985
 51
255.1717366095780051
  0
ARC
  5
F498
  8
0
 10
466.3817127537503779
 20
112.8678037278384068
 30
0.0
 40
0.0279952707635843
 50
255.50469422947819
 51
285.4016456706493159
  0
ARC
  5
F499
  8
0
 10
467.164159499468326
 20
110.0466398590473034
 30
0.0
 40
2.8996639878896069
 50
105.0731357126583987
 51
105.5022588631773033
  0
ARC
  5
F49A
  8
0
 10
466.4148187992801127
 20
112.8234293203845056
 30
0.0
 40
0.0235881212003224
 50
41.8454035237580371
 51
101.5481424776315009
  0
ARC
  5
F49B
  8
0
 10
466.4793501095671786
 20
112.8621522839916054
 30
0.0
 40
0.0522836228605228
 50
206.0819063143557059
 51
218.5169950892459099
  0
ARC
  5
F49C
  8
0
 10
466.4454530884772794
 20
112.8351704311404973
 30
0.0
 40
0.0089589370651415
 50
218.5043617778391933
 51
241.1076236634189911
  0
ARC
  5
F49D
  8
0
 10
466.4420548718366035
 20
112.8296145393603069
 30
0.0
 40
0.0024698725501039
 50
247.8696966799589916
 51
323.4390125583443023
  0
ARC
  5
F49E
  8
0
 10
466.4021994942477818
 20
112.8407834841199957
 30
0.0
 40
0.0437069356344179
 50
343.1897301194151169
 51
8.7034833862799648
  0
ARC
  5
F49F
  8
0
 10
465.9755288791499197
 20
112.7931335189998947
 30
0.0
 40
0.4729972154389153
 50
6.5876580281464703
 51
16.1595323677618907
  0
ARC
  5
F4A0
  8
0
 10
466.0484401983940188
 20
112.8263697455650032
 30
0.0
 40
0.393888278741412
 50
14.46742838913047
 51
26.2723568133925411
  0
ARC
  5
F4A1
  8
0
 10
466.3621933566039957
 20
112.9783017862223033
 30
0.0
 40
0.0453717794698529
 50
29.6103130110450685
 51
38.3695560536730369
  0
ARC
  5
F4A2
  8
0
 10
466.3908383272727178
 20
113.0016354536607963
 30
0.0
 40
0.0084451296596551
 50
34.8848565632663608
 51
69.9896849384839044
  0
ARC
  5
F4A3
  8
0
 10
466.3934646105988122
 20
113.0073131672845932
 30
0.0
 40
0.0022729235198892
 50
83.3414681909841448
 51
162.6815758218999974
  0
ARC
  5
F4A4
  8
0
 10
466.419811916973174
 20
112.9990976000374019
 30
0.0
 40
0.0298714035210924
 50
162.6815758219530892
 51
182.2073825678174899
  0
ARC
  5
F4A5
  8
0
 10
466.3579018584848086
 20
112.9967112665624001
 30
0.0
 40
0.0320846287073044
 50
341.2370184552945034
 51
2.207382567863073
  0
ARC
  5
F4A6
  8
0
 10
466.3681281281724864
 20
112.9990200281778954
 30
0.0
 40
0.0237832854797508
 50
283.8937629916907781
 51
327.9269932060333872
  0
ARC
  5
F4A7
  8
0
 10
789.7078618521228464
 20
-1061.3021243614739433
 30
0.0
 40
1217.9794108803760082
 50
105.3947371566517006
 51
105.3957256851324047
  0
ARC
  5
F4A8
  8
0
 10
466.4795393220712754
 20
112.9354250896177945
 30
0.0
 40
0.1433071359745676
 50
189.3339802749449916
 51
197.2361213032615126
  0
ARC
  5
F4A9
  8
0
 10
466.4429856375143117
 20
112.922111494873306
 30
0.0
 40
0.1044670574844524
 50
196.2025108222374001
 51
204.1460138909573061
  0
ARC
  5
F4AA
  8
0
 10
466.3609497188190858
 20
112.885050290476002
 30
0.0
 40
0.0144507614594371
 50
203.1124034099360074
 51
219.399388198525287
  0
ARC
  5
F4AB
  8
0
 10
466.3509564489207264
 20
112.8768419047414966
 30
0.0
 40
0.0015185134093904
 50
219.3993881985500991
 51
251.0300979349260899
  0
ARC
  5
F4AC
  8
0
 10
466.3506094258247003
 20
112.875832354021
 30
0.0
 40
0.0004509846339342
 50
251.0300979349848092
 51
311.8344174488341878
  0
ARC
  5
F4AD
  8
0
 10
466.3497941074263053
 20
112.8765668388557941
 30
0.0
 40
0.0015465092365011
 50
316.1950403723944873
 51
348.9311534463698763
  0
ARC
  5
F4AE
  8
0
 10
466.3247680659400203
 20
112.8787222981871992
 30
0.0
 40
0.0266568274724615
 50
354.7214469196442224
 51
9.4477796520482666
  0
ARC
  5
F4AF
  8
0
 10
466.2011310148989764
 20
112.8592218209825973
 30
0.0
 40
0.1518214875470274
 50
9.0481643425637586
 51
20.1801054869574514
  0
ARC
  5
F4B0
  8
0
 10
466.306580436209174
 20
112.8990255879728011
 30
0.0
 40
0.0391264621195291
 50
18.740185379527901
 51
32.8477751575797328
  0
ARC
  5
F4B1
  8
0
 10
466.337317879945715
 20
112.9186054241756949
 30
0.0
 40
0.002692455839401
 50
37.5977638330137083
 51
59.3398667813017227
  0
ARC
  5
F4B2
  8
0
 10
466.3384198227531101
 20
112.9204642524276068
 30
0.0
 40
0.0005315485251165
 50
59.3398667813401204
 51
153.4763044263962968
  0
ARC
  5
F4B3
  8
0
 10
466.3424859294996168
 20
112.918741653240005
 30
0.0
 40
0.0049465761537478
 50
156.6574202969491125
 51
184.5836367397789104
  0
ARC
  5
F4B4
  8
0
 10
466.3774661625488989
 20
112.9189568860889068
 30
0.0
 40
0.03991565830374
 50
180.8764086784362064
 51
189.7717746373353123
  0
ARC
  5
F4B5
  8
0
 10
466.2799101936910802
 20
112.8941878238015022
 30
0.0
 40
0.0286199307110216
 50
105.5150340927344956
 51
153.7085580026738114
  0
ARC
  5
F4B6
  8
0
 10
466.2896932918433208
 20
112.8905839594511065
 30
0.0
 40
0.0390028568480171
 50
155.3279879180367118
 51
186.7032654547986965
  0
ARC
  5
F4B7
  8
0
 10
466.4049846672933768
 20
112.8988470901478962
 30
0.0
 40
0.1545598581632171
 50
184.7563257960750889
 51
191.9416055895013073
  0
ARC
  5
F4B8
  8
0
 10
466.5582473379408839
 20
112.9303015377248016
 30
0.0
 40
0.3110155730718826
 50
191.7687032790896069
 51
197.435000966261299
  0
ARC
  5
F4B9
  8
0
 10
466.4029719010308099
 20
112.8780519848107957
 30
0.0
 40
0.1472562206060825
 50
196.1412163473453916
 51
208.8682431425716004
  0
ARC
  5
F4BA
  8
0
 10
466.3014897197900837
 20
112.8227412595104937
 30
0.0
 40
0.031686056807893
 50
209.8771333335459985
 51
255.1717366095780051
  0
ARC
  5
F4BB
  8
0
 10
466.3003877755473923
 20
112.8192145646635964
 30
0.0
 40
0.0279952707635843
 50
255.50469422947819
 51
285.4016456706493159
  0
ARC
  5
F4BC
  8
0
 10
467.0828345212652835
 20
109.9980506958724931
 30
0.0
 40
2.8996639878896069
 50
105.0731357126583987
 51
105.5022588631773033
  0
ARC
  5
F4BD
  8
0
 10
466.333493821077127
 20
112.7748401572096952
 30
0.0
 40
0.0235881212003224
 50
41.8454035237580371
 51
101.5481424776315009
  0
ARC
  5
F4BE
  8
0
 10
466.3980251313640224
 20
112.813563120816795
 30
0.0
 40
0.0522836228605228
 50
206.0819063143557059
 51
218.5169950892459099
  0
ARC
  5
F4BF
  8
0
 10
466.36412811027418
 20
112.7865812679657012
 30
0.0
 40
0.0089589370651415
 50
218.5043617778391933
 51
241.1076236634189911
  0
ARC
  5
F4C0
  8
0
 10
466.3607298936335042
 20
112.7810253761854966
 30
0.0
 40
0.0024698725501039
 50
247.8696966799589916
 51
323.4390125583443023
  0
ARC
  5
F4C1
  8
0
 10
466.3208745160446824
 20
112.7921943209451996
 30
0.0
 40
0.0437069356344179
 50
343.1897301194151169
 51
8.7034833862799648
  0
ARC
  5
F4C2
  8
0
 10
465.8942039009468203
 20
112.7445443558250986
 30
0.0
 40
0.4729972154389153
 50
6.5876580281464703
 51
14.1722062300429403
  0
ARC
  5
F4C3
  8
0
 10
465.9671152201909763
 20
112.7777805823902071
 30
0.0
 40
0.393888278741412
 50
21.333083926157471
 51
26.2723568133925411
  0
ARC
  5
F4C4
  8
0
 10
466.2808683784008963
 20
112.929712623047493
 30
0.0
 40
0.0453717794698529
 50
29.6103130110450685
 51
38.3695560536730369
  0
ARC
  5
F4C5
  8
0
 10
466.3095133490696185
 20
112.9530462904860002
 30
0.0
 40
0.0084451296596551
 50
34.8848565632663608
 51
69.9896849384839044
  0
ARC
  5
F4C6
  8
0
 10
466.3121396323957129
 20
112.9587240041097971
 30
0.0
 40
0.0022729235198892
 50
83.3414681909841448
 51
162.6815758218999974
  0
ARC
  5
F4C7
  8
0
 10
466.3384869387700746
 20
112.9505084368626058
 30
0.0
 40
0.0298714035210924
 50
162.6815758219530892
 51
182.2073825678174899
  0
ARC
  5
F4C8
  8
0
 10
466.2765768802818229
 20
112.9481221033876039
 30
0.0
 40
0.0320846287073044
 50
341.2370184552945034
 51
2.207382567863073
  0
ARC
  5
F4C9
  8
0
 10
466.2868031499693871
 20
112.9504308650030993
 30
0.0
 40
0.0237832854797508
 50
283.8937629916907781
 51
327.9269932060333872
  0
ARC
  5
F4CA
  8
0
 10
789.6265368739196902
 20
-1061.3507135246491089
 30
0.0
 40
1217.9794108803760082
 50
105.3947371566517006
 51
105.3957256851324047
  0
ARC
  5
F4CB
  8
0
 10
466.398214343868176
 20
112.8868359264429984
 30
0.0
 40
0.1433071359745676
 50
189.3339802749449916
 51
197.2361213032615126
  0
ARC
  5
F4CC
  8
0
 10
466.3616606593112124
 20
112.8735223316984957
 30
0.0
 40
0.1044670574844524
 50
196.2025108222374001
 51
204.1460138909573061
  0
ARC
  5
F4CD
  8
0
 10
466.2796247406159864
 20
112.8364611273012059
 30
0.0
 40
0.0144507614594371
 50
203.1124034099360074
 51
219.399388198525287
  0
ARC
  5
F4CE
  8
0
 10
466.2696314707176839
 20
112.8282527415667005
 30
0.0
 40
0.0015185134093904
 50
219.3993881985500991
 51
251.0300979349260899
  0
ARC
  5
F4CF
  8
0
 10
466.269284447621601
 20
112.8272431908462039
 30
0.0
 40
0.0004509846339342
 50
251.0300979349848092
 51
311.8344174488341878
  0
ARC
  5
F4D0
  8
0
 10
466.2684691292230923
 20
112.827977675680998
 30
0.0
 40
0.0015465092365011
 50
316.1950403723944873
 51
348.9311534463698763
  0
ARC
  5
F4D1
  8
0
 10
466.2434430877368072
 20
112.830133135012403
 30
0.0
 40
0.0266568274724615
 50
354.7214469196442224
 51
9.4477796520482666
  0
ARC
  5
F4D2
  8
0
 10
466.1198060366959908
 20
112.8106326578078011
 30
0.0
 40
0.1518214875470274
 50
9.0481643425637586
 51
20.1801054869574514
  0
ARC
  5
F4D3
  8
0
 10
466.2252554580060746
 20
112.850436424798005
 30
0.0
 40
0.0391264621195291
 50
18.740185379527901
 51
32.8477751575797328
  0
ARC
  5
F4D4
  8
0
 10
466.255992901742502
 20
112.8700162610008988
 30
0.0
 40
0.002692455839401
 50
37.5977638330137083
 51
59.3398667813017227
  0
ARC
  5
F4D5
  8
0
 10
466.2570948445500107
 20
112.8718750892527964
 30
0.0
 40
0.0005315485251165
 50
59.3398667813401204
 51
153.4763044263962968
  0
ARC
  5
F4D6
  8
0
 10
466.2611609512964037
 20
112.8701524900651947
 30
0.0
 40
0.0049465761537478
 50
156.6574202969491125
 51
184.5836367397789104
  0
ARC
  5
F4D7
  8
0
 10
466.2961411843459132
 20
112.8703677229140965
 30
0.0
 40
0.03991565830374
 50
180.8764086784362064
 51
189.7717746373353123
  0
ARC
  5
F4D8
  8
0
 10
466.9764890524622274
 20
110.2821014632338006
 30
0.0
 40
0.0286199307110216
 50
105.5150340927344956
 51
153.7085580026738114
  0
ARC
  5
F4D9
  8
0
 10
466.9862721506142975
 20
110.2784975988834049
 30
0.0
 40
0.0390028568480171
 50
155.3279879180367118
 51
186.7032654547986965
  0
ARC
  5
F4DA
  8
0
 10
467.101563526064524
 20
110.2867607295801946
 30
0.0
 40
0.1545598581632171
 50
184.7563257960750889
 51
191.9416055895013073
  0
ARC
  5
F4DB
  8
0
 10
467.2548261967119174
 20
110.3182151771571
 30
0.0
 40
0.3110155730718826
 50
191.7687032790896069
 51
197.435000966261299
  0
ARC
  5
F4DC
  8
0
 10
467.0995507598019003
 20
110.2659656242430941
 30
0.0
 40
0.1472562206060825
 50
196.1412163473453916
 51
208.8682431425716004
  0
ARC
  5
F4DD
  8
0
 10
466.998068578561174
 20
110.2106548989428063
 30
0.0
 40
0.031686056807893
 50
209.8771333335459985
 51
255.1717366095780051
  0
ARC
  5
F4DE
  8
0
 10
466.9969666343184258
 20
110.2071282040958948
 30
0.0
 40
0.0279952707635843
 50
255.50469422947819
 51
285.4016456706493159
  0
ARC
  5
F4DF
  8
0
 10
467.779413380036317
 20
107.3859643353048057
 30
0.0
 40
2.8996639878896069
 50
105.0731357126583987
 51
105.5022588631773033
  0
ARC
  5
F4E0
  8
0
 10
467.0300726798481037
 20
110.1627537966419936
 30
0.0
 40
0.0235881212003224
 50
41.8454035237580371
 51
101.5481424776315009
  0
ARC
  5
F4E1
  8
0
 10
467.0946039901351128
 20
110.2014767602490934
 30
0.0
 40
0.0522836228605228
 50
206.0819063143557059
 51
218.5169950892459099
  0
ARC
  5
F4E2
  8
0
 10
467.0607069690452136
 20
110.174494907398099
 30
0.0
 40
0.0089589370651415
 50
218.5043617778391933
 51
241.1076236634189911
  0
ARC
  5
F4E3
  8
0
 10
467.0573087524044809
 20
110.168939015617795
 30
0.0
 40
0.0024698725501039
 50
247.8696966799589916
 51
323.4390125583443023
  0
ARC
  5
F4E4
  8
0
 10
467.0174533748157728
 20
110.180107960377498
 30
0.0
 40
0.0437069356344179
 50
343.1897301194151169
 51
8.7034833862799648
  0
ARC
  5
F4E5
  8
0
 10
466.5907827597179107
 20
110.132457995257397
 30
0.0
 40
0.4729972154389153
 50
6.5876580281464703
 51
16.1595323677618907
  0
ARC
  5
F4E6
  8
0
 10
466.6636940789620098
 20
110.1656942218225055
 30
0.0
 40
0.393888278741412
 50
14.46742838913047
 51
26.2723568133925411
  0
ARC
  5
F4E7
  8
0
 10
466.977447237171873
 20
110.3176262624798056
 30
0.0
 40
0.0453717794698529
 50
29.6103130110450685
 51
38.3695560536730369
  0
ARC
  5
F4E8
  8
0
 10
467.0060922078407089
 20
110.3409599299182986
 30
0.0
 40
0.0084451296596551
 50
34.8848565632663608
 51
69.9896849384839044
  0
ARC
  5
F4E9
  8
0
 10
467.0087184911668032
 20
110.3466376435420955
 30
0.0
 40
0.0022729235198892
 50
83.3414681909841448
 51
162.6815758218999974
  0
ARC
  5
F4EA
  8
0
 10
467.0350657975411082
 20
110.3384220762949042
 30
0.0
 40
0.0298714035210924
 50
162.6815758219530892
 51
182.2073825678174899
  0
ARC
  5
F4EB
  8
0
 10
466.9731557390527996
 20
110.3360357428199023
 30
0.0
 40
0.0320846287073044
 50
341.2370184552945034
 51
2.207382567863073
  0
ARC
  5
F4EC
  8
0
 10
466.9833820087404774
 20
110.3383445044353977
 30
0.0
 40
0.0237832854797508
 50
283.8937629916907781
 51
327.9269932060333872
  0
ARC
  5
F4ED
  8
0
 10
790.3231157326907805
 20
-1063.9627998852160999
 30
0.0
 40
1217.9794108803760082
 50
105.3947371566517006
 51
105.3957256851324047
  0
ARC
  5
F4EE
  8
0
 10
467.0947932026392095
 20
110.2747495658752968
 30
0.0
 40
0.1433071359745676
 50
189.3339802749449916
 51
197.2361213032615126
  0
ARC
  5
F4EF
  8
0
 10
467.0582395180823028
 20
110.2614359711307941
 30
0.0
 40
0.1044670574844524
 50
196.2025108222374001
 51
204.1460138909573061
  0
ARC
  5
F4F0
  8
0
 10
466.9762035993870199
 20
110.2243747667335043
 30
0.0
 40
0.0144507614594371
 50
203.1124034099360074
 51
219.399388198525287
  0
ARC
  5
F4F1
  8
0
 10
466.9662103294887174
 20
110.2161663809989989
 30
0.0
 40
0.0015185134093904
 50
219.3993881985500991
 51
251.0300979349260899
  0
ARC
  5
F4F2
  8
0
 10
466.9658633063925777
 20
110.2151568302785023
 30
0.0
 40
0.0004509846339342
 50
251.0300979349848092
 51
311.8344174488341878
  0
ARC
  5
F4F3
  8
0
 10
466.9650479879941827
 20
110.2158913151132964
 30
0.0
 40
0.0015465092365011
 50
316.1950403723944873
 51
348.9311534463698763
  0
ARC
  5
F4F4
  8
0
 10
466.9400219465078976
 20
110.2180467744447014
 30
0.0
 40
0.0266568274724615
 50
354.7214469196442224
 51
9.4477796520482666
  0
ARC
  5
F4F5
  8
0
 10
466.8163848954669106
 20
110.1985462972400995
 30
0.0
 40
0.1518214875470274
 50
9.0481643425637586
 51
20.1801054869574514
  0
ARC
  5
F4F6
  8
0
 10
466.9218343167771081
 20
110.2383500642303034
 30
0.0
 40
0.0391264621195291
 50
18.740185379527901
 51
32.8477751575797328
  0
ARC
  5
F4F7
  8
0
 10
466.9525717605135924
 20
110.2579299004331972
 30
0.0
 40
0.002692455839401
 50
37.5977638330137083
 51
59.3398667813017227
  0
ARC
  5
F4F8
  8
0
 10
466.9536737033209874
 20
110.2597887286850948
 30
0.0
 40
0.0005315485251165
 50
59.3398667813401204
 51
153.4763044263962968
  0
ARC
  5
F4F9
  8
0
 10
466.9577398100674941
 20
110.2580661294974931
 30
0.0
 40
0.0049465761537478
 50
156.6574202969491125
 51
184.5836367397789104
  0
ARC
  5
F4FA
  8
0
 10
466.9927200431167762
 20
110.2582813623463949
 30
0.0
 40
0.03991565830374
 50
180.8764086784362064
 51
189.7717746373353123
  0
ARC
  5
F4FB
  8
0
 10
466.8287740879260923
 20
110.6013328497332964
 30
0.0
 40
0.0286199307110216
 50
105.5150340927344956
 51
153.7085580026738114
  0
ARC
  5
F4FC
  8
0
 10
466.8385571860781056
 20
110.5977289853828012
 30
0.0
 40
0.0390028568480171
 50
155.3279879180367118
 51
186.7032654547986965
  0
ARC
  5
F4FD
  8
0
 10
466.9538485615283889
 20
110.6059921160796051
 30
0.0
 40
0.1545598581632171
 50
184.7563257960750889
 51
191.9416055895013073
  0
ARC
  5
F4FE
  8
0
 10
467.1071112321757255
 20
110.6374465636564963
 30
0.0
 40
0.3110155730718826
 50
191.7687032790896069
 51
197.435000966261299
  0
ARC
  5
F4FF
  8
0
 10
466.9518357952658221
 20
110.5851970107425046
 30
0.0
 40
0.1472562206060825
 50
196.1412163473453916
 51
208.8682431425716004
  0
ARC
  5
F500
  8
0
 10
466.8503536140249821
 20
110.5298862854422026
 30
0.0
 40
0.031686056807893
 50
209.8771333335459985
 51
255.1717366095780051
  0
ARC
  5
F501
  8
0
 10
466.849251669782177
 20
110.5263595905953053
 30
0.0
 40
0.0279952707635843
 50
255.50469422947819
 51
285.4016456706493159
  0
ARC
  5
F502
  8
0
 10
467.6316984155001819
 20
107.705195721804202
 30
0.0
 40
2.8996639878896069
 50
105.0731357126583987
 51
105.5022588631773033
  0
ARC
  5
F503
  8
0
 10
466.8823577153119118
 20
110.4819851831414041
 30
0.0
 40
0.0235881212003224
 50
41.8454035237580371
 51
101.5481424776315009
  0
ARC
  5
F504
  8
0
 10
466.9468890255989777
 20
110.520708146748504
 30
0.0
 40
0.0522836228605228
 50
206.0819063143557059
 51
218.5169950892459099
  0
ARC
  5
F505
  8
0
 10
466.9129920045090785
 20
110.4937262938974953
 30
0.0
 40
0.0089589370651415
 50
218.5043617778391933
 51
241.1076236634189911
  0
ARC
  5
F506
  8
0
 10
466.9095937878684026
 20
110.4881704021172055
 30
0.0
 40
0.0024698725501039
 50
247.8696966799589916
 51
323.4390125583443023
  0
ARC
  5
F507
  8
0
 10
466.8697384102796946
 20
110.4993393468768943
 30
0.0
 40
0.0437069356344179
 50
343.1897301194151169
 51
8.7034833862799648
  0
ARC
  5
F508
  8
0
 10
466.4430677951817188
 20
110.4516893817567933
 30
0.0
 40
0.4729972154389153
 50
6.5876580281464703
 51
16.1595323677618907
  0
ARC
  5
F509
  8
0
 10
466.5159791144258747
 20
110.4849256083219018
 30
0.0
 40
0.393888278741412
 50
14.46742838913047
 51
20.8398170554704905
  0
ARC
  5
F50A
  8
0
 10
466.8356670442043992
 20
110.657575890934794
 30
0.0
 40
0.0237832854797508
 50
283.8937629916907781
 51
294.3165295723836152
  0
ARC
  5
F50B
  8
0
 10
790.1754007681546454
 20
-1063.6435684987170589
 30
0.0
 40
1217.9794108803760082
 50
105.3947371566517006
 51
105.3957256851324047
  0
ARC
  5
F50C
  8
0
 10
466.9470782381031881
 20
110.5939809523746931
 30
0.0
 40
0.1433071359745676
 50
189.3339802749449916
 51
197.2361213032615126
  0
ARC
  5
F50D
  8
0
 10
466.9105245535462245
 20
110.5806673576302046
 30
0.0
 40
0.1044670574844524
 50
196.2025108222374001
 51
204.1460138909573061
  0
ARC
  5
F50E
  8
0
 10
466.8284886348509986
 20
110.5436061532329006
 30
0.0
 40
0.0144507614594371
 50
203.1124034099360074
 51
219.399388198525287
  0
ARC
  5
F50F
  8
0
 10
466.8184953649525255
 20
110.5353977674983952
 30
0.0
 40
0.0015185134093904
 50
219.3993881985500991
 51
251.0300979349260899
  0
ARC
  5
F510
  8
0
 10
466.8181483418564994
 20
110.5343882167779981
 30
0.0
 40
0.0004509846339342
 50
251.0300979349848092
 51
311.8344174488341878
  0
ARC
  5
F511
  8
0
 10
466.8173330234581044
 20
110.5351227016127069
 30
0.0
 40
0.0015465092365011
 50
316.1950403723944873
 51
348.9311534463698763
  0
ARC
  5
F512
  8
0
 10
466.7923069819718194
 20
110.5372781609440977
 30
0.0
 40
0.0266568274724615
 50
354.7214469196442224
 51
9.4477796520482666
  0
ARC
  5
F513
  8
0
 10
466.6686699309307755
 20
110.5177776837394958
 30
0.0
 40
0.1518214875470274
 50
9.0481643425637586
 51
20.1801054869574514
  0
ARC
  5
F514
  8
0
 10
466.7741193522409731
 20
110.5575814507296997
 30
0.0
 40
0.0391264621195291
 50
18.740185379527901
 51
32.8477751575797328
  0
ARC
  5
F515
  8
0
 10
466.8048567959774005
 20
110.577161286932693
 30
0.0
 40
0.002692455839401
 50
37.5977638330137083
 51
59.3398667813017227
  0
ARC
  5
F516
  8
0
 10
466.8059587387849092
 20
110.5790201151845054
 30
0.0
 40
0.0005315485251165
 50
59.3398667813401204
 51
153.4763044263962968
  0
ARC
  5
F517
  8
0
 10
466.8100248455314158
 20
110.5772975159969036
 30
0.0
 40
0.0049465761537478
 50
156.6574202969491125
 51
184.5836367397789104
  0
ARC
  5
F518
  8
0
 10
466.8450050785808116
 20
110.5775127488458054
 30
0.0
 40
0.03991565830374
 50
180.8764086784362064
 51
189.7717746373353123
  0
ARC
  5
F519
  8
0
 10
467.2163419784711209
 20
109.6405047738425935
 30
0.0
 40
0.0286199307110216
 50
105.5150340927344956
 51
153.7085580026738114
  0
ARC
  5
F51A
  8
0
 10
467.226125076623191
 20
109.6369009094921978
 30
0.0
 40
0.0390028568480171
 50
155.3279879180367118
 51
186.7032654547986965
  0
ARC
  5
F51B
  8
0
 10
467.3414164520734175
 20
109.6451640401890018
 30
0.0
 40
0.1545598581632171
 50
184.7563257960750889
 51
191.9416055895013073
  0
ARC
  5
F51C
  8
0
 10
467.4946791227208109
 20
109.676618487765893
 30
0.0
 40
0.3110155730718826
 50
191.7687032790896069
 51
197.435000966261299
  0
ARC
  5
F51D
  8
0
 10
467.3394036858107938
 20
109.6243689348519013
 30
0.0
 40
0.1472562206060825
 50
196.1412163473453916
 51
208.8682431425716004
  0
ARC
  5
F51E
  8
0
 10
467.2379215045701244
 20
109.5690582095515992
 30
0.0
 40
0.031686056807893
 50
209.8771333335459985
 51
255.1717366095780051
  0
ARC
  5
F51F
  8
0
 10
467.2368195603273193
 20
109.565531514704702
 30
0.0
 40
0.0279952707635843
 50
255.50469422947819
 51
285.4016456706493159
  0
ARC
  5
F520
  8
0
 10
468.0192663060452105
 20
106.7443676459135986
 30
0.0
 40
2.8996639878896069
 50
105.0731357126583987
 51
105.5022588631773033
  0
ARC
  5
F521
  8
0
 10
467.2699256058569972
 20
109.5211571072508008
 30
0.0
 40
0.0235881212003224
 50
41.8454035237580371
 51
101.5481424776315009
  0
ARC
  5
F522
  8
0
 10
467.3344569161440063
 20
109.5598800708579006
 30
0.0
 40
0.0522836228605228
 50
206.0819063143557059
 51
218.5169950892459099
  0
ARC
  5
F523
  8
0
 10
467.3005598950542208
 20
109.5328982180068067
 30
0.0
 40
0.0089589370651415
 50
218.5043617778391933
 51
241.1076236634189911
  0
ARC
  5
F524
  8
0
 10
467.2971616784134881
 20
109.5273423262266022
 30
0.0
 40
0.0024698725501039
 50
247.8696966799589916
 51
323.4390125583443023
  0
ARC
  5
F525
  8
0
 10
467.2573063008247232
 20
109.5385112709863051
 30
0.0
 40
0.0437069356344179
 50
343.1897301194151169
 51
8.7034833862799648
  0
ARC
  5
F526
  8
0
 10
466.8306356857268042
 20
109.4908613058662041
 30
0.0
 40
0.4729972154389153
 50
6.5876580281464703
 51
16.1595323677618907
  0
ARC
  5
F527
  8
0
 10
466.9035470049709033
 20
109.5240975324312984
 30
0.0
 40
0.393888278741412
 50
14.46742838913047
 51
26.2723568133925411
  0
ARC
  5
F528
  8
0
 10
467.2173001631808802
 20
109.6760295730885986
 30
0.0
 40
0.0453717794698529
 50
29.6103130110450685
 51
38.3695560536730369
  0
ARC
  5
F529
  8
0
 10
467.2459451338496024
 20
109.6993632405271057
 30
0.0
 40
0.0084451296596551
 50
34.8848565632663608
 51
69.9896849384839044
  0
ARC
  5
F52A
  8
0
 10
467.2485714171756968
 20
109.7050409541509026
 30
0.0
 40
0.0022729235198892
 50
83.3414681909841448
 51
162.6815758218999974
  0
ARC
  5
F52B
  8
0
 10
467.2749187235501154
 20
109.6968253869036971
 30
0.0
 40
0.0298714035210924
 50
162.6815758219530892
 51
182.2073825678174899
  0
ARC
  5
F52C
  8
0
 10
467.2130086650616931
 20
109.6944390534286953
 30
0.0
 40
0.0320846287073044
 50
341.2370184552945034
 51
2.207382567863073
  0
ARC
  5
F52D
  8
0
 10
467.2232349347494278
 20
109.6967478150442048
 30
0.0
 40
0.0237832854797508
 50
283.8937629916907781
 51
327.9269932060333872
  0
ARC
  5
F52E
  8
0
 10
790.5629686586997877
 20
-1064.6043965746071081
 30
0.0
 40
1217.9794108803760082
 50
105.3947371566517006
 51
105.3957256851324047
  0
ARC
  5
F52F
  8
0
 10
467.3346461286482167
 20
109.6331528764840044
 30
0.0
 40
0.1433071359745676
 50
189.3339802749449916
 51
197.2361213032615126
  0
ARC
  5
F530
  8
0
 10
467.29809244409131
 20
109.6198392817396012
 30
0.0
 40
0.1044670574844524
 50
196.2025108222374001
 51
204.1460138909573061
  0
ARC
  5
F531
  8
0
 10
467.2160565253959135
 20
109.5827780773422973
 30
0.0
 40
0.0144507614594371
 50
203.1124034099360074
 51
219.399388198525287
  0
ARC
  5
F532
  8
0
 10
467.206063255497611
 20
109.574569691607806
 30
0.0
 40
0.0015185134093904
 50
219.3993881985500991
 51
251.0300979349260899
  0
ARC
  5
F533
  8
0
 10
467.2057162324015849
 20
109.5735601408872952
 30
0.0
 40
0.0004509846339342
 50
251.0300979349848092
 51
311.8344174488341878
  0
ARC
  5
F534
  8
0
 10
467.2049009140030762
 20
109.5742946257220041
 30
0.0
 40
0.0015465092365011
 50
316.1950403723944873
 51
348.9311534463698763
  0
ARC
  5
F535
  8
0
 10
467.1798748725167911
 20
109.5764500850534944
 30
0.0
 40
0.0266568274724615
 50
354.7214469196442224
 51
9.4477796520482666
  0
ARC
  5
F536
  8
0
 10
467.0562378214759178
 20
109.5569496078489067
 30
0.0
 40
0.1518214875470274
 50
9.0481643425637586
 51
20.1801054869574514
  0
ARC
  5
F537
  8
0
 10
467.1616872427860017
 20
109.5967533748390963
 30
0.0
 40
0.0391264621195291
 50
18.740185379527901
 51
32.8477751575797328
  0
ARC
  5
F538
  8
0
 10
467.1924246865223722
 20
109.6163332110420043
 30
0.0
 40
0.002692455839401
 50
37.5977638330137083
 51
59.3398667813017227
  0
ARC
  5
F539
  8
0
 10
467.193526629329881
 20
109.618192039293902
 30
0.0
 40
0.0005315485251165
 50
59.3398667813401204
 51
153.4763044263962968
  0
ARC
  5
F53A
  8
0
 10
467.1975927360763876
 20
109.6164694401063002
 30
0.0
 40
0.0049465761537478
 50
156.6574202969491125
 51
184.5836367397789104
  0
ARC
  5
F53B
  8
0
 10
467.2325729691257834
 20
109.616684672955202
 30
0.0
 40
0.03991565830374
 50
180.8764086784362064
 51
189.7717746373353123
  0
ARC
  5
F53C
  8
0
 10
467.0439064464293892
 20
109.966121851442594
 30
0.0
 40
0.0286199307110216
 50
105.5150340927344956
 51
153.7085580026738114
  0
ARC
  5
F53D
  8
0
 10
467.0536895445814025
 20
109.9625179870920988
 30
0.0
 40
0.0390028568480171
 50
155.3279879180367118
 51
186.7032654547986965
  0
ARC
  5
F53E
  8
0
 10
467.1689809200316859
 20
109.9707811177889027
 30
0.0
 40
0.1545598581632171
 50
184.7563257960750889
 51
191.9416055895013073
  0
ARC
  5
F53F
  8
0
 10
467.3222435906790224
 20
110.0022355653657939
 30
0.0
 40
0.3110155730718826
 50
191.7687032790896069
 51
197.435000966261299
  0
ARC
  5
F540
  8
0
 10
467.1669681537690053
 20
109.9499860124519017
 30
0.0
 40
0.1472562206060825
 50
196.1412163473453916
 51
208.8682431425716004
  0
ARC
  5
F541
  8
0
 10
467.065485972528279
 20
109.8946752871515997
 30
0.0
 40
0.031686056807893
 50
209.8771333335459985
 51
255.1717366095780051
  0
ARC
  5
F542
  8
0
 10
467.064384028285474
 20
109.8911485923047024
 30
0.0
 40
0.0279952707635843
 50
255.50469422947819
 51
285.4016456706493159
  0
ARC
  5
F543
  8
0
 10
467.8468307740034788
 20
107.0699847235135991
 30
0.0
 40
2.8996639878896069
 50
105.0731357126583987
 51
105.5022588631773033
  0
ARC
  5
F544
  8
0
 10
467.0974900738152087
 20
109.8467741848508012
 30
0.0
 40
0.0235881212003224
 50
41.8454035237580371
 51
101.5481424776315009
  0
ARC
  5
F545
  8
0
 10
467.1620213841022178
 20
109.8854971484578016
 30
0.0
 40
0.0522836228605228
 50
206.0819063143557059
 51
218.5169950892459099
  0
ARC
  5
F546
  8
0
 10
467.1281243630123754
 20
109.858515295606793
 30
0.0
 40
0.0089589370651415
 50
218.5043617778391933
 51
241.1076236634189911
  0
ARC
  5
F547
  8
0
 10
467.1247261463716995
 20
109.8529594038266026
 30
0.0
 40
0.0024698725501039
 50
247.8696966799589916
 51
323.4390125583443023
  0
ARC
  5
F548
  8
0
 10
467.0848707687829915
 20
109.8641283485862061
 30
0.0
 40
0.0437069356344179
 50
343.1897301194151169
 51
8.7034833862799648
  0
ARC
  5
F549
  8
0
 10
466.6582001536850157
 20
109.8164783834661051
 30
0.0
 40
0.4729972154389153
 50
6.5876580281464703
 51
16.1595323677618907
  0
ARC
  5
F54A
  8
0
 10
466.7311114729291717
 20
109.8497146100312989
 30
0.0
 40
0.393888278741412
 50
14.46742838913047
 51
26.2723568133925411
  0
ARC
  5
F54B
  8
0
 10
467.0448646311390917
 20
110.0016466506884996
 30
0.0
 40
0.0453717794698529
 50
29.6103130110450685
 51
38.3695560536730369
  0
ARC
  5
F54C
  8
0
 10
467.0735096018079275
 20
110.0249803181271062
 30
0.0
 40
0.0084451296596551
 50
34.8848565632663608
 51
69.9896849384839044
  0
ARC
  5
F54D
  8
0
 10
467.0761358851340219
 20
110.0306580317509031
 30
0.0
 40
0.0022729235198892
 50
83.3414681909841448
 51
162.6815758218999974
  0
ARC
  5
F54E
  8
0
 10
467.1024831915083269
 20
110.0224424645036976
 30
0.0
 40
0.0298714035210924
 50
162.6815758219530892
 51
182.2073825678174899
  0
ARC
  5
F54F
  8
0
 10
467.0405731330200183
 20
110.0200561310285963
 30
0.0
 40
0.0320846287073044
 50
341.2370184552945034
 51
2.207382567863073
  0
ARC
  5
F550
  8
0
 10
467.0507994027076961
 20
110.0223648926442053
 30
0.0
 40
0.0237832854797508
 50
283.8937629916907781
 51
327.9269932060333872
  0
ARC
  5
F551
  8
0
 10
790.3905331266582834
 20
-1064.2787794970070081
 30
0.0
 40
1217.9794108803760082
 50
105.3947371566517006
 51
105.3957256851324047
  0
ARC
  5
F552
  8
0
 10
467.1622105966064282
 20
109.9587699540840049
 30
0.0
 40
0.1433071359745676
 50
189.3339802749449916
 51
197.2361213032615126
  0
ARC
  5
F553
  8
0
 10
467.1256569120495215
 20
109.9454563593395022
 30
0.0
 40
0.1044670574844524
 50
196.2025108222374001
 51
204.1460138909573061
  0
ARC
  5
F554
  8
0
 10
467.0436209933541818
 20
109.9083951549422977
 30
0.0
 40
0.0144507614594371
 50
203.1124034099360074
 51
219.399388198525287
  0
ARC
  5
F555
  8
0
 10
467.0336277234558224
 20
109.9001867692078065
 30
0.0
 40
0.0015185134093904
 50
219.3993881985500991
 51
251.0300979349260899
  0
ARC
  5
F556
  8
0
 10
467.0332807003597964
 20
109.8991772184872957
 30
0.0
 40
0.0004509846339342
 50
251.0300979349848092
 51
311.8344174488341878
  0
ARC
  5
F557
  8
0
 10
467.0324653819614014
 20
109.8999117033220045
 30
0.0
 40
0.0015465092365011
 50
316.1950403723944873
 51
348.9311534463698763
  0
ARC
  5
F558
  8
0
 10
467.0074393404751163
 20
109.9020671626534948
 30
0.0
 40
0.0266568274724615
 50
354.7214469196442224
 51
9.4477796520482666
  0
ARC
  5
F559
  8
0
 10
466.8838022894340725
 20
109.8825666854488929
 30
0.0
 40
0.1518214875470274
 50
9.0481643425637586
 51
20.1801054869574514
  0
ARC
  5
F55A
  8
0
 10
466.9892517107443268
 20
109.9223704524389973
 30
0.0
 40
0.0391264621195291
 50
18.740185379527901
 51
32.8477751575797328
  0
ARC
  5
F55B
  8
0
 10
467.0199891544806974
 20
109.9419502886420048
 30
0.0
 40
0.002692455839401
 50
37.5977638330137083
 51
59.3398667813017227
  0
ARC
  5
F55C
  8
0
 10
467.0210910972880924
 20
109.9438091168939025
 30
0.0
 40
0.0005315485251165
 50
59.3398667813401204
 51
153.4763044263962968
  0
ARC
  5
F55D
  8
0
 10
467.0251572040347128
 20
109.9420865177063007
 30
0.0
 40
0.0049465761537478
 50
156.6574202969491125
 51
184.5836367397789104
  0
ARC
  5
F55E
  8
0
 10
467.0601374370841086
 20
109.9423017505552025
 30
0.0
 40
0.03991565830374
 50
180.8764086784362064
 51
189.7717746373353123
  0
ARC
  5
F55F
  8
0
 10
475.6106191063003052
 20
113.9197330677700961
 30
0.0
 40
9.3880712370594992
 50
184.4323337435002088
 51
185.1352831269556987
  0
ARC
  5
F560
  8
0
 10
466.2332028798084025
 20
113.0854524629762068
 30
0.0
 40
0.0276905413854788
 50
347.4358848385721217
 51
5.2097410322402427
  0
ARC
  5
F561
  8
0
 10
466.2334474651894993
 20
113.0853979524834045
 30
0.0
 40
0.0274399552676213
 50
302.4289134408916198
 51
347.4358848385737133
  0
ARC
  5
F562
  8
0
 10
466.232888241049011
 20
113.0862781665961023
 30
0.0
 40
0.0284827920351504
 50
285.8211308285708014
 51
302.4289134408952009
  0
ARC
  5
F563
  8
0
 10
465.6806973947652182
 20
115.0349358715888997
 30
0.0
 40
2.053867096789924
 50
284.9688449243935793
 51
285.8211308285708014
  0
ARC
  5
F564
  8
0
 10
466.2182695342033867
 20
113.0243168050962055
 30
0.0
 40
0.0273760018518778
 50
104.968844924390396
 51
184.1628166157634894
  0
LINE
  5
F565
  8
0
 10
466.1909657558077811
 20
113.0223295550570981
 30
0.0
 11
466.1994660632129239
 21
112.941489762833001
 31
0.0
  0
ARC
  5
F566
  8
0
 10
466.2281783427422965
 20
112.9459193034734028
 30
0.0
 40
0.0290519504691298
 50
188.7700734583210078
 51
213.973139070285896
  0
ARC
  5
F567
  8
0
 10
466.2261981309328007
 20
112.9445849840243028
 30
0.0
 40
0.0266641382481262
 50
213.9731390702837928
 51
245.1174261334776929
  0
ARC
  5
F568
  8
0
 10
466.3705827249073081
 20
112.9405339626598987
 30
0.0
 40
0.1569014898491381
 50
187.3741203001320059
 51
194.9742302122307933
  0
ARC
  5
F569
  8
0
 10
466.2433435261978047
 20
112.9065016515987026
 30
0.0
 40
0.0251896381258587
 50
194.9742302122253079
 51
236.1110417468700007
  0
ARC
  5
F56A
  8
0
 10
466.2465517622279094
 20
112.9112779985699007
 30
0.0
 40
0.0309434428509028
 50
236.1110417468696028
 51
279.1833539738854029
  0
ARC
  5
F56B
  8
0
 10
466.4498272148920819
 20
112.9731435264629056
 30
0.0
 40
0.2406990151166755
 50
180.2745753658603007
 51
192.6587018997319092
  0
ARC
  5
F56C
  8
0
 10
466.2543648154014022
 20
112.9809219623106031
 30
0.0
 40
0.0461072720445629
 50
155.7381468827790059
 51
191.1699835046416922
  0
ARC
  5
F56D
  8
0
 10
466.2357905111584842
 20
112.9871652350593934
 30
0.0
 40
0.0266787610503624
 50
104.5992094747125947
 51
151.5670721248436905
  0
ARC
  5
F56E
  8
0
 10
466.166497763933819
 20
113.2763674427109066
 30
0.0
 40
0.270714518707304
 50
283.3631646016685863
 51
291.4557715227556969
  0
ARC
  5
F56F
  8
0
 10
466.2492680709742103
 20
113.0473792392706969
 30
0.0
 40
0.028134891033544
 50
305.2862095464030858
 51
4.002509972115603
  0
ARC
  5
F570
  8
0
 10
466.2785837470677279
 20
113.0494304815635047
 30
0.0
 40
0.0012524610036689
 50
139.0866031119784907
 51
184.0025099721555932
  0
ARC
  5
F571
  8
0
 10
466.2778333727723066
 20
113.0499630298484988
 30
0.0
 40
0.0003481906966089
 50
7.4693700352722123
 51
124.2793671295657987
  0
ARC
  5
F572
  8
0
 10
466.2382026212608253
 20
113.0346352635725964
 30
0.0
 40
0.0428300085268344
 50
9.9569124735437775
 51
21.0345766928702211
  0
ARC
  5
F573
  8
0
 10
465.1839766674164025
 20
112.842663246983804
 30
0.0
 40
1.114391411961172
 50
4.3988650546288337
 51
10.3063750882466501
  0
ARC
  5
F574
  8
0
 10
465.9775120003516804
 20
113.038326262392502
 30
0.0
 40
0.2875837186390572
 50
4.7900496063619498
 51
9.9397521709673295
  0
ARC
  5
F575
  8
0
 10
466.9464832866383972
 20
113.1195235920881004
 30
0.0
 40
0.6847836810600932
 50
184.7900496063618903
 51
187.8127487781563048
  0
ARC
  5
F576
  8
0
 10
472.016280533455074
 20
113.5193077436340019
 30
0.0
 40
5.7700512284343608
 50
187.236824868512997
 51
188.2337899398737022
  0
ARC
  5
F577
  8
0
 10
466.2703962205966945
 20
112.7437835152143037
 30
0.0
 40
0.0280101251749257
 50
319.8280309341662928
 51
3.5681152147271029
  0
ARC
  5
F578
  8
0
 10
466.2700620399019726
 20
112.7440656396650951
 30
0.0
 40
0.0284474705104682
 50
286.4604946276584769
 51
319.8280309341669749
  0
LINE
  5
F579
  8
0
 10
466.2781227493587721
 20
112.7167840791984048
 30
0.0
 11
466.2514255773655236
 21
112.7088960352935061
 31
0.0
  0
ARC
  5
F57A
  8
0
 10
466.2599275105242214
 20
112.6801211483190031
 30
0.0
 40
0.0300046161087011
 50
106.4604946276654971
 51
153.8266817128294122
  0
ARC
  5
F57B
  8
0
 10
466.2526569116287192
 20
112.6836945218796018
 30
0.0
 40
0.0219033441774393
 50
153.8266817128163098
 51
193.0053213826373906
  0
LINE
  5
F57C
  8
0
 10
466.2313154064506193
 20
112.6787653593859062
 30
0.0
 11
466.2430829250999977
 21
112.5986261516988947
 31
0.0
  0
ARC
  5
F57D
  8
0
 10
466.2698866018271247
 20
112.6039471427039018
 30
0.0
 40
0.0273264905600766
 50
191.4545184589426015
 51
221.572786932773397
  0
ARC
  5
F57E
  8
0
 10
466.5586006964995249
 20
112.6333082595216979
 30
0.0
 40
0.3127842700675932
 50
188.7337611769767989
 51
193.6855736993371124
  0
ARC
  5
F57F
  8
0
 10
466.2815199900940115
 20
112.5667047955394935
 30
0.0
 40
0.0278250640039065
 50
195.4216801157197949
 51
285.1702686333863994
  0
ARC
  5
F580
  8
0
 10
7774.9508999397094158
 20
-26430.4370913291313627
 30
0.0
 40
27530.8221189222313114
 50
105.3949703614613043
 51
105.3950003220824954
  0
ARC
  5
F581
  8
0
 10
466.3131325841903276
 20
112.4963400444623005
 30
0.0
 40
0.048471295873156
 50
87.3424370714887743
 51
102.4520122018048056
  0
ARC
  5
F582
  8
0
 10
466.2778372556219892
 20
112.7064404269590057
 30
0.0
 40
0.0309574906014622
 50
334.1934126686456921
 51
5.8000717418512089
  0
ARC
  5
F583
  8
0
 10
466.2825110330413168
 20
112.7041803717173991
 30
0.0
 40
0.025765954695806
 50
284.6352521908145263
 51
334.1934126686471132
  0
ARC
  5
F584
  8
0
 10
466.5526927688097771
 20
111.6695467988563024
 30
0.0
 40
1.043563180993585
 50
104.6352521908144979
 51
106.1883945330100971
  0
ARC
  5
F585
  8
0
 10
466.2694134525805225
 20
112.6453382961532981
 30
0.0
 40
0.0274843370052672
 50
106.188394533013394
 51
146.9661186055870985
  0
ARC
  5
F586
  8
0
 10
466.2710782085957817
 20
112.6442557908103055
 30
0.0
 40
0.0294700938907283
 50
146.9661186055884059
 51
189.6883962777862962
  0
LINE
  5
F587
  8
0
 10
466.242028429800996
 20
112.6392962761261032
 30
0.0
 11
466.2494432896228886
 21
112.5858140769826008
 31
0.0
  0
ARC
  5
F588
  8
0
 10
465.987249176257194
 20
112.6209591592646007
 30
0.0
 40
0.3333786849954124
 50
8.5545446466740245
 51
15.4140845089505092
  0
ARC
  5
F589
  8
0
 10
463.5117923592906095
 20
112.1873252177144025
 30
0.0
 40
2.846443532074276
 50
7.3477091792687732
 51
9.7741115224217339
  0
ARC
  5
F58A
  8
0
 10
466.3163431936305869
 20
112.580609118411104
 30
0.0
 40
0.0346200365864845
 50
302.3376853224551724
 51
307.1957253256728109
  0
ARC
  5
F58B
  8
0
 10
466.3201801282817769
 20
112.5745485172818974
 30
0.0
 40
0.0274469651685859
 50
285.8399980770619777
 51
302.3376853224521028
  0
ARC
  5
F58C
  8
0
 10
466.1036461088938267
 20
113.337729568629797
 30
0.0
 40
0.8207516346927866
 50
284.9499773271134018
 51
285.8399980770619777
  0
ARC
  5
F58D
  8
0
 10
466.5400569553364107
 20
111.7033156824321054
 30
0.0
 40
0.8709230321059384
 50
104.9499773271134018
 51
105.8399981064000031
  0
ARC
  5
F58E
  8
0
 10
466.310025864987324
 20
112.5140675888953012
 30
0.0
 40
0.0281698319573186
 50
105.8399981064102064
 51
157.6690456672970981
  0
ARC
  5
F58F
  8
0
 10
466.3420218027966939
 20
112.5083486979296055
 30
0.0
 40
0.0603312336323448
 50
164.204754088833397
 51
191.0099665899990953
  0
ARC
  5
F590
  8
0
 10
466.6953390128210799
 20
112.5430583827159978
 30
0.0
 40
0.415120419020369
 50
186.394263783865398
 51
196.2075177380401954
  0
ARC
  5
F591
  8
0
 10
466.3233690721916105
 20
112.4370259567276946
 30
0.0
 40
0.0284090154589184
 50
200.2541660904936123
 51
270.1809426218285921
  0
ARC
  5
F592
  8
0
 10
466.3231797010853938
 20
112.4367506910542005
 30
0.0
 40
0.0281349923747953
 50
270.5683605803060914
 51
285.1746116392890826
  0
LINE
  5
F593
  8
0
 10
466.3305443601295224
 20
112.4095966933173969
 30
0.0
 11
466.3456078923360906
 21
112.4137350866458007
 31
0.0
  0
ARC
  5
F594
  8
0
 10
466.3535411612909911
 20
112.3813188219381942
 30
0.0
 40
0.0333729077831582
 50
91.8707781255935743
 51
103.7517667677831952
  0
ARC
  5
F595
  8
0
 10
466.3532817349143897
 20
112.3892613746619986
 30
0.0
 40
0.0254261193868595
 50
38.8294652727438603
 51
91.8707781255903058
  0
ARC
  5
F596
  8
0
 10
466.3447674233045177
 20
112.3824084802100032
 30
0.0
 40
0.0363556968975694
 50
15.4022171384751001
 51
38.8294652727438603
  0
ARC
  5
F597
  8
0
 10
465.9771842674230129
 20
112.3927417456828977
 30
0.0
 40
0.4026337124484906
 50
359.9035997740788275
 51
12.0133658936374399
  0
ARC
  5
F598
  8
0
 10
466.5276085952273206
 20
112.5113509446119053
 30
0.0
 40
0.2434024428107048
 50
186.2805745567468136
 51
189.7373515656072129
  0
ARC
  5
F599
  8
0
 10
466.9201470988559208
 20
112.5787121850096071
 30
0.0
 40
0.6416787458201652
 50
189.7373515656072129
 51
190.4790878724085985
  0
ARC
  5
F59A
  8
0
 10
466.5120896723464057
 20
112.5032372519275015
 30
0.0
 40
0.2267000369045212
 50
190.4790878724078027
 51
192.6989146328378126
  0
ARC
  5
F59B
  8
0
 10
466.3949151402064217
 20
112.4768331630346978
 30
0.0
 40
0.1065873943873208
 50
192.6989146328394042
 51
195.8580698401603115
  0
ARC
  5
F59C
  8
0
 10
466.3144916588393016
 20
112.4539875496896002
 30
0.0
 40
0.0229820213284091
 50
195.8580698401642906
 51
200.6018432233057069
  0
ARC
  5
F59D
  8
0
 10
466.3004390028618218
 20
112.4487049876093039
 30
0.0
 40
0.0079692733402628
 50
200.6018432233159956
 51
205.7317838451598107
  0
ARC
  5
F59E
  8
0
 10
466.2950987494517108
 20
112.4461312476682053
 30
0.0
 40
0.002041167085371
 50
205.7317838452123056
 51
219.9499919123367988
  0
ARC
  5
F59F
  8
0
 10
466.2936416378697118
 20
112.4449107515090986
 30
0.0
 40
0.0001404343222879
 50
219.9499919121448954
 51
284.5784536674424885
  0
ARC
  5
F5A0
  8
0
 10
466.293631192973919
 20
112.4449509119888972
 30
0.0
 40
0.0001819308279823
 50
284.5784536672608738
 51
311.8242282324919756
  0
ARC
  5
F5A1
  8
0
 10
466.2933588539866037
 20
112.445123656343398
 30
0.0
 40
0.0005000275807143
 50
321.931564979496784
 51
351.7729088247107825
  0
ARC
  5
F5A2
  8
0
 10
466.2441645022714169
 20
112.4466132392735034
 30
0.0
 40
0.0497137511629719
 50
358.2004742939103039
 51
8.6024534783651152
  0
ARC
  5
F5A3
  8
0
 10
465.968622202740903
 20
112.4125047353757054
 30
0.0
 40
0.3273437700285399
 50
7.2913116925828794
 51
12.3109447482481809
  0
ARC
  5
F5A4
  8
0
 10
466.2019221057876166
 20
112.4636274114513981
 30
0.0
 40
0.0885086397197536
 50
12.1791492570493798
 51
17.4172659891749504
  0
ARC
  5
F5A5
  8
0
 10
466.2773233243005961
 20
112.4869137411125024
 30
0.0
 40
0.0096007167340056
 50
19.5128474745507994
 51
26.0352965969770516
  0
ARC
  5
F5A6
  8
0
 10
466.2849886423098269
 20
112.4906582137426057
 30
0.0
 40
0.0010697041646183
 50
26.0352965969566696
 51
46.1126559891576093
  0
ARC
  5
F5A7
  8
0
 10
466.2855908495968151
 20
112.4912842764300933
 30
0.0
 40
0.000201022344106
 50
46.1126559887418566
 51
128.4293256481992955
  0
ARC
  5
F5A8
  8
0
 10
466.3146890645999747
 20
112.4889543892110026
 30
0.0
 40
0.0293288265682956
 50
175.1349293984050917
 51
188.2945119490505022
  0
ARC
  5
F5A9
  8
0
 10
469.9231753472419086
 20
113.0083997072287048
 30
0.0
 40
3.6229052387123679
 50
189.4363086026241945
 51
192.1837322250813997
  0
ARC
  5
F5AA
  8
0
 10
466.3240832209490918
 20
112.3268403019926041
 30
0.0
 40
0.0410219279570588
 50
286.1844746960413204
 51
358.9674504833927813
  0
LINE
  5
F5AB
  8
0
 10
466.3355175747088879
 20
112.2874441797107039
 30
0.0
 11
466.3223405568144813
 21
112.2838158643364039
 31
0.0
  0
ARC
  5
F5AC
  8
0
 10
466.3296567097431762
 20
112.2572456607805975
 30
0.0
 40
0.0275590604098522
 50
105.3949881492112013
 51
185.2594026674366887
  0
ARC
  5
F5AD
  8
0
 10
466.3514531820309799
 20
112.2592520824480005
 30
0.0
 40
0.0494476860427488
 50
185.2594026674302938
 51
194.2859092026693872
  0
LINE
  5
F5AE
  8
0
 10
466.3035345941398191
 20
112.2470503371018964
 30
0.0
 11
466.3426059832207216
 21
112.050500255937294
 31
0.0
  0
ARC
  5
F5AF
  8
0
 10
466.3701729193454071
 20
112.0560866295389957
 30
0.0
 40
0.0281272739048811
 50
191.455720076492014
 51
234.2826318153595082
  0
ARC
  5
F5B0
  8
0
 10
466.3680596996646841
 20
112.1428103318928038
 30
0.0
 40
0.045386677611215
 50
287.8602733257292812
 51
327.21864253970341
  0
LINE
  5
F5B1
  8
0
 10
466.3819796459667941
 20
112.0996109615324059
 30
0.0
 11
466.370112965819601
 21
112.0963419639044929
 31
0.0
  0
ARC
  5
F5B2
  8
0
 10
466.3781651214724207
 20
112.0686759843969043
 30
0.0
 40
0.0288136099616865
 50
106.1794756131859998
 51
149.6054069062861061
  0
ARC
  5
F5B3
  8
0
 10
466.3784249938788093
 20
112.0685235511248976
 30
0.0
 40
0.0291148898482325
 50
149.6054069062963947
 51
185.6410933398888972
  0
ARC
  5
F5B4
  8
0
 10
466.8353714351741246
 20
112.1136584439467043
 30
0.0
 40
0.4882850203689533
 50
185.641093339889693
 51
189.4783786378702928
  0
ARC
  5
F5B5
  8
0
 10
468.2704972685281177
 20
112.3775838623406003
 30
0.0
 40
1.947428073147911
 50
190.1842810054369863
 51
194.4284885608302034
  0
ARC
  5
F5B6
  8
0
 10
466.7462051131055887
 20
111.985172851769903
 30
0.0
 40
0.3734354700653382
 50
194.3941153308952039
 51
198.6590372728915952
  0
ARC
  5
F5B7
  8
0
 10
466.4329431808071149
 20
111.8788080074496065
 30
0.0
 40
0.042612463051784
 50
197.9187616753922043
 51
222.5848760660796017
  0
ARC
  5
F5B8
  8
0
 10
466.4210975547030102
 20
111.8698999976382993
 30
0.0
 40
0.0279009960438109
 50
225.5781744218215863
 51
282.7253111707353241
  0
ARC
  5
F5B9
  8
0
 10
466.5799325346537785
 20
111.2209465488417948
 30
0.0
 40
0.6402123094559269
 50
102.8039372020715945
 51
103.7978779203074993
  0
ARC
  5
F5BA
  8
0
 10
466.443852569845717
 20
111.8073059568714029
 30
0.0
 40
0.0383744630122745
 50
49.7686717854174105
 51
98.6946495908160131
  0
ARC
  5
F5BB
  8
0
 10
463.5371704444982015
 20
111.342727813833605
 30
0.0
 40
2.985597377837756
 50
9.7541529197371464
 51
15.0192598332578395
  0
ARC
  5
F5BC
  8
0
 10
466.5140312619536758
 20
112.0399845551342963
 30
0.0
 40
0.1575503762506041
 50
181.9019611510142909
 51
192.0638539629711943
  0
ARC
  5
F5BD
  8
0
 10
467.7866578808121858
 20
112.2702738104556062
 30
0.0
 40
1.450775429544749
 50
190.4531993156359988
 51
193.1648298663237995
  0
ARC
  5
F5BE
  8
0
 10
466.7102437848733985
 20
112.0090791955075957
 30
0.0
 40
0.3432853680872963
 50
191.6335743589106073
 51
200.3069076769633057
  0
ARC
  5
F5BF
  8
0
 10
465.8764321610440788
 20
111.8372513571962941
 30
0.0
 40
0.5145672988340455
 50
5.8773226521965984
 51
12.1049726405532994
  0
ARC
  5
F5C0
  8
0
 10
464.9047569980459116
 20
111.6406424618705984
 30
0.0
 40
1.505910974297985
 50
11.6664241592922107
 51
13.9838903362682192
  0
ARC
  5
F5C1
  8
0
 10
466.1086445665985138
 20
111.9404458348796965
 30
0.0
 40
0.2652549622692295
 50
13.9838903362674305
 51
20.8267676152456112
  0
ARC
  5
F5C2
  8
0
 10
466.4122216468193756
 20
111.8356783354155937
 30
0.0
 40
0.0224473138192816
 50
127.2675074638174948
 51
150.465795398670906
  0
ARC
  5
F5C3
  8
0
 10
466.4088749333259898
 20
111.8375744531640947
 30
0.0
 40
0.0186007889301391
 50
150.4657953986825873
 51
187.8674108134688936
  0
ARC
  5
F5C4
  8
0
 10
466.4490774553092933
 20
111.8431297088924055
 30
0.0
 40
0.0591853135672171
 50
187.8674108134721905
 51
191.5742826239230112
  0
LINE
  5
F5C5
  8
0
 10
466.3910956511041945
 20
111.8312548731810949
 30
0.0
 11
466.4177193474035903
 21
111.7180879699067049
 31
0.0
  0
ARC
  5
F5C6
  8
0
 10
466.4369902087199762
 20
111.7223667446075979
 30
0.0
 40
0.0197401623300249
 50
192.518497248730597
 51
270.4923901119121865
  0
ARC
  5
F5C7
  8
0
 10
466.4369892018692099
 20
111.7224839014657931
 30
0.0
 40
0.0198573235145997
 50
270.4923901119154834
 51
285.2080888850251768
  0
ARC
  5
F5C8
  8
0
 10
465.5745162297624233
 20
114.8951414640389004
 30
0.0
 40
3.3076553156313522
 50
285.2080888850251768
 51
285.4623287459127141
  0
ARC
  5
F5C9
  8
0
 10
466.4665870465242961
 20
111.6702057388038014
 30
0.0
 40
0.0383872384937213
 50
24.0583617686717517
 51
105.4623287459197059
  0
ARC
  5
F5CA
  8
0
 10
462.4760185545106879
 20
110.8116441160525056
 30
0.0
 40
4.1207159685391224
 50
12.28428646429834
 51
12.8136750137382194
  0
ARC
  5
F5CB
  8
0
 10
466.4589370078505794
 20
111.698021857856105
 30
0.0
 40
0.04450691655608
 50
347.4852606618529762
 51
358.8853261821490719
  0
ARC
  5
F5CC
  8
0
 10
466.4838692454592888
 20
111.6924877844192991
 30
0.0
 40
0.0189678789669901
 50
339.5317780623576027
 51
347.4852606618554205
  0
ARC
  5
F5CD
  8
0
 10
466.4616678958366265
 20
111.7007744969289007
 30
0.0
 40
0.0426653372544148
 50
287.9245961656822033
 51
339.5317780623582848
  0
ARC
  5
F5CE
  8
0
 10
466.4140035720134279
 20
111.848129773933195
 30
0.0
 40
0.1975377538641149
 50
282.8679446822661134
 51
287.9245961656822033
  0
ARC
  5
F5CF
  8
0
 10
466.4621177103061882
 20
111.6375110009340972
 30
0.0
 40
0.018506773590928
 50
102.8679446822730057
 51
172.4491039909584913
  0
ARC
  5
F5D0
  8
0
 10
466.4768826597093039
 20
111.6355538138293042
 30
0.0
 40
0.033400876861718
 50
172.4491039909559902
 51
189.1935949929195999
  0
ARC
  5
F5D1
  8
0
 10
466.6957022246601241
 20
111.6709697471210063
 30
0.0
 40
0.2550679477951724
 50
189.1935949929195999
 51
193.544297495790687
  0
ARC
  5
F5D2
  8
0
 10
467.7776571332723847
 20
111.909649739491698
 30
0.0
 40
1.3629981205806609
 50
192.6468398797829877
 51
196.5289616111502085
  0
ARC
  5
F5D3
  8
0
 10
466.5035398761693273
 20
111.5309860262849071
 30
0.0
 40
0.033806754562427
 50
195.6315039951498136
 51
228.1981967940303093
  0
ARC
  5
F5D4
  8
0
 10
466.4922925636104196
 20
111.5227760830459971
 30
0.0
 40
0.0203985666031904
 50
236.4054431604058948
 51
270.8507034835209879
  0
ARC
  5
F5D5
  8
0
 10
466.622803229642102
 20
111.717632397869707
 30
0.0
 40
0.1211112526634357
 50
186.2438849589607912
 51
189.7337877218355118
  0
ARC
  5
F5D6
  8
0
 10
466.5167542354799934
 20
111.7060295980727034
 30
0.0
 40
0.0144294166934091
 50
176.3294019039159934
 51
186.243884958972103
  0
ARC
  5
F5D7
  8
0
 10
466.5031521546558224
 20
111.7069021961807067
 30
0.0
 40
0.0007993752332491
 50
146.6628657088382965
 51
176.3294019037290923
  0
ARC
  5
F5D8
  8
0
 10
466.5026296309417262
 20
111.7072459150947026
 30
0.0
 40
0.0001739364083901
 50
61.8428568477173286
 51
146.6628657079180869
  0
ARC
  5
F5D9
  8
0
 10
466.499539376266398
 20
111.7041631755896987
 30
0.0
 40
0.0045316653745915
 50
21.2915816342301092
 51
45.5700213720212872
  0
ARC
  5
F5DA
  8
0
 10
466.3146335502664215
 20
111.6291712289380058
 30
0.0
 40
0.2040655995064451
 50
16.3758219999810208
 51
22.0584991306337486
  0
ARC
  5
F5DB
  8
0
 10
465.283752695833698
 20
111.312058378508894
 30
0.0
 40
1.2826046316112181
 50
14.6967621065499401
 51
16.9836098525549488
  0
ARC
  5
F5DC
  8
0
 10
466.5083659704491765
 20
111.6496650025663939
 30
0.0
 40
0.0124086749802394
 50
335.3269556363010793
 51
8.0397198072421254
  0
ARC
  5
F5DD
  8
0
 10
466.4953209213757077
 20
111.6556576207861013
 30
0.0
 40
0.0267643281683856
 50
300.3043383777501276
 51
335.326955636299715
  0
ARC
  5
F5DE
  8
0
 10
466.4502607671507235
 20
111.7327554309493962
 30
0.0
 40
0.1160643272207189
 50
288.8395756374324037
 51
300.3043383777501276
  0
ARC
  5
F5DF
  8
0
 10
466.5113606212009927
 20
111.6567546806498967
 30
0.0
 40
0.0214647930273193
 50
332.7444187773078283
 51
16.8007566663148005
  0
ARC
  5
F5E0
  8
0
 10
466.476653572273392
 20
111.674634263301499
 30
0.0
 40
0.0605065491487777
 50
322.0920762357944227
 51
332.7444187773064073
  0
ARC
  5
F5E1
  8
0
 10
466.4953728203983019
 20
111.6627697271492963
 30
0.0
 40
0.038507079450542
 50
285.5556063349309852
 51
318.9064302675872113
  0
ARC
  5
F5E2
  8
0
 10
466.524846353441319
 20
111.5383695634326955
 30
0.0
 40
0.0893785205908915
 50
102.3699603667263034
 51
108.4266665513041943
  0
ARC
  5
F5E3
  8
0
 10
466.5097249843645955
 20
111.5837555385252955
 30
0.0
 40
0.041539806792734
 50
108.4266665513008974
 51
120.4885674652724958
  0
ARC
  5
F5E4
  8
0
 10
466.5022063405829726
 20
111.596525488758104
 30
0.0
 40
0.0267208448432343
 50
120.4885674652756933
 51
181.7232048996766878
  0
ARC
  5
F5E5
  8
0
 10
466.688279798875385
 20
111.6021234474729056
 30
0.0
 40
0.2128784904629301
 50
181.7232048996758067
 51
191.7751162282092992
  0
ARC
  5
F5E6
  8
0
 10
468.1867447150207795
 20
111.9144899480350972
 30
0.0
 40
1.743554790531642
 50
191.7751162282092992
 51
193.671925497981789
  0
ARC
  5
F5E7
  8
0
 10
467.395153747352424
 20
111.7219317449715987
 30
0.0
 40
0.9288800568733968
 50
193.6719254979826133
 51
195.9628702644257032
  0
ARC
  5
F5E8
  8
0
 10
467.7192530523665255
 20
111.8146384702280045
 30
0.0
 40
1.265977811862016
 50
195.962870264426499
 51
198.851510333371408
  0
ARC
  5
F5E9
  8
0
 10
466.6275035935856863
 20
111.4418810443417982
 30
0.0
 40
0.1123465972611155
 50
198.8515103333683101
 51
206.3938040631925048
  0
ARC
  5
F5EA
  8
0
 10
466.5580147174256922
 20
111.4038753936233945
 30
0.0
 40
0.0333556849086602
 50
200.9689229554770975
 51
252.4844932009206957
  0
ARC
  5
F5EB
  8
0
 10
466.5557251782407207
 20
111.4001501961546978
 30
0.0
 40
0.0291335070994464
 50
254.5740160518950859
 51
284.594521388276803
  0
ARC
  5
F5EC
  8
0
 10
466.5910763401574854
 20
111.2835576721000024
 30
0.0
 40
0.0927306030213191
 50
98.8312672785590252
 51
107.5813653945439938
  0
ARC
  5
F5ED
  8
0
 10
466.580608838788919
 20
111.3251065192325058
 30
0.0
 40
0.0502240288620501
 50
87.7181068149217538
 51
94.3037073260787793
  0
ARC
  5
F5EE
  8
0
 10
466.4542813611636234
 20
111.6446554904879065
 30
0.0
 40
0.0257274753105304
 50
13.7202017651524102
 51
37.1119845734107869
  0
ARC
  5
F5EF
  8
0
 10
465.9764918829654903
 20
111.4827087838876025
 30
0.0
 40
0.5301235388614058
 50
14.9593645930173604
 51
18.4815492639918801
  0
ARC
  5
F5F0
  8
0
 10
466.585355116720109
 20
111.6662284995188941
 30
0.0
 40
0.053545825810625
 50
176.751156904811296
 51
183.5006918186909104
  0
ARC
  5
F5F1
  8
0
 10
466.5419880661785896
 20
111.6686901806284027
 30
0.0
 40
0.0101089642001896
 50
159.4174228284383048
 51
176.7511569048454874
  0
ARC
  5
F5F2
  8
0
 10
466.5337166156346029
 20
111.6717963442316943
 30
0.0
 40
0.0012735159132128
 50
53.0944035247626971
 51
159.4174228285027937
  0
ARC
  5
F5F3
  8
0
 10
466.5289041239018957
 20
111.6653880107901955
 30
0.0
 40
0.0092876792616032
 50
27.0824520143733594
 51
53.0944035247550516
  0
ARC
  5
F5F4
  8
0
 10
466.1022607406451925
 20
111.4632552964737044
 30
0.0
 40
0.4813875428987154
 50
16.1384422647341488
 51
25.3838088732493183
  0
ARC
  5
F5F5
  8
0
 10
464.7038444958901096
 20
111.0187001515059961
 30
0.0
 40
1.948641514896204
 50
12.4690915708047605
 51
17.2656416814187814
  0
ARC
  5
F5F6
  8
0
 10
466.5915248849346995
 20
111.5588923146263056
 30
0.0
 40
0.1073183955752516
 50
178.4279875476559027
 51
194.8424011435726868
  0
ARC
  5
F5F7
  8
0
 10
467.3807765617330006
 20
111.7202630231372069
 30
0.0
 40
0.9127423262885239
 50
191.9417165113434862
 51
195.1899685126473116
  0
ARC
  5
F5F8
  8
0
 10
467.2203546474490281
 20
111.6728068045779025
 30
0.0
 40
0.7455001868416673
 50
194.9006504437624869
 51
198.2995586972124897
  0
ARC
  5
F5F9
  8
0
 10
466.5787536349308766
 20
111.456728703154397
 30
0.0
 40
0.0686006859488057
 50
195.209974146117105
 51
213.7969067913927859
  0
ARC
  5
F5FA
  8
0
 10
466.4169543371950795
 20
111.4223893816153037
 30
0.0
 40
0.104860730924954
 50
357.9123702208271993
 51
14.5378890048869298
  0
ARC
  5
F5FB
  8
0
 10
465.6474056543888196
 20
111.2665459503153045
 30
0.0
 40
0.8898965291880401
 50
11.8121859268306793
 51
16.84072399496538
  0
ARC
  5
F5FC
  8
0
 10
466.3496023934666823
 20
111.4865139461596044
 30
0.0
 40
0.1542503884584873
 50
14.2027152184998595
 51
29.2253696173503883
  0
ARC
  5
F5FD
  8
0
 10
466.5434762307049823
 20
111.3911514254846935
 30
0.0
 40
0.0413988884334906
 50
324.0865523724344825
 51
337.5139722517180871
  0
ARC
  5
F5FE
  8
0
 10
466.5462101459772271
 20
111.3891714228113017
 30
0.0
 40
0.038023284294602
 50
284.8271953785193205
 51
324.0865523724359036
  0
ARC
  5
F5FF
  8
0
 10
466.7306585135877981
 20
110.6924016483348936
 30
0.0
 40
0.6827466643977458
 50
104.8271953785192068
 51
106.2448210616310007
  0
ARC
  5
F600
  8
0
 10
466.5448624467150012
 20
111.3300536140132948
 30
0.0
 40
0.0185778546822464
 50
106.2448210616310007
 51
163.3106524142914111
  0
ARC
  5
F601
  8
0
 10
466.5520511675048851
 20
111.3278983511605986
 30
0.0
 40
0.0260827107475205
 50
163.3106524142922069
 51
188.6494169398245049
  0
ARC
  5
F602
  8
0
 10
466.6688728141720048
 20
111.3456690394467046
 30
0.0
 40
0.1442482492609783
 50
188.6494169398245049
 51
191.3839282018921892
  0
ARC
  5
F603
  8
0
 10
466.9352917236342932
 20
111.3993107486448935
 30
0.0
 40
0.4160137148461733
 50
191.3839282018930135
 51
196.2319086494109968
  0
ARC
  5
F604
  8
0
 10
460.9422894642161168
 20
109.654562774585898
 30
0.0
 40
5.8257986481117934
 50
15.7361377243428606
 51
16.2319086494117997
  0
ARC
  5
F605
  8
0
 10
466.7708892529641957
 20
111.2968756773078951
 30
0.0
 40
0.2297580701298436
 50
195.7361377243404945
 51
202.4185224448200984
  0
ARC
  5
F606
  8
0
 10
466.5787249610147001
 20
111.2172516141143035
 30
0.0
 40
0.0217532147482279
 50
201.5736720580540009
 51
241.6424689806119943
  0
ARC
  5
F607
  8
0
 10
466.5776167421400942
 20
111.2151075999864958
 30
0.0
 40
0.0193401554896779
 50
241.5147446559410014
 51
285.7986218080686172
  0
ARC
  5
F608
  8
0
 10
466.8952664211910815
 20
110.0924543609903026
 30
0.0
 40
1.147386724988287
 50
104.9788643815487035
 51
105.7986218080686029
  0
ARC
  5
F609
  8
0
 10
466.6089234124950167
 20
111.1626800274579949
 30
0.0
 40
0.0395170143294525
 50
49.6030279932238685
 51
104.9788643815590063
  0
ARC
  5
F60A
  8
0
 10
466.6143403522892754
 20
111.1690455917421048
 30
0.0
 40
0.0311585667827157
 50
19.5950115196232204
 51
49.6030279932192713
  0
ARC
  5
F60B
  8
0
 10
466.6678203134516139
 20
111.1880837028236044
 30
0.0
 40
0.0256089936676169
 50
199.5950115196320098
 51
209.9096994183994127
  0
ARC
  5
F60C
  8
0
 10
466.6549326494608749
 20
111.1806700639590986
 30
0.0
 40
0.0107411113586343
 50
209.909699418402397
 51
218.2658996750205915
  0
ARC
  5
F60D
  8
0
 10
466.6468384370907074
 20
111.174285458554607
 30
0.0
 40
0.0004319183705717
 50
218.2658996745039985
 51
274.1511112330196056
  0
ARC
  5
F60E
  8
0
 10
466.6468462107305868
 20
111.1741783505651995
 30
0.0
 40
0.0003245286556708
 50
274.1511112331534719
 51
341.294757268591809
  0
ARC
  5
F60F
  8
0
 10
466.5956168659421905
 20
111.1744152930976952
 30
0.0
 40
0.0515378603933685
 50
359.6208791311304935
 51
12.8525434004942696
  0
ARC
  5
F610
  8
0
 10
465.001941866261518
 20
110.8281132987684998
 30
0.0
 40
1.6824015431133079
 50
12.2778172572535595
 51
16.6648911243571689
  0
ARC
  5
F611
  8
0
 10
465.3075457265649106
 20
110.5669471405271054
 30
0.0
 40
1.4815987545779059
 50
18.3560781473837586
 51
21.202570865718549
  0
ARC
  5
F612
  8
0
 10
466.4256006785147974
 20
111.0006697919445031
 30
0.0
 40
0.282364743247349
 50
21.2025708657193093
 51
26.9337249231180387
  0
ARC
  5
F613
  8
0
 10
466.6491823305594835
 20
111.1142647622569939
 30
0.0
 40
0.0315808274725273
 50
26.9337249231194917
 51
39.3712474271424071
  0
ARC
  5
F614
  8
0
 10
466.6714006888112181
 20
111.1324964624986933
 30
0.0
 40
0.0028397360334871
 50
39.3712474270615189
 51
75.1253119100627913
  0
ARC
  5
F615
  8
0
 10
466.6719817123657208
 20
111.1346839982310968
 30
0.0
 40
0.0005763533987118
 50
75.1253119097325737
 51
160.8121751561577071
  0
ARC
  5
F616
  8
0
 10
466.7410943562774719
 20
111.1288279778589043
 30
0.0
 40
0.069918825258981
 50
175.0397949795678869
 51
189.9250006146139924
  0
ARC
  5
F617
  8
0
 10
466.6376493263559837
 20
111.1217051280208068
 30
0.0
 40
0.0349220890781767
 50
319.1674839763990121
 51
351.8872083730275904
  0
ARC
  5
F618
  8
0
 10
466.6354785215331162
 20
111.1216638459792989
 30
0.0
 40
0.0365663649351676
 50
285.5642041195470142
 51
321.4410484195659023
  0
ARC
  5
F619
  8
0
 10
466.6505745010418877
 20
111.0501957035764065
 30
0.0
 40
0.0366258984675654
 50
98.2958723725622008
 51
134.1273078696380878
  0
ARC
  5
F61A
  8
0
 10
466.6499001946535259
 20
111.0551032323358953
 30
0.0
 40
0.0327653392426531
 50
139.2628182684144065
 51
191.3725314856268085
  0
ARC
  5
F61B
  8
0
 10
467.1636999511662225
 20
111.1448051097215028
 30
0.0
 40
0.5543264981198364
 50
189.9900295720723022
 51
195.1824802492558888
  0
ARC
  5
F61C
  8
0
 10
468.0261150175891771
 20
111.3727271940414028
 30
0.0
 40
1.4463438454188231
 50
194.9487450601677097
 51
200.1178276867510988
  0
ARC
  5
F61D
  8
0
 10
466.7955695783887791
 20
110.9219772994484998
 30
0.0
 40
0.1358410619755968
 50
200.1178276867518946
 51
216.1599850635849975
  0
ARC
  5
F61E
  8
0
 10
466.7047916722733021
 20
110.8624386706107998
 30
0.0
 40
0.0279639690899575
 50
227.4881596304824996
 51
266.0190028316508233
  0
ARC
  5
F61F
  8
0
 10
466.7014759674163997
 20
110.8981023223499989
 30
0.0
 40
0.0635750030460612
 50
271.2386487478372032
 51
289.9972976895501802
  0
ARC
  5
F620
  8
0
 10
466.7324600238945891
 20
110.8009799182998023
 30
0.0
 40
0.0385062019316347
 50
69.3255711772399081
 51
103.8887690388482952
  0
ARC
  5
F621
  8
0
 10
466.7357267436535153
 20
110.8074052476755043
 30
0.0
 40
0.0313512141105987
 50
32.2409982644043467
 51
70.765534569969347
  0
ARC
  5
F622
  8
0
 10
466.849466621667375
 20
110.8636534488379937
 30
0.0
 40
0.0957593424356964
 50
204.3765439085755133
 51
210.1716889853709915
  0
ARC
  5
F623
  8
0
 10
466.7797602376807049
 20
110.8231294620023988
 30
0.0
 40
0.015129487682289
 50
210.1716889853703094
 51
225.8534966818733949
  0
ARC
  5
F624
  8
0
 10
466.769939671405325
 20
110.8130118684020999
 30
0.0
 40
0.0010295152628389
 50
225.8534966816777114
 51
307.2432624777883916
  0
ARC
  5
F625
  8
0
 10
466.731803016740173
 20
110.8185974000432026
 30
0.0
 40
0.0392853794193491
 50
350.6165880169796196
 51
13.0805810808109797
  0
ARC
  5
F626
  8
0
 10
465.8385613542324108
 20
110.6567961404709024
 30
0.0
 40
0.9470176711454223
 50
10.3838568153493593
 51
15.1858312685576706
  0
ARC
  5
F627
  8
0
 10
465.8767582248910912
 20
110.837308519480402
 30
0.0
 40
0.8312279740044417
 50
18.4475322554589312
 51
20.3043532947637289
  0
ARC
  5
F628
  8
0
 10
466.617478255063304
 20
111.1113731608014064
 30
0.0
 40
0.041432056870984
 50
20.3043532947595402
 51
26.8902356749469398
  0
ARC
  5
F629
  8
0
 10
466.6753757346413067
 20
111.1288595707723061
 30
0.0
 40
0.0209827006694215
 50
176.5776084465273925
 51
196.6505870281839066
  0
ARC
  5
F62A
  8
0
 10
466.6177196740260911
 20
111.1191582252117058
 30
0.0
 40
0.0377339309319475
 50
341.6198609307925267
 51
5.6105186619047673
  0
ARC
  5
F62B
  8
0
 10
466.6172127394268045
 20
111.1188651066636055
 30
0.0
 40
0.038125094480624
 50
313.0550805508287908
 51
342.2781356101668848
  0
ARC
  5
F62C
  8
0
 10
466.6153601669794853
 20
111.1208479223416958
 30
0.0
 40
0.0408386866913695
 50
286.0498751745707864
 51
313.0550805508246981
  0
ARC
  5
F62D
  8
0
 10
466.4473274657178195
 20
111.7049282020841048
 30
0.0
 40
0.648609006694934
 50
284.7541798202325936
 51
286.0498751745707864
  0
ARC
  5
F62E
  8
0
 10
466.6173916907849843
 20
111.059170367129596
 30
0.0
 40
0.0191671699187697
 50
104.7541798202291972
 51
152.631764176181008
  0
ARC
  5
F62F
  8
0
 10
466.6192349164351754
 20
111.0582162257572065
 30
0.0
 40
0.0212427099824858
 50
152.6317641761671098
 51
194.108923631023913
  0
ARC
  5
F630
  8
0
 10
467.0962840010155901
 20
111.178121663153604
 30
0.0
 40
0.513130037544611
 50
194.108923631023913
 51
197.5921076278852127
  0
ARC
  5
F631
  8
0
 10
470.3564830867816795
 20
112.1060819277040963
 30
0.0
 40
3.9026244324233952
 50
196.1121182603652073
 51
197.1460253710318966
  0
ARC
  5
F632
  8
0
 10
466.7526720750346954
 20
110.9907159156367982
 30
0.0
 40
0.1302039724841145
 50
195.6660360035124029
 51
204.1416964616080918
  0
ARC
  5
F633
  8
0
 10
466.6511454528525178
 20
110.9452121647388054
 30
0.0
 40
0.0189464048426152
 50
204.1416964615935967
 51
242.5846029571569886
  0
ARC
  5
F634
  8
0
 10
466.6535114899799055
 20
110.9497737124075059
 30
0.0
 40
0.0240850670052687
 50
242.5846029571497127
 51
256.8910097519112128
  0
ARC
  5
F635
  8
0
 10
466.6508798207124755
 20
110.9384728203591948
 30
0.0
 40
0.0124817983183909
 50
256.8910097519146234
 51
268.2107997008923803
  0
ARC
  5
F636
  8
0
 10
466.6460087920946762
 20
110.9521735150945005
 30
0.0
 40
0.0190074340300445
 50
169.7463034470663956
 51
174.6182133769154916
  0
ARC
  5
F637
  8
0
 10
466.6470290780242749
 20
110.952077396898602
 30
0.0
 40
0.0200322374675872
 50
174.618213376905004
 51
187.6236318048921135
  0
ARC
  5
F638
  8
0
 10
466.6468581765356021
 20
110.9520545220238006
 30
0.0
 40
0.0198598118931691
 50
187.6236318049014073
 51
196.8114488752345892
  0
ARC
  5
F639
  8
0
 10
474.9142155920023924
 20
113.4499195705080012
 30
0.0
 40
8.6563248546934695
 50
196.8114488752345892
 51
197.5677404858408011
  0
ARC
  5
F63A
  8
0
 10
466.7069381663400236
 20
110.8515028866961956
 30
0.0
 40
0.0475402712287585
 50
197.5677404858377031
 51
211.54929189758181
  0
ARC
  5
F63B
  8
0
 10
466.6781492126322064
 20
110.8338269071507938
 30
0.0
 40
0.0137579665637889
 50
211.5492918975793941
 51
262.6697876449388218
  0
ARC
  5
F63C
  8
0
 10
466.6803214559378148
 20
110.8507132648348943
 30
0.0
 40
0.0307834685185803
 50
262.6697876449421756
 51
281.9571221562961227
  0
ARC
  5
F63D
  8
0
 10
466.6479564972668754
 20
111.0035407126017049
 30
0.0
 40
0.1870003669024911
 50
281.9571221562961227
 51
287.4540433650622049
  0
ARC
  5
F63E
  8
0
 10
466.7143627713825822
 20
110.792336367777807
 30
0.0
 40
0.0343976197965693
 50
68.6176713730443311
 51
107.4540433650585953
  0
ARC
  5
F63F
  8
0
 10
466.7083141991349748
 20
110.7768882072349044
 30
0.0
 40
0.0509877038950439
 50
47.7390837495907974
 51
68.6176713730446295
  0
ARC
  5
F640
  8
0
 10
466.7197740886518886
 20
110.7894997330079008
 30
0.0
 40
0.0339471742651811
 50
24.7827165408699202
 51
47.7390837495988976
  0
ARC
  5
F641
  8
0
 10
367.8048490272623212
 20
80.1495613734500836
 30
0.0
 40
103.585417176569905
 50
17.2133912349743099
 51
17.2336971720035308
  0
ARC
  5
F642
  8
0
 10
469.3076751960383035
 20
111.595933196592398
 30
0.0
 40
2.6769845518310751
 50
197.2133912349742957
 51
197.9888153589550086
  0
LINE
  5
F643
  8
0
 10
466.6345335854701943
 20
111.1927751011694028
 30
0.0
 11
466.6553973174738985
 21
111.117097951492994
 31
0.0
  0
ARC
  5
F644
  8
0
 10
461.7086863723948795
 20
108.9466288444042021
 30
0.0
 40
5.3764757783712609
 50
18.2110564235673706
 51
18.9200575476411785
  0
ARC
  5
F645
  8
0
 10
463.7393213993616996
 20
109.642664898878607
 30
0.0
 40
3.2298633769646048
 50
18.9200575476411785
 51
20.2182815937555311
  0
ARC
  5
F646
  8
0
 10
466.345749037443511
 20
110.6025878807593017
 30
0.0
 40
0.4522894060866133
 50
20.2182815937555311
 51
23.1601047842739582
  0
ARC
  5
F647
  8
0
 10
466.7497911238183974
 20
110.7754276228914989
 30
0.0
 40
0.0128311213512507
 50
23.1601047842599606
 51
38.3351852562789333
  0
ARC
  5
F648
  8
0
 10
466.7083440283997788
 20
110.7700393463583026
 30
0.0
 40
0.053212806416687
 50
359.092430473642878
 51
14.5261327292255302
  0
ARC
  5
F649
  8
0
 10
466.7272610561706188
 20
110.7697396741288998
 30
0.0
 40
0.0342934051807359
 50
326.8088022070804755
 51
359.092430473642878
  0
ARC
  5
F64A
  8
0
 10
466.7211535218871177
 20
110.7729614894722943
 30
0.0
 40
0.0411733076389463
 50
286.4417879024132958
 51
327.7096131718074048
  0
ARC
  5
F64B
  8
0
 10
466.7407887376899112
 20
110.6936598816522945
 30
0.0
 40
0.0406041471945593
 50
101.3363418360979011
 51
118.9088303009312
  0
ARC
  5
F64C
  8
0
 10
466.7348525810833166
 20
110.7056522485894021
 30
0.0
 40
0.0272431349265084
 50
120.1726290435421021
 51
178.3904965539458942
  0
ARC
  5
F64D
  8
0
 10
466.7675347165952076
 20
110.7081772014998933
 30
0.0
 40
0.0599403598325325
 50
181.682363643055794
 51
199.0657459654140098
  0
ARC
  5
F64E
  8
0
 10
478.224407714317806
 20
114.3306660472353968
 30
0.0
 40
12.0758406693956903
 50
197.5537032835320872
 51
198.0175948481980015
  0
ARC
  5
F64F
  8
0
 10
468.4593025638374115
 20
111.1303539706451033
 30
0.0
 40
1.799861613379985
 50
197.2873626192987047
 51
200.3178524388206085
  0
ARC
  5
F650
  8
0
 10
466.7994670712567995
 20
110.5122824026746997
 30
0.0
 40
0.0288743772907441
 50
193.8061987334282037
 51
284.4096469935435039
  0
ARC
  5
F651
  8
0
 10
466.8478876546467973
 20
110.3531846622319961
 30
0.0
 40
0.1374622155088103
 50
100.4451507276661033
 51
107.4560495208235977
  0
ARC
  5
F652
  8
0
 10
466.8290887987616884
 20
110.4551589187008034
 30
0.0
 40
0.0337696604965843
 50
63.0869306706119986
 51
100.4451507276661033
  0
ARC
  5
F653
  8
0
 10
466.8221675595947886
 20
110.4415241202009952
 30
0.0
 40
0.049060549343709
 50
42.5347462657418731
 51
63.0869306706156507
  0
ARC
  5
F654
  8
0
 10
466.8399388300130113
 20
110.4578283266375962
 30
0.0
 40
0.0249432277718462
 50
24.3445588509665889
 51
42.5347462657366577
  0
ARC
  5
F655
  8
0
 10
467.0135191296383823
 20
110.5363654081856026
 30
0.0
 40
0.1655776204209561
 50
204.3445588509680988
 51
206.6782876475143951
  0
ARC
  5
F656
  8
0
 10
466.4246403037417963
 20
110.3679984718266951
 30
0.0
 40
0.4508421592996527
 50
12.0377421664058009
 51
16.9165013075179083
  0
ARC
  5
F657
  8
0
 10
627.9848729539520491
 20
165.0224615129891959
 30
0.0
 40
170.1093350650415061
 50
198.7031028675002062
 51
198.7522455987597141
  0
ARC
  5
F658
  8
0
 10
466.8961274381913995
 20
110.3633418368330013
 30
0.0
 40
0.0285801063324939
 50
288.8500762385723988
 51
314.7354972586741724
  0
ARC
  5
F659
  8
0
 10
466.8984041231952915
 20
110.361044033812604
 30
0.0
 40
0.0253454203620183
 50
314.735497258679402
 51
356.3651608550761125
  0
ARC
  5
F65A
  8
0
 10
466.8760783765131919
 20
110.3624622803382067
 30
0.0
 40
0.0477161688547244
 50
356.365160855071224
 51
10.6610491548039796
  0
ARC
  5
F65B
  8
0
 10
466.9045415028509183
 20
110.3515993223559946
 30
0.0
 40
0.0269695018035402
 50
20.0347109395969589
 51
46.8946158530553632
  0
ARC
  5
F65C
  8
0
 10
466.3154492052061073
 20
110.0795198126408962
 30
0.0
 40
0.6757693976877228
 50
19.048718364731851
 51
24.6008536074069788
  0
ARC
  5
F65D
  8
0
 10
466.5376508547649905
 20
111.6208335261722056
 30
0.0
 40
1.3361330210712301
 50
285.1760708015111163
 51
285.9742368089981142
  0
ARC
  5
F65E
  8
0
 10
466.8946548366851061
 20
110.3046682936812033
 30
0.0
 40
0.0275908374590756
 50
105.1760708015111021
 51
161.4144968418513884
  0
ARC
  5
F65F
  8
0
 10
466.8984378969842055
 20
110.3033962187291053
 30
0.0
 40
0.0315820427795782
 50
161.4144968418464998
 51
193.8878020159025084
  0
ARC
  5
F660
  8
0
 10
467.344725126253195
 20
110.4137403162250024
 30
0.0
 40
0.4913081687076715
 50
193.8878020159015989
 51
197.5379182830756122
  0
ARC
  5
F661
  8
0
 10
467.2496893818956778
 20
110.3837064995809953
 30
0.0
 40
0.3916396037144604
 50
197.5379182830756122
 51
205.0662595265366974
  0
ARC
  5
F662
  8
0
 10
466.9198776738866172
 20
110.2294481791042955
 30
0.0
 40
0.0275360577606549
 50
205.0662595265424955
 51
286.5370235060880191
  0
ARC
  5
F663
  8
0
 10
467.0982979266420898
 20
109.6285376632826001
 30
0.0
 40
0.5993030241562167
 50
104.1607233457765034
 51
106.5370235060849069
  0
ARC
  5
F664
  8
0
 10
466.9580693553975834
 20
110.1843173700963945
 30
0.0
 40
0.0261057329036153
 50
78.2265712522025325
 51
104.1607233457732065
  0
ARC
  5
F665
  8
0
 10
466.9249360100112085
 20
110.2210231103318989
 30
0.0
 40
0.0201661492469061
 50
293.3015568807584259
 51
312.5316114925172997
  0
ARC
  5
F666
  8
0
 10
466.9140348186833194
 20
110.2463335002445035
 30
0.0
 40
0.0477243024849841
 50
287.7691133262488847
 51
293.3015568807587101
  0
ARC
  5
F667
  8
0
 10
466.8669247550733985
 20
110.3933363846357025
 30
0.0
 40
0.2020914172234045
 50
283.021820787684419
 51
287.7691133262488847
  0
ARC
  5
F668
  8
0
 10
466.9183008975485905
 20
110.1711878897478982
 30
0.0
 40
0.0259205600859244
 50
103.021820787694395
 51
171.6503432188991098
  0
ARC
  5
F669
  8
0
 10
466.9346772725070878
 20
110.169625208580797
 30
0.0
 40
0.042358444269973
 50
172.7757556018962077
 51
202.339683599707314
  0
ARC
  5
F66A
  8
0
 10
467.6802872601911076
 20
110.4005792347489034
 30
0.0
 40
0.8227576047273034
 50
197.4741793238019909
 51
198.6749000281457995
  0
ARC
  5
F66B
  8
0
 10
466.3956919944175752
 20
109.9359715048974948
 30
0.0
 40
0.5437354173445521
 50
19.1233747984639599
 51
21.7133804453020502
  0
ARC
  5
F66C
  8
0
 10
467.145904570705909
 20
110.1844551554435014
 30
0.0
 40
0.2467263942681265
 50
196.5678292425936036
 51
203.7957891705235056
  0
ARC
  5
F66D
  8
0
 10
466.9459596723410186
 20
110.095230063377997
 30
0.0
 40
0.027795393796671
 50
201.8028366789478127
 51
262.6786203070204238
  0
ARC
  5
F66E
  8
0
 10
466.9463381405278142
 20
110.0921335915928978
 30
0.0
 40
0.0247843611127073
 50
260.8983147842417907
 51
286.5719154802341109
  0
LINE
  5
F66F
  8
0
 10
466.9534071011743777
 20
110.0683787110178002
 30
0.0
 11
466.9770080035596038
 21
110.0748772614346933
 31
0.0
  0
ARC
  5
F670
  8
0
 10
466.9842958076753234
 20
110.048413324116197
 30
0.0
 40
0.0274490855755349
 50
81.5484022790392942
 51
105.3964659821854042
  0
ARC
  5
F671
  8
0
 10
466.9843165788024066
 20
110.0485531146934051
 30
0.0
 40
0.027307760258628
 50
46.5949783524025065
 51
81.5484022790490712
  0
ARC
  5
F672
  8
0
 10
466.9831589515646897
 20
110.0473291731082952
 30
0.0
 40
0.0289924364368213
 50
20.6462973966072987
 51
46.5949783524152181
  0
ARC
  5
F673
  8
0
 10
465.3610511469091762
 20
109.5818253990609037
 30
0.0
 40
1.717063778918221
 50
18.3392267851582709
 51
21.4741014579619502
  0
ARC
  5
F674
  8
0
 10
465.8604343892346833
 20
109.7473599927376995
 30
0.0
 40
1.1909598686312091
 50
15.0970818836634404
 51
18.3392267851582709
  0
ARC
  5
F675
  8
0
 10
485.1728571781428059
 20
116.4528491111603046
 30
0.0
 40
19.2621047586798895
 50
199.3455711536985859
 51
199.6056360610486138
  0
ARC
  5
F676
  8
0
 10
466.9905380294355837
 20
110.0088245650430991
 30
0.0
 40
0.0283822109057322
 50
21.5703088606058593
 51
104.0524556803324998
  0
LINE
  5
F677
  8
0
 10
466.9836465413022779
 20
110.0363574052017981
 30
0.0
 11
466.9600106199857237
 21
110.0298299613894955
 31
0.0
  0
ARC
  5
F678
  8
0
 10
466.9522579783575225
 20
110.0555314315214019
 30
0.0
 40
0.0268452733734968
 50
203.7988423504299078
 51
286.7849789288912916
  0
LINE
  5
F679
  8
0
 10
466.927695417069117
 20
110.0446986440014996
 30
0.0
 11
466.8999171723729091
 21
110.1231088687656978
 31
0.0
  0
ARC
  5
F67A
  8
0
 10
466.929412261157097
 20
110.1314016007926
 30
0.0
 40
0.0306386955801842
 50
164.0778469064943863
 51
195.7036662230460138
  0
ARC
  5
F67B
  8
0
 10
466.8524840487725101
 20
110.2670407864633972
 30
0.0
 40
0.0257569595646241
 50
17.5992849989617106
 51
35.8105874778211799
  0
ARC
  5
F67C
  8
0
 10
466.6034467080748982
 20
110.165184591551693
 30
0.0
 40
0.2947415894058788
 50
17.9486627218407513
 51
21.8390460918507685
  0
ARC
  5
F67D
  8
0
 10
466.7114317751572798
 20
110.1977567398854063
 30
0.0
 40
0.1819886541995377
 50
13.7583886315385495
 51
18.6697178490750488
  0
ARC
  5
F67E
  8
0
 10
466.8658629919352734
 20
110.2370039600538973
 30
0.0
 40
0.0226971886648878
 50
0.809852587611661
 51
10.2396826658857201
  0
ARC
  5
F67F
  8
0
 10
466.894500480471379
 20
110.2432880077783039
 30
0.0
 40
0.0084186916738588
 50
196.8066207733018871
 51
225.099500211263603
  0
ARC
  5
F680
  8
0
 10
467.1041663617253903
 20
110.3344845720601057
 30
0.0
 40
0.2370039790795989
 50
198.4392272340369914
 51
203.2697090989215098
  0
ARC
  5
F681
  8
0
 10
467.0807884771804765
 20
110.3305305960150946
 30
0.0
 40
0.2136067599283815
 50
194.0940377657256022
 51
199.4165483846201141
  0
ARC
  5
F682
  8
0
 10
466.8949529584389779
 20
110.2817450324570956
 30
0.0
 40
0.0215842653335751
 50
179.0274840321648924
 51
188.6082705907176944
  0
ARC
  5
F683
  8
0
 10
466.8590780136518106
 20
110.1260573882828027
 30
0.0
 40
0.0447858267276773
 50
17.8935340452651417
 51
28.3206644082112113
  0
ARC
  5
F684
  8
0
 10
466.3223611260705752
 20
109.9191729561295006
 30
0.0
 40
0.6199312793465532
 50
18.4554017905171683
 51
20.8497309786107294
  0
ARC
  5
F685
  8
0
 10
466.6857152283258756
 20
110.0389313695537936
 30
0.0
 40
0.2373571466711127
 50
16.6168967169624118
 51
18.7997280081151388
  0
ARC
  5
F686
  8
0
 10
466.8775795224503895
 20
110.0961902151171046
 30
0.0
 40
0.0371310675627739
 50
10.0021463473342909
 51
16.6168967169585109
  0
ARC
  5
F687
  8
0
 10
466.9255275953246951
 20
110.1099976285726001
 30
0.0
 40
0.013552848516574
 50
198.4065147750783922
 51
212.8835642529145105
  0
ARC
  5
F688
  8
0
 10
467.5323331504845896
 20
110.3562213765779063
 30
0.0
 40
0.6683835678123855
 50
201.3166653727060975
 51
202.0113042328754034
  0
ARC
  5
F689
  8
0
 10
466.9067300402684282
 20
110.1475566087668057
 30
0.0
 40
0.0082306568007471
 50
181.7584654573149976
 51
199.7014087127734001
  0
ARC
  5
F68A
  8
0
 10
467.0770708122366273
 20
110.1908719901277038
 30
0.0
 40
0.1839570889277154
 50
194.5099444680444094
 51
198.2247935252291029
  0
ARC
  5
F68B
  8
0
 10
466.3327374560008138
 20
109.5593503850440982
 30
0.0
 40
0.8259307890291044
 50
13.3790901973051604
 51
22.1204850233285413
  0
ARC
  5
F68C
  8
0
 10
467.1102576102153989
 20
109.7408764784583042
 30
0.0
 40
0.0277071780161433
 50
20.2466549517941203
 51
39.9167390575163097
  0
ARC
  5
F68D
  8
0
 10
467.110565475378678
 20
109.741134046551494
 30
0.0
 40
0.027305777615769
 50
39.9167390575111014
 51
85.7027552396838956
  0
ARC
  5
F68E
  8
0
 10
467.134126890832988
 20
109.5918691005621071
 30
0.0
 40
0.1778005318716313
 50
96.95030848215616
 51
108.2119405522633002
  0
ARC
  5
F68F
  8
0
 10
467.0713399170840034
 20
109.7872259626062998
 30
0.0
 40
0.0274297538788675
 50
259.3382886947725865
 51
285.257748019355688
  0
ARC
  5
F690
  8
0
 10
467.0737187396562149
 20
109.7913474520541968
 30
0.0
 40
0.0319590432704582
 50
211.1202217065807929
 51
256.5130736857868783
  0
ARC
  5
F691
  8
0
 10
467.5581442520198721
 20
110.0136532057111936
 30
0.0
 40
0.5647659960917633
 50
199.0298694425216013
 51
205.0159968247895108
  0
ARC
  5
F692
  8
0
 10
467.163058028853925
 20
109.8780930520667027
 30
0.0
 40
0.1470723857952314
 50
186.4487997903540872
 51
199.2911204131847001
  0
ARC
  5
F693
  8
0
 10
467.0480419154606011
 20
109.8599740986575029
 30
0.0
 40
0.0311668101460298
 50
153.4369698448662973
 51
177.0564595715563883
  0
ARC
  5
F694
  8
0
 10
467.0445845373042175
 20
109.8612823836955954
 30
0.0
 40
0.0274919108560808
 50
112.5948808973886059
 51
152.6535523482338874
  0
ARC
  5
F695
  8
0
 10
467.0437532527797089
 20
109.8101490604689019
 30
0.0
 40
0.0274824699914475
 50
135.2268029865458061
 51
183.0546609040285091
  0
ARC
  5
F696
  8
0
 10
467.0567638032313198
 20
109.8119286486704027
 30
0.0
 40
0.0405838389184389
 50
184.584861300052296
 51
198.2054063354075879
  0
ARC
  5
F697
  8
0
 10
468.3962803814224003
 20
110.259523749504794
 30
0.0
 40
1.4529027783585871
 50
198.4692998808392872
 51
201.381600121873106
  0
ARC
  5
F698
  8
0
 10
467.0774103449742256
 20
109.7431527606685933
 30
0.0
 40
0.0365493015907691
 50
201.3816001218692122
 51
242.9605183905117087
  0
ARC
  5
F699
  8
0
 10
467.0706251644274971
 20
109.7359212592860018
 30
0.0
 40
0.0271638535178994
 50
248.7837669374360985
 51
285.8366235122264811
  0
LINE
  5
F69A
  8
0
 10
467.0780380508056737
 20
109.7097884436419974
 30
0.0
 11
467.1024660493714009
 21
109.7167236982902949
 31
0.0
  0
ARC
  5
F69B
  8
0
 10
467.1092067118743216
 20
109.689418719202294
 30
0.0
 40
0.0281246940246338
 50
20.7935648030077509
 51
103.8671001737495061
  0
ARC
  5
F69C
  8
0
 10
465.8145197659882797
 20
109.2992448945681048
 30
0.0
 40
1.380258690008624
 50
16.8528867042004009
 51
19.8693796800525213
  0
ARC
  5
F69D
  8
0
 10
55.8689980057877733
 20
-40.2868482393078722
 30
0.0
 40
437.7597301439466833
 50
20.0163366294963083
 51
20.0381342953936503
  0
ARC
  5
F69E
  8
0
 10
467.1158043735482011
 20
109.8238837439315034
 30
0.0
 40
0.2796317988118151
 50
284.5484209358647263
 51
289.1293377207435924
  0
ARC
  5
F69F
  8
0
 10
467.196544203933513
 20
109.5267401338964959
 30
0.0
 40
0.0284827832507271
 50
111.6251894565455984
 51
161.6100996559123075
  0
ARC
  5
F6A0
  8
0
 10
467.2010133719894043
 20
109.5260438316752953
 30
0.0
 40
0.0329519068880847
 50
162.9128944850436085
 51
194.2907882938455089
  0
ARC
  5
F6A1
  8
0
 10
467.3213897794774994
 20
109.5532246974277939
 30
0.0
 40
0.1563491472944078
 50
193.0541322891210996
 51
199.2608758167193059
  0
ARC
  5
F6A2
  8
0
 10
467.5087156143334823
 20
109.6142724975230038
 30
0.0
 40
0.35335203023555
 50
198.5859287438470062
 51
209.6148747150874954
  0
ARC
  5
F6A3
  8
0
 10
467.225520805969893
 20
109.4558746123584996
 30
0.0
 40
0.0289635414914543
 50
214.0501866675130032
 51
284.5686857262855938
  0
LINE
  5
F6A4
  8
0
 10
467.2328063076967055
 20
109.4278423416636059
 30
0.0
 11
467.2594528234429276
 21
109.4351840585975992
 31
0.0
  0
ARC
  5
F6A5
  8
0
 10
467.266151863364712
 20
109.4118475280035057
 30
0.0
 40
0.0242759464109431
 50
31.34594437246135
 51
106.2183733050268017
  0
ARC
  5
F6A6
  8
0
 10
467.2981672548223742
 20
109.4313483713067967
 30
0.0
 40
0.0132109603662451
 50
211.345944372460707
 51
246.3093753669616035
  0
ARC
  5
F6A7
  8
0
 10
467.2014130161273897
 20
109.4153143649287045
 30
0.0
 40
0.0915307871842089
 50
2.4648106229725348
 51
21.2796031343477487
  0
ARC
  5
F6A8
  8
0
 10
461.7644007173145155
 20
107.4722336474180935
 30
0.0
 40
5.8652863037570366
 50
19.6910647725198586
 51
20.6522405233518711
  0
ARC
  5
F6A9
  8
0
 10
451.0427217860465134
 20
103.5734747899784054
 30
0.0
 40
17.2146065307933398
 50
17.5804967760353783
 51
19.8806633409699387
  0
ARC
  5
F6AA
  8
0
 10
466.0552826156354058
 20
108.1277959776231938
 30
0.0
 40
1.53974481154045
 50
3.8515400330830771
 51
24.7763319783189218
  0
ARC
  5
F6AB
  8
0
 10
461.5829461678915777
 20
107.0581118288862967
 30
0.0
 40
6.1220509218676469
 50
7.9017090941740449
 51
11.0473752353652799
  0
ARC
  5
F6AC
  8
0
 10
467.6585002975270982
 20
107.9016351900112056
 30
0.0
 40
0.0117840362459545
 50
189.2784353278466085
 51
277.0491226335357169
  0
ARC
  5
F6AD
  8
0
 10
467.1458816790733977
 20
109.3000178185428979
 30
0.0
 40
0.1426561342721853
 50
19.4208091485476011
 51
40.2442324953803308
  0
ARC
  5
F6AE
  8
0
 10
463.5922111458896779
 20
107.6069137577826069
 30
0.0
 40
4.0782794512760594
 50
21.1347444037636905
 51
25.2635335705433306
  0
ARC
  5
F6AF
  8
0
 10
466.1298563858780994
 20
108.5777007829006067
 30
0.0
 40
1.361332477263937
 50
15.2173746312037093
 51
21.5342718869644791
  0
ARC
  5
F6B0
  8
0
 10
467.1659123962936064
 20
108.860187322807306
 30
0.0
 40
0.2874568851911569
 50
4.2607060357379094
 51
15.0906373835226493
  0
ARC
  5
F6B1
  8
0
 10
467.4153743282276992
 20
108.8790048336777971
 30
0.0
 40
0.0372870627480161
 50
344.036820919724903
 51
3.9045579034906579
  0
ARC
  5
F6B2
  8
0
 10
467.4454678475028118
 20
108.8710331663309034
 30
0.0
 40
0.0061919486613301
 50
298.9118538502876845
 51
338.3642130963366981
  0
ARC
  5
F6B3
  8
0
 10
467.4476623184742721
 20
108.8690764744499972
 30
0.0
 40
0.0035545112135336
 50
248.9911362431267037
 51
282.9920450804156076
  0
ARC
  5
F6B4
  8
0
 10
467.4751060410227979
 20
108.9039672745359013
 30
0.0
 40
0.0477980804880866
 50
202.131303379524212
 51
233.0713274732017055
  0
ARC
  5
F6B5
  8
0
 10
468.492072313111521
 20
109.3830915635410008
 30
0.0
 40
1.1719111069717949
 50
198.7373375303091052
 51
205.1003922063503069
  0
ARC
  5
F6B6
  8
0
 10
478.0933000563476867
 20
112.8362283912343003
 30
0.0
 40
11.3750560486471706
 50
199.1082990633028089
 51
199.6738539766026008
  0
ARC
  5
F6B7
  8
0
 10
484.548297810971178
 20
115.123809842693305
 30
0.0
 40
18.2233082891754314
 50
198.6198409387887978
 51
199.2606773072151896
  0
ARC
  5
F6B8
  8
0
 10
467.7334141732621902
 20
109.4780570861458955
 30
0.0
 40
0.486286263490297
 50
190.1716050925710135
 51
200.8047915632346019
  0
ARC
  5
F6B9
  8
0
 10
467.1643342206929788
 20
109.4941857924885937
 30
0.0
 40
0.01543161685316
 50
21.3885221351721704
 51
46.3155324339210992
  0
ARC
  5
F6BA
  8
0
 10
466.985234609391398
 20
109.4042305814030982
 30
0.0
 40
0.2157918905086332
 50
21.4247356680587195
 51
26.2916487217892403
  0
ARC
  5
F6BB
  8
0
 10
466.9847870533170067
 20
109.4016318890555937
 30
0.0
 40
0.2171694810471699
 50
17.5835861776938494
 51
22.0198501758465213
  0
ARC
  5
F6BC
  8
0
 10
467.1530963437950277
 20
109.4581040533354042
 30
0.0
 40
0.0397763852500307
 50
4.8145651858601939
 51
13.2755740988526902
  0
ARC
  5
F6BD
  8
0
 10
467.2298636626620123
 20
109.4901493012318952
 30
0.0
 40
0.0469341069451218
 50
201.4549958598794035
 51
217.7081578173286118
  0
ARC
  5
F6BE
  8
0
 10
467.4215742040098007
 20
109.5792010980956945
 30
0.0
 40
0.2582479741199769
 50
199.6018282614886914
 51
204.2868918744443931
  0
ARC
  5
F6BF
  8
0
 10
467.2799584444700258
 20
109.5297314277202929
 30
0.0
 40
0.1082469404791704
 50
194.7335501627300118
 51
200.0817789636664088
  0
ARC
  5
F6C0
  8
0
 10
467.1927623123941089
 20
109.5053333452996043
 30
0.0
 40
0.0177696878649654
 50
179.961665634523996
 51
190.1508744329308058
  0
ARC
  5
F6C1
  8
0
 10
462.3181829373427831
 20
112.7331131622050009
 30
0.0
 40
4.6385738808190107
 50
14.2480835860854498
 51
16.5728062304842112
  0
ARC
  5
F6C2
  8
0
 10
453.3834323766702141
 20
106.1462546692924036
 30
0.0
 40
15.0046180431831395
 50
8.6290874305334917
 51
14.1353778462022603
  0
ARC
  5
F6C3
  8
0
 10
455.3158646616129204
 20
106.981109328854501
 30
0.0
 40
12.9798506321645792
 50
1.5751843856348831
 51
6.2647508144336577
  0
ARC
  5
F6C4
  8
0
 10
448.5671749480218864
 20
106.7566718391877032
 30
0.0
 40
19.7321978323826492
 50
358.5376336836500855
 51
1.6879630765016811
  0
ARC
  5
F6C5
  8
0
 10
424.5366141307362113
 20
107.2165656877802036
 30
0.0
 40
43.7669378814900085
 50
356.2998121328927255
 51
358.7386139551234123
  0
ARC
  5
F6C6
  8
0
 10
224.2438561289390009
 20
43.3501913012883122
 30
0.0
 40
252.5900632004093893
 50
15.2550143577342592
 51
15.5310175392569896
  0
LINE
  5
F6C7
  8
0
 10
467.6107549121414877
 20
110.983708171500794
 30
0.0
 11
466.9677360488707905
 21
113.3188355664163964
 31
0.0
  0
ARC
  5
F6C8
  8
0
 10
433.3267601946898822
 20
104.3192238429577969
 30
0.0
 40
34.8239611129261277
 50
14.9770187184394405
 51
15.9259947950060194
  0
ARC
  5
F6C9
  8
0
 10
468.7851488869970922
 20
104.4119204279197959
 30
0.0
 40
0.019820959144962
 50
270.373887652045596
 51
357.7642441308094021
  0
LINE
  5
F6CA
  8
0
 10
467.9037357839856099
 20
104.1920998894893984
 30
0.0
 11
467.7435809210329012
 21
104.1920998894893984
 31
0.0
  0
ARC
  5
F6CB
  8
0
 10
467.8255125449156822
 20
104.4121592245473948
 30
0.0
 40
0.0200601532525381
 50
184.3253865746715121
 51
269.4821002698787993
  0
ARC
  5
F6CC
  8
0
 10
467.7435709647609769
 20
104.1724074517532017
 30
0.0
 40
0.0196924402531217
 50
89.9710319096985955
 51
177.9204596555335911
  0
ARC
  5
F6CD
  8
0
 10
484.7308093537598097
 20
103.5581680840913066
 30
0.0
 40
17.0180323026564118
 50
177.9291414268703022
 51
182.0708585733138136
  0
ARC
  5
F6CE
  8
0
 10
467.7435564012748159
 20
102.9439222173794946
 30
0.0
 40
0.0196776514326394
 50
182.0621682985577934
 51
270.0211848214797214
  0
LINE
  5
F6CF
  8
0
 10
467.743563676985616
 20
102.924244567292007
 30
0.0
 11
468.0294010935857045
 21
102.924244567292007
 31
0.0
  0
ARC
  5
F6D0
  8
0
 10
467.9305487250462079
 20
102.9439226261382032
 30
0.0
 40
0.019678060106692
 50
269.979492859628408
 51
1.258701638065042
  0
ARC
  5
F6D1
  8
0
 10
86935.7889732104667928
 20
1989.9190834333139719
 30
0.0
 40
86488.4258841905393638
 50
181.2493446095049023
 51
181.2501588054823003
  0
LINE
  5
F6D2
  8
0
 10
468.7469685215389177
 20
104.1334031578327028
 30
0.0
 11
470.0372751092857015
 21
104.1108807724919956
 31
0.0
  0
LINE
  5
F6D3
  8
0
 10
470.0372751092857015
 20
104.5186611138919943
 30
0.0
 11
470.0372751092857015
 21
102.5974176619919973
 31
0.0
  0
ARC
  5
F6D4
  8
0
 10
470.0766463096298935
 20
102.5974147320267065
 30
0.0
 40
0.0393712004533388
 50
179.9957361055708986
 51
269.9983677031696061
  0
LINE
  5
F6D5
  8
0
 10
470.0766451879856049
 20
102.558043531589405
 30
0.0
 11
470.3522357332158776
 21
102.558043531589405
 31
0.0
  0
LINE
  5
F6D6
  8
0
 10
470.3522357332158776
 20
102.558043531589405
 30
0.0
 11
470.3522357332158776
 21
102.5628949357920021
 31
0.0
  0
LINE
  5
F6D7
  8
0
 10
470.3522357332158776
 20
102.5628949357920021
 30
0.0
 11
470.3916058179855781
 21
102.5628949357920021
 31
0.0
  0
LINE
  5
F6D8
  8
0
 10
470.3916058179855781
 20
102.5628949357920021
 30
0.0
 11
470.3916058179855781
 21
104.558043531589405
 31
0.0
  0
LINE
  5
F6D9
  8
0
 10
470.3916058179855781
 20
104.558043531589405
 30
0.0
 11
470.0766451879856049
 21
104.558043531589405
 31
0.0
  0
ARC
  5
F6DA
  8
0
 10
470.0766512248804929
 20
104.5186674159529048
 30
0.0
 40
0.0393761160992534
 50
90.0087842234570701
 51
180.0091700637499059
  0
LINE
  5
F6DB
  8
0
 10
470.0372751092857015
 20
103.0051980032919943
 30
0.0
 11
469.9939680226855785
 21
103.0044420752920047
 31
0.0
  0
ARC
  5
F6DC
  8
0
 10
469.8695199887544049
 20
102.4622983541238028
 30
0.0
 40
0.5562437663033175
 50
77.0718317364770087
 51
104.8872814365258961
  0
LINE
  5
F6DD
  8
0
 10
469.7266108026856273
 20
102.9998707604920014
 30
0.0
 11
469.2301811941815117
 21
102.9915599099368961
 31
0.0
  0
LINE
  5
F6DE
  8
0
 10
469.2301811941815117
 20
102.9915599099368961
 30
0.0
 11
468.6988330876234841
 21
102.9893982246451998
 31
0.0
  0
LINE
  5
F6DF
  8
0
 10
469.9851089562845914
 20
103.0029212776919962
 30
0.0
 11
469.7386231512683139
 21
103.0029212776919962
 31
0.0
  0
LINE
  5
F6E0
  8
0
 10
469.9851089562845914
 20
103.0063997400222036
 30
0.0
 11
469.9851089562845914
 21
103.0029212776919962
 31
0.0
  0
LINE
  5
F6E1
  8
0
 10
468.6994784962957965
 20
102.9936425965919966
 30
0.0
 11
468.7068845643626105
 21
103.1712925969911936
 31
0.0
  0
ARC
  5
F6E2
  8
0
 10
468.7008133148615912
 20
103.923485790840104
 30
0.0
 40
0.0196826649201172
 50
45.2872394762029771
 51
178.7526980114726882
  0
ARC
  5
F6E3
  8
0
 10
468.2388288368787244
 20
103.4568458245141045
 30
0.0
 40
0.6763275583517885
 50
40.9860336289395804
 51
45.2872394762029771
  0
ARC
  5
F6E4
  8
0
 10
468.3551011847312111
 20
103.5578700853284033
 30
0.0
 40
0.5222978204821179
 50
314.2420783102814994
 51
40.9860336289395804
  0
ARC
  5
F6E5
  8
0
 10
468.250291370191178
 20
103.6479308879192018
 30
0.0
 40
0.6600558458485578
 50
312.6978786646528192
 51
315.3055750213462147
  0
ARC
  5
F6E6
  8
0
 10
468.6845335076091033
 20
103.1772839414476977
 30
0.0
 40
0.019685039368432
 50
178.7499948365916964
 51
312.7537159798112043
  0
LINE
  5
F6E7
  8
0
 10
468.6648531527857244
 20
103.1777133700919933
 30
0.0
 11
468.6811353136856724
 21
103.923914239292003
 31
0.0
  0
ARC
  5
F6E8
  8
0
 10
467.9037304724333808
 20
104.172401971547103
 30
0.0
 40
0.0196979186584445
 50
2.0241151842633172
 51
89.9845501681990072
  0
LINE
  5
F6E9
  8
0
 10
467.8253330794856879
 20
104.3920998907919966
 30
0.0
 11
468.7852800599856096
 21
104.3920998907919966
 31
0.0
  0
ARC
  5
F6EA
  8
0
 10
468.7495386182249035
 20
104.3842258749400997
 30
0.0
 40
0.0078740158518684
 50
357.6140564009555192
 51
89.9999988307609158
  0
LINE
  5
F6EB
  8
0
 10
468.7574058078831172
 20
104.3838980754302952
 30
0.0
 11
468.7378018693294166
 21
103.9134034649857057
 31
0.0
  0
ARC
  5
F6EC
  8
0
 10
468.6798105223855941
 20
102.9944620954919969
 30
0.0
 40
0.0196850394000021
 50
270.0000000000097771
 51
357.6140559692098009
  0
LINE
  5
F6ED
  8
0
 10
468.6798105223855941
 20
102.9747770560919946
 30
0.0
 11
467.9495581438052909
 21
102.9747770560916962
 31
0.0
  0
LINE
  5
F6EE
  8
0
 10
468.0294010935857045
 20
102.9747770560916962
 30
0.0
 11
468.0294010935857045
 21
93.2013998106919956
 31
0.0
  0
LINE
  5
F6EF
  8
0
 10
468.580581356485709
 20
93.2013998106919956
 30
0.0
 11
468.580581356485709
 21
102.9747770560918951
 31
0.0
  0
ARC
  5
F6F0
  8
0
 10
467.8604460905979181
 20
104.3842252356817966
 30
0.0
 40
0.0078754073976231
 50
90.791947646252126
 51
182.3808669700202927
  0
LINE
  5
F6F1
  8
0
 10
467.8525774815817044
 20
104.3838980754293004
 30
0.0
 11
467.8605690726399189
 21
104.1920998894893984
 31
0.0
  0
LINE
  5
F6F2
  8
0
 10
470.3916058179855781
 20
95.1862859853920042
 30
0.0
 11
470.3916058179855781
 21
97.7295930719920136
 31
0.0
  0
ARC
  5
F6F3
  8
0
 10
470.3837318021148803
 20
97.7295930719212862
 30
0.0
 40
0.0078740158707156
 50
0.000000514529679
 51
89.9999994854507861
  0
LINE
  5
F6F4
  8
0
 10
470.3837318021855936
 20
97.737467087791984
 30
0.0
 11
469.7341255029857052
 21
97.737467087791984
 31
0.0
  0
ARC
  5
F6F5
  8
0
 10
469.7341255176402797
 20
97.7059710101374037
 30
0.0
 40
0.0314960776546106
 50
90.0000266588039608
 51
179.9999733412155081
  0
LINE
  5
F6F6
  8
0
 10
469.7026294399856283
 20
97.7059710247920066
 30
0.0
 11
469.7026287465361065
 21
95.2099080325920966
 31
0.0
  0
ARC
  5
F6F7
  8
0
 10
469.7341248007940067
 20
95.2099080238419475
 30
0.0
 40
0.0314960542577735
 50
179.9999840822449073
 51
270.001277386069205
  0
LINE
  5
F6F8
  8
0
 10
469.7341255029857052
 20
95.1784119695919912
 30
0.0
 11
470.3837318020242719
 21
95.1784264522998598
 31
0.0
  0
ARC
  5
F6F9
  8
0
 10
470.3837316264721267
 20
95.1863006573806985
 30
0.0
 40
0.0078742050827921
 50
270.001277386069205
 51
359.8932408404975263
  0
LINE
  5
F6FA
  8
0
 10
469.7026294399856283
 20
95.6527425775919937
 30
0.0
 11
469.2323215764856172
 21
95.6527425775919937
 31
0.0
  0
LINE
  5
F6FB
  8
0
 10
469.2323215764856172
 20
95.6527425775919937
 30
0.0
 11
469.1332153207857232
 21
95.7708586648919749
 31
0.0
  0
LINE
  5
F6FC
  8
0
 10
469.1332153207857232
 20
95.7708586648919749
 30
0.0
 11
468.7198294940856726
 21
95.7708586648919749
 31
0.0
  0
LINE
  5
F6FD
  8
0
 10
468.7198294940856726
 20
95.7708586648919749
 30
0.0
 11
468.7198294940856726
 21
97.0307011845920044
 31
0.0
  0
LINE
  5
F6FE
  8
0
 10
468.7198294940856726
 20
97.0307011845920044
 30
0.0
 11
469.1332153207857232
 21
97.0307011845920044
 31
0.0
  0
LINE
  5
F6FF
  8
0
 10
469.1332153207857232
 20
97.0307011845920044
 30
0.0
 11
469.2323231018856973
 21
97.1488114207920006
 31
0.0
  0
LINE
  5
F700
  8
0
 10
469.2323231018856973
 20
97.1488114207920006
 30
0.0
 11
469.7026292851970766
 21
97.1488114207920006
 31
0.0
  0
LINE
  5
F701
  8
0
 10
468.5805821958857109
 20
97.1488114207920006
 30
0.0
 11
468.630774375985709
 21
97.1488114203919935
 31
0.0
  0
ARC
  5
F702
  8
0
 10
468.6307743757467961
 20
97.1188452141729641
 30
0.0
 40
0.0299662062190262
 50
4.4928056606752058
 51
89.9999995433875597
  0
LINE
  5
F703
  8
0
 10
468.6606485011357108
 20
97.1211925844919932
 30
0.0
 11
468.6607743759856248
 21
95.6823181574919772
 31
0.0
  0
ARC
  5
F704
  8
0
 10
468.6312777967867191
 20
95.6822349430337766
 30
0.0
 40
0.02949666172914
 50
269.0220804491797821
 51
0.1359468510386154
  0
LINE
  5
F705
  8
0
 10
468.6307743746857
 20
95.6527425775919937
 30
0.0
 11
468.580581356485709
 21
95.6527425775919937
 31
0.0
  0
LINE
  5
F706
  8
0
 10
468.7198294940856726
 20
95.9775515782919939
 30
0.0
 11
468.6666798877856195
 21
95.9775515782919939
 31
0.0
  0
LINE
  5
F707
  8
0
 10
468.6666798877856195
 20
95.9775515782919939
 30
0.0
 11
468.6607480303824786
 21
95.9834745412120327
 31
0.0
  0
LINE
  5
F708
  8
0
 10
468.7198294940856726
 20
96.8240082711920138
 30
0.0
 11
468.6666798877856195
 21
96.8240082711920138
 31
0.0
  0
LINE
  5
F709
  8
0
 10
468.6666798877856195
 20
96.8240082711920138
 30
0.0
 11
468.6606750215315174
 21
96.8180381471315883
 31
0.0
  0
LINE
  5
F70A
  8
0
 10
467.1837471245856932
 20
93.9283389797919881
 30
0.0
 11
466.4341097748857123
 21
93.9283389797919881
 31
0.0
  0
ARC
  5
F70B
  8
0
 10
466.4341097748857123
 20
93.9480240191919762
 30
0.0
 40
0.0196850393999988
 50
182.385944030796793
 51
270.0
  0
LINE
  5
F70C
  8
0
 10
466.4144418009760216
 20
93.9472045202789445
 30
0.0
 11
466.3565144893476031
 21
95.3374599991237375
 31
0.0
  0
ARC
  5
F70D
  8
0
 10
466.3643816788567733
 20
95.3377877986866764
 30
0.0
 40
0.0078740157053156
 50
89.9999990621823542
 51
182.3859440307994078
  0
LINE
  5
F70E
  8
0
 10
466.3364877076855919
 20
95.3456618144919759
 30
0.0
 11
467.2813693365856125
 21
95.3456618144919759
 31
0.0
  0
LINE
  5
F70F
  8
0
 10
467.2813693365856125
 20
95.3456618144919759
 30
0.0
 11
467.2813695826218918
 21
95.6527425775919937
 31
0.0
  0
ARC
  5
F710
  8
0
 10
467.2534756262857059
 20
95.3377877986920055
 30
0.0
 40
0.0078740157000036
 50
357.6140559696261221
 51
84.9388979711225431
  0
LINE
  5
F711
  8
0
 10
467.2613428157894759
 20
95.3374599991293366
 30
0.0
 11
467.2034155041711756
 21
93.9472045202799393
 31
0.0
  0
ARC
  5
F712
  8
0
 10
467.1837475302563121
 20
93.9480240191930704
 30
0.0
 40
0.0196850394052587
 50
269.9988192446837161
 51
357.6140559696318064
  0
LINE
  5
F713
  8
0
 10
467.0845192037857032
 20
93.9283389797919881
 30
0.0
 11
467.0845381820856232
 21
84.1549617343919891
 31
0.0
  0
ARC
  5
F714
  8
0
 10
458.9615896556288135
 20
84.0180894137140797
 30
0.0
 40
8.1241015992930272
 50
351.8572011055557027
 51
0.9653470298397706
  0
ARC
  5
F715
  8
0
 10
456.2907640657211914
 20
85.7183950319713546
 30
0.0
 40
11.0858952680010407
 50
345.0975290225450749
 51
358.130979430088928
  0
ARC
  5
F716
  8
0
 10
400.0883924033669814
 20
95.2579164976293669
 30
0.0
 40
68.0069753651700211
 50
351.6285963682979059
 51
355.4737848159826967
  0
ARC
  5
F717
  8
0
 10
420.5276730215841781
 20
93.6399001479322948
 30
0.0
 40
47.5037519820500478
 50
355.4737848159826967
 51
359.4711033464784009
  0
ARC
  5
F718
  8
0
 10
415.4283194516326034
 20
93.8223299717529642
 30
0.0
 40
53.1559241435809966
 50
353.351772505465874
 51
359.3286516748253234
  0
ARC
  5
F719
  8
0
 10
421.3515596589217012
 20
92.5765245127095113
 30
0.0
 40
47.131511609105992
 50
349.0449587491506236
 51
354.0224362299153995
  0
ARC
  5
F71A
  8
0
 10
460.6357974955574264
 20
84.9869568490841658
 30
0.0
 40
7.1208688630499237
 50
341.3768445692139153
 51
348.9301836118443134
  0
ARC
  5
F71B
  8
0
 10
466.3891032426549828
 20
83.0634226461060337
 30
0.0
 40
1.054642723468102
 50
325.2350592630428991
 51
340.5914057074577954
  0
ARC
  5
F71C
  8
0
 10
466.9739426545609717
 20
82.6574791692227677
 30
0.0
 40
0.3427247196624424
 50
282.1516562235077004
 51
325.235059263043695
  0
ARC
  5
F71D
  8
0
 10
466.9807670249767284
 20
82.5846978285313043
 30
0.0
 40
0.270276020740215
 50
253.0308953381004073
 51
283.9854720507295269
  0
ARC
  5
F71E
  8
0
 10
466.9893865099738832
 20
82.649690405408947
 30
0.0
 40
0.3351262524992684
 50
210.4821701068210871
 51
254.8647111653266109
  0
ARC
  5
F71F
  8
0
 10
467.3214479453351942
 20
82.8451503759248027
 30
0.0
 40
0.7204435203815363
 50
186.1901533937175941
 51
210.4821701068210871
  0
ARC
  5
F720
  8
0
 10
471.7352561766817871
 20
83.5585083738546643
 30
0.0
 40
5.1906814038172859
 50
181.6864233663584969
 51
188.7658403118543902
  0
ARC
  5
F721
  8
0
 10
484.7584798568370843
 20
84.1082660184673045
 30
0.0
 40
18.2252015762840394
 50
179.8531994085290933
 51
182.2090943428246987
  0
LINE
  5
F722
  8
0
 10
466.5333381013857093
 20
84.1549617343919891
 30
0.0
 11
466.5333381013857093
 21
93.9283389797919881
 31
0.0
  0
LINE
  5
F723
  8
0
 10
468.0294010935857045
 20
97.1488114207920006
 30
0.0
 11
467.6346689040855722
 21
97.1488113889920157
 31
0.0
  0
ARC
  5
F724
  8
0
 10
467.5885559034636003
 20
97.6507959040812636
 30
0.0
 40
0.5040980680540026
 50
232.8253730021600916
 51
275.2485403295938795
  0
LINE
  5
F725
  8
0
 10
466.7370798097857119
 20
95.4784859733919973
 30
0.0
 11
466.6603050540857112
 21
95.478485973891992
 31
0.0
  0
ARC
  5
F726
  8
0
 10
466.6603050542906885
 20
95.5099820370606807
 30
0.0
 40
0.0314960631686919
 50
204.8015400127931969
 51
269.9999996268584255
  0
ARC
  5
F727
  8
0
 10
466.3217783716676763
 20
95.3535497076896945
 30
0.0
 40
0.3414267016502079
 50
24.8015400127939714
 51
55.64015402606843
  0
ARC
  5
F728
  8
0
 10
465.9561233795328121
 20
94.7730088897004634
 30
0.0
 40
1.027364003477047
 50
57.0791105799843521
 51
68.2493490024092324
  0
ARC
  5
F729
  8
0
 10
466.6894050179485021
 20
96.5289288772891183
 30
0.0
 40
0.8758019211922607
 50
243.5372263529467034
 51
246.2609279646005973
  0
ARC
  5
F72A
  8
0
 10
466.699262364764877
 20
96.5573864631663525
 30
0.0
 40
0.905678642607218
 50
187.0234836545749886
 51
243.7812082794291086
  0
ARC
  5
F72B
  8
0
 10
466.698212704714706
 20
96.5587148227156433
 30
0.0
 40
0.9048004424080403
 50
127.5619384809212988
 51
187.1150973763560046
  0
ARC
  5
F72C
  8
0
 10
466.6969280045552182
 20
96.5616735290055317
 30
0.0
 40
0.901672256078452
 50
89.9028226097368872
 51
127.6118400015775052
  0
ARC
  5
F72D
  8
0
 10
466.7000426830750826
 20
96.5604103788170534
 30
0.0
 40
0.9029355011934767
 50
49.7079564932721922
 51
90.1006006138570399
  0
ARC
  5
F72E
  8
0
 10
466.7499664278379896
 20
96.5995424841384249
 30
0.0
 40
0.8408993134611245
 50
25.8347503384082202
 51
50.5783388239022997
  0
ARC
  5
F72F
  8
0
 10
466.7192357774860056
 20
96.565069962507792
 30
0.0
 40
0.883756888036267
 50
14.6364148188570606
 51
26.9781681423489488
  0
LINE
  5
F730
  8
0
 10
467.5533365818589004
 20
96.7883697100919989
 30
0.0
 11
467.6986924320855792
 21
96.7883697100919989
 31
0.0
  0
ARC
  5
F731
  8
0
 10
467.6986924320855792
 20
96.7686846706919965
 30
0.0
 40
0.0196850393999988
 50
359.9999999999968168
 51
90.0
  0
LINE
  5
F732
  8
0
 10
467.7183774714857236
 20
96.7686846706919965
 30
0.0
 11
467.7183774714857236
 21
96.3474248281919756
 31
0.0
  0
ARC
  5
F733
  8
0
 10
467.6986924320855792
 20
96.3474248281919756
 30
0.0
 40
0.0196850394000023
 50
270.0000000000813998
 51
0.0
  0
LINE
  5
F734
  8
0
 10
467.6986924320855792
 20
96.3277397887920017
 30
0.0
 11
467.5530192113841963
 21
96.3277397887917743
 31
0.0
  0
ARC
  5
F735
  8
0
 10
466.1111082066710196
 20
96.8010742691579367
 30
0.0
 40
1.520757839676613
 50
341.4228816812366176
 51
341.8654779489717157
  0
ARC
  5
F736
  8
0
 10
467.5151481580098221
 20
96.3291867613251043
 30
0.0
 40
0.0395400957227424
 50
330.6359371489375008
 51
341.4228816812366176
  0
ARC
  5
F737
  8
0
 10
467.6995210688928069
 20
96.290592422064762
 30
0.0
 40
0.1511380862265396
 50
165.7718126346271958
 51
172.6995160093592006
  0
ARC
  5
F738
  8
0
 10
466.5748694978519211
 20
96.5637893728189312
 30
0.0
 40
1.006228735528232
 50
346.432638684593428
 51
358.2398564072190084
  0
ARC
  5
F739
  8
0
 10
466.5962189227578847
 20
96.5569456084181894
 30
0.0
 40
0.9846985976422162
 50
358.5997269197628157
 51
13.5928159108124191
  0
ARC
  5
F73A
  8
0
 10
467.8896776581515269
 20
96.8588941055661508
 30
0.0
 40
0.3436553650950853
 50
188.810274994661313
 51
191.8422827899800893
  0
ARC
  5
F73B
  8
0
 10
467.4184978408591178
 20
96.7477820748252526
 30
0.0
 40
0.1439883001142307
 50
16.3725295124658885
 51
23.9614167791377994
  0
ARC
  5
F73C
  8
0
 10
466.6941017080170013
 20
96.5610459699577603
 30
0.0
 40
0.9101717899288583
 50
316.3370355571747154
 51
345.1474715656368062
  0
ARC
  5
F73D
  8
0
 10
466.6871531957796151
 20
96.5676775246623293
 30
0.0
 40
0.9197769624995258
 50
296.5455571599322866
 51
316.3370355571747154
  0
ARC
  5
F73E
  8
0
 10
467.9110598842984245
 20
93.839959298312678
 30
0.0
 40
2.07108357419053
 50
113.108628936595494
 51
118.9446308927219036
  0
ARC
  5
F73F
  8
0
 10
467.0979827872798751
 20
95.3313691251199202
 30
0.0
 40
0.3726105264866339
 50
120.5248166474966069
 51
143.3269389805261937
  0
ARC
  5
F740
  8
0
 10
467.0734013832483242
 20
95.3549493001594044
 30
0.0
 40
0.3388380579235154
 50
144.0424718383929985
 51
155.2568716133806959
  0
ARC
  5
F741
  8
0
 10
466.737029553926277
 20
95.5100331763452033
 30
0.0
 40
0.031563145691675
 50
293.8482812562372146
 51
335.1525934573676864
  0
ARC
  5
F742
  8
0
 10
466.7370733830649101
 20
95.5100125561580739
 30
0.0
 40
0.0315265812292053
 50
270.0117515806570054
 51
293.7905796105478089
  0
LINE
  5
F743
  8
0
 10
466.3364877076855919
 20
95.7273813881901532
 30
0.0
 11
466.3364877076855919
 21
95.3456618144919759
 31
0.0
  0
LINE
  5
F744
  8
0
 10
466.9094591885881869
 20
95.6527425775919937
 30
0.0
 11
468.0294010935857045
 21
95.6527425775919937
 31
0.0
  0
ARC
  5
F746
  8
0
 10
466.6984642250467914
 20
96.5115659098857321
 30
0.0
 40
0.2521282798419884
 50
89.9486555209013403
 51
163.4014005822278079
  0
ARC
  5
F747
  8
0
 10
466.6975354494426256
 20
96.5132436004586935
 30
0.0
 40
0.250762542821561
 50
163.7081360457131041
 51
264.4137297119049208
  0
ARC
  5
F748
  8
0
 10
466.6991165278211042
 20
96.5140413145996376
 30
0.0
 40
0.251714822649004
 50
264.0732245246903176
 51
353.1607215304322267
  0
ARC
  5
F749
  8
0
 10
466.6994937260357119
 20
96.5125307379655055
 30
0.0
 40
0.251164635962893
 50
353.4926178248135784
 51
90.1833090338325434
  0
ARC
  5
F74A
  8
0
 10
466.6988939039486013
 20
96.5133435074571651
 30
0.0
 40
0.3027568575705594
 50
90.0381279925594669
 51
142.0383202147449992
  0
ARC
  5
F74B
  8
0
 10
466.6996537183775899
 20
96.51218650514366
 30
0.0
 40
0.3040679494158308
 50
141.9545026510685091
 51
190.2768183826391919
  0
ARC
  5
F74C
  8
0
 10
466.6950452916597101
 20
96.5116883342772951
 30
0.0
 40
0.299444762596868
 50
190.3403401345279065
 51
234.5448981935944914
  0
ARC
  5
F74D
  8
0
 10
466.6984233070530195
 20
96.516961220877306
 30
0.0
 40
0.3056995215459741
 50
234.6024349014049051
 51
270.0504402633296195
  0
ARC
  5
F74E
  8
0
 10
466.6992062449734817
 20
96.5161738754583354
 30
0.0
 40
0.304912490588672
 50
269.9034493799575216
 51
307.3062747626823921
  0
ARC
  5
F74F
  8
0
 10
466.7024271616430156
 20
96.511638561843327
 30
0.0
 40
0.2993530094493708
 50
307.3420285229411206
 51
341.1854457735984738
  0
ARC
  5
F750
  8
0
 10
466.6981711051379875
 20
96.5123800350971663
 30
0.0
 40
0.3036215242384177
 50
341.3120217025492025
 51
40.739170365648171
  0
ARC
  5
F751
  8
0
 10
466.6983943847511114
 20
96.5131575655261855
 30
0.0
 40
0.3029452431508621
 50
40.6553086167604079
 51
78.8096061532877599
  0
ARC
  5
F752
  8
0
 10
466.7024679160483061
 20
96.5544213929979946
 30
0.0
 40
0.2617061397847069
 50
77.931221556262571
 51
90.8266020198945938
  0
ENDSEC
  0
EOF
