  0
SECTION
  2
HEADER
  9
$ACADVER
  1
AC1009
  9
$INSBASE
 10
3516.4421313040570567
 20
160.3176061640498062
 30
0.0
  9
$EXTMIN
 10
3512.8988242174068546
 20
156.2869966287611021
 30
0.0
  9
$EXTMAX
 10
3519.9854383907068041
 20
160.3221718775484987
 30
0.0
  9
$LIMMIN
 10
0.0
 20
0.0
  9
$LIMMAX
 10
11.6929133858000007
 20
8.2677165353999982
  9
$ORTHOMODE
 70
     0
  9
$REGENMODE
 70
     1
  9
$FILLMODE
 70
     1
  9
$QTEXTMODE
 70
     0
  9
$MIRRTEXT
 70
     0
  9
$DRAGMODE
 70
     2
  9
$LTSCALE
 40
0.6431102362
  9
$OSMODE
 70
  3839
  9
$ATTMODE
 70
     1
  9
$TEXTSIZE
 40
0.2
  9
$TRACEWID
 40
0.05
  9
$TEXTSTYLE
  7
STANDARD
  9
$CLAYER
  8
0
  9
$CELTYPE
  6
BYLAYER
  9
$CECOLOR
 62
   256
  9
$DIMSCALE
 40
1.0
  9
$DIMASZ
 40
0.1875
  9
$DIMEXO
 40
0.0625
  9
$DIMDLI
 40
0.4443307087
  9
$DIMRND
 40
0.0
  9
$DIMDLE
 40
0.0
  9
$DIMEXE
 40
0.125
  9
$DIMTP
 40
0.01
  9
$DIMTM
 40
0.01
  9
$DIMTXT
 40
2.0
  9
$DIMCEN
 40
0.1052362205
  9
$DIMTSZ
 40
0.0
  9
$DIMTOL
 70
     1
  9
$DIMLIM
 70
     0
  9
$DIMTIH
 70
     1
  9
$DIMTOH
 70
     1
  9
$DIMSE1
 70
     0
  9
$DIMSE2
 70
     0
  9
$DIMTAD
 70
     0
  9
$DIMZIN
 70
     0
  9
$DIMBLK
  1

  9
$DIMASO
 70
     1
  9
$DIMSHO
 70
     1
  9
$DIMPOST
  1
\X
  9
$DIMAPOST
  1

  9
$DIMALT
 70
     1
  9
$DIMALTD
 70
     2
  9
$DIMALTF
 40
25.3999999999999986
  9
$DIMLFAC
 40
1.0
  9
$DIMTOFL
 70
     0
  9
$DIMTVP
 40
0.0
  9
$DIMTIX
 70
     0
  9
$DIMSOXD
 70
     0
  9
$DIMSAH
 70
     0
  9
$DIMBLK1
  1

  9
$DIMBLK2
  1

  9
$DIMSTYLE
  2
STANDARD
  9
$DIMCLRD
 70
     0
  9
$DIMCLRE
 70
     0
  9
$DIMCLRT
 70
     0
  9
$DIMTFAC
 40
1.0
  9
$DIMGAP
 40
0.09
  9
$LUNITS
 70
     2
  9
$LUPREC
 70
     4
  9
$SKETCHINC
 40
0.1
  9
$FILLETRAD
 40
0.0
  9
$AUNITS
 70
     0
  9
$AUPREC
 70
     0
  9
$MENU
  1
.
  9
$ELEVATION
 40
0.0
  9
$PELEVATION
 40
0.0
  9
$THICKNESS
 40
0.0
  9
$LIMCHECK
 70
     0
  9
$BLIPMODE
 70
     0
  9
$CHAMFERA
 40
0.0
  9
$CHAMFERB
 40
0.0
  9
$SKPOLY
 70
     0
  9
$TDCREATE
 40
2458060.468368056230247
  9
$TDUPDATE
 40
2459149.52398148085922
  9
$TDINDWG
 40
0.574509375
  9
$TDUSRTIMER
 40
0.574509375
  9
$USRTIMER
 70
     1
  9
$ANGBASE
 50
0.0
  9
$ANGDIR
 70
     0
  9
$PDMODE
 70
     0
  9
$PDSIZE
 40
0.3125
  9
$PLINEWID
 40
0.0
  9
$COORDS
 70
     1
  9
$SPLFRAME
 70
     0
  9
$SPLINETYPE
 70
     6
  9
$SPLINESEGS
 70
     8
  9
$ATTDIA
 70
     1
  9
$ATTREQ
 70
     1
  9
$HANDLING
 70
     1
  9
$HANDSEED
  5
13AF1
  9
$SURFTAB1
 70
     6
  9
$SURFTAB2
 70
     6
  9
$SURFTYPE
 70
     6
  9
$SURFU
 70
     6
  9
$SURFV
 70
     6
  9
$UCSNAME
  2

  9
$UCSORG
 10
0.0
 20
0.0
 30
0.0
  9
$UCSXDIR
 10
1.0
 20
0.0
 30
0.0
  9
$UCSYDIR
 10
0.0
 20
1.0
 30
0.0
  9
$PUCSNAME
  2

  9
$PUCSORG
 10
0.0
 20
0.0
 30
0.0
  9
$PUCSXDIR
 10
1.0
 20
0.0
 30
0.0
  9
$PUCSYDIR
 10
0.0
 20
1.0
 30
0.0
  9
$USERI1
 70
     0
  9
$USERI2
 70
     0
  9
$USERI3
 70
     0
  9
$USERI4
 70
     0
  9
$USERI5
 70
     0
  9
$USERR1
 40
0.0
  9
$USERR2
 40
0.0
  9
$USERR3
 40
0.0
  9
$USERR4
 40
0.0
  9
$USERR5
 40
0.0
  9
$WORLDVIEW
 70
     1
  9
$SHADEDGE
 70
     3
  9
$SHADEDIF
 70
    70
  9
$TILEMODE
 70
     1
  9
$MAXACTVP
 70
    64
  9
$PLIMCHECK
 70
     0
  9
$PEXTMIN
 10
1.0000000000000000E+20
 20
1.0000000000000000E+20
 30
1.0000000000000000E+20
  9
$PEXTMAX
 10
-1.0000000000000000E+20
 20
-1.0000000000000000E+20
 30
-1.0000000000000000E+20
  9
$PLIMMIN
 10
0.0
 20
0.0
  9
$PLIMMAX
 10
12.0
 20
9.0
  9
$UNITMODE
 70
     0
  9
$VISRETAIN
 70
     1
  9
$PLINEGEN
 70
     0
  9
$PSLTSCALE
 70
     1
  0
ENDSEC
  0
SECTION
  2
TABLES
  0
TABLE
  2
VPORT
 70
     1
  0
VPORT
  2
*ACTIVE
 70
     0
 10
0.0
 20
0.0
 11
1.0
 21
1.0
 12
0.0
 22
0.0
 13
0.0
 23
0.0
 14
1.0
 24
1.0
 15
0.0
 25
0.0
 16
0.0
 26
0.0
 36
32.0502469540759805
 17
3516.442138671875
 27
158.3049152844772891
 37
0.0
 40
8.1544299005092729
 41
3.1182994454713491
 42
50.0
 43
0.0
 44
0.0
 50
0.0
 51
0.0
 71
     0
 72
   100
 73
     1
 74
     1
 75
     0
 76
     0
 77
     0
 78
     0
  0
ENDTAB
  0
TABLE
  2
LTYPE
 70
     2
  0
LTYPE
  2
CONTINUOUS
 70
     0
  3
Solid line
 72
    65
 73
     0
 40
0.0
  0
LTYPE
  2
PHANTOM2
 70
     0
  3
___ _ _ ___ _ _ ___ _ _ ___ _ _
 72
    65
 73
     6
 40
1.25
 49
0.625
 49
-0.125
 49
0.125
 49
-0.125
 49
0.125
 49
-0.125
  0
ENDTAB
  0
TABLE
  2
LAYER
 70
     2
  0
LAYER
  2
0
 70
     0
 62
   255
  6
CONTINUOUS
  0
LAYER
  2
DEFPOINTS
 70
     0
 62
     7
  6
CONTINUOUS
  0
ENDTAB
  0
TABLE
  2
STYLE
 70
     1
  0
STYLE
  2
STANDARD
 70
     0
 40
0.0
 41
0.8
 50
0.0
 71
     0
 42
0.2
  3
txt
  4

  0
ENDTAB
  0
TABLE
  2
VIEW
 70
     0
  0
ENDTAB
  0
TABLE
  2
UCS
 70
     0
  0
ENDTAB
  0
TABLE
  2
APPID
 70
     9
  0
APPID
  2
ACAD
 70
     0
  0
APPID
  2
ACAD_MLEADERVER
 70
     0
  0
APPID
  2
ACAD_EXEMPT_FROM_CAD_STANDARDS
 70
     0
  0
APPID
  2
ACAD_NAV_VCDISPLAY
 70
     0
  0
APPID
  2
ACAECLAYERSTANDARD
 70
     0
  0
APPID
  2
ACCMTRANSPARENCY
 70
     0
  0
APPID
  2
ACAD_DSTYLE_DIMJAG
 70
     0
  0
APPID
  2
ACAD_DSTYLE_DIMTALN
 70
     0
  0
APPID
  2
ACDBATTR
 70
     0
  0
ENDTAB
  0
TABLE
  2
DIMSTYLE
 70
     1
  0
DIMSTYLE
  2
STANDARD
 70
     0
  3

  4

  5

  6

  7

 40
1.0
 41
0.1875
 42
0.0625
 43
0.38
 44
0.125
 45
0.0
 46
0.0
 47
0.01
 48
0.01
140
0.15625
141
0.09
142
0.0
143
25.3999999999999986
144
1.0
145
0.0
146
1.0
147
0.09
 71
     1
 72
     0
 73
     1
 74
     1
 75
     0
 76
     0
 77
     0
 78
     4
170
     0
171
     2
172
     0
173
     0
174
     0
175
     0
176
     0
177
     0
178
     0
  0
ENDTAB
  0
ENDSEC
  0
SECTION
  2
BLOCKS
  0
BLOCK
  8
0
  2
$MODEL_SPACE
 70
     0
 10
0.0
 20
0.0
 30
0.0
  3
$MODEL_SPACE
  1

  0
ENDBLK
  5
21
  8
0
  0
BLOCK
 67
     1
  8
0
  2
$PAPER_SPACE
 70
     0
 10
0.0
 20
0.0
 30
0.0
  3
$PAPER_SPACE
  1

  0
ENDBLK
  5
1D
 67
     1
  8
0
  0
BLOCK
  8
0
  2
_FILLED
 70
     0
 10
0.0
 20
0.0
 30
0.0
  3
_FILLED
  1

  0
SOLID
  5
13356
  8
0
  6
BYBLOCK
 62
     0
 10
0.0
 20
0.0
 30
0.0
 11
-1.0
 21
0.1666666667
 31
0.0
 12
-1.0
 22
-0.1666666667
 32
0.0
 13
-1.0
 23
-0.1666666667
 33
0.0
  0
ENDBLK
  5
13357
  8
0
  6
BYBLOCK
 62
     0
  0
ENDSEC
  0
SECTION
  2
ENTITIES
  0
ATTDEF
  5
12BEB
  8
DEFPOINTS
 10
3516.4427695165609293
 20
160.3211718775484087
 30
0.0
 40
0.001
  1
K-97487IN-4
  3

  2
MODELNUMBER
 70
     0
1001
ACDBATTR
1070
     0
1070
     1
  0
ATTDEF
  5
12BEC
  8
DEFPOINTS
 10
3516.4427695165609293
 20
160.3195052108816867
 30
0.0
 40
0.001
  1
AVID
  3

  2
TRADENAME
 70
     0
1001
ACDBATTR
1070
     0
1070
     1
  0
ATTDEF
  5
12BED
  8
DEFPOINTS
 10
3516.4427695165609293
 20
160.3178385442151068
 30
0.0
 40
0.001
  1
VALVE TRIM
  3

  2
PRODUCT
 70
     0
1001
ACDBATTR
1070
     0
1070
     1
  0
LINE
  5
13705
  8
0
 10
3517.4066982332069529
 20
158.0853226994497902
 30
0.0
 11
3517.4066982332069529
 21
159.7664250616498123
 31
0.0
  0
LINE
  5
13706
  8
0
 10
3517.4066982332069529
 20
158.0656376600497879
 30
0.0
 11
3517.4066982332069529
 21
157.5322531231281005
 31
0.0
  0
LINE
  5
13707
  8
0
 10
3519.9854383907068041
 20
160.3176061640498062
 30
0.0
 11
3512.8988242174068546
 21
160.3176061640498062
 31
0.0
  0
LINE
  5
13708
  8
0
 10
3519.9046309216778354
 20
159.7664250616498123
 30
0.0
 11
3512.9796316864349137
 21
159.7664250616498123
 31
0.0
  0
LINE
  5
13709
  8
0
 10
3519.9854383907068041
 20
160.3176061640498062
 30
0.0
 11
3519.940360525907181
 21
159.8023638119497889
 31
0.0
  0
ARC
  5
1370A
  8
0
 10
3519.9009532963268612
 20
159.8058114978007893
 30
0.0
 40
0.0395577587952061
 50
275.3344057038677875
 51
354.9999999974829734
  0
ARC
  5
1370B
  8
0
 10
3516.5800824530488171
 20
154.7104836414945055
 30
0.0
 40
2.6233715865215101
 50
77.424584691009926
 51
87.973850986678201
  0
ARC
  5
1370C
  8
0
 10
3517.0684392702100922
 20
156.9039825594381909
 30
0.0
 40
0.3761680444732005
 50
56.1755714003042996
 51
77.2818475573414645
  0
ARC
  5
1370D
  8
0
 10
3517.2555204551840689
 20
157.1870167666949101
 30
0.0
 40
0.0369610933687416
 50
302.1356176286973891
 51
52.8660211879110093
  0
ARC
  5
1370E
  8
0
 10
3517.1662015198380686
 20
157.2975074283677941
 30
0.0
 40
0.1788313297584562
 50
291.1045039797082836
 51
307.5459925852214838
  0
ARC
  5
1370F
  8
0
 10
3516.8079413454920541
 20
157.3522573018570938
 30
0.0
 40
0.4772160154273911
 50
329.5572008766952763
 51
344.3141905196911807
  0
LINE
  5
13710
  8
0
 10
3517.3989740316378629
 20
158.0735116758498009
 30
0.0
 11
3515.4852885764757957
 21
158.0735116758498009
 31
0.0
  0
ARC
  5
13711
  8
0
 10
3517.3948479744381075
 20
158.0853389511896125
 30
0.0
 40
0.0118502699128977
 50
273.5699031643678154
 51
359.9214231911849993
  0
ARC
  5
13712
  8
0
 10
3517.3983929215792159
 20
158.0652159954447882
 30
0.0
 40
0.0083160087952688
 50
2.9064383256655861
 51
85.9929924241854451
  0
ARC
  5
13713
  8
0
 10
3517.1888948840810372
 20
157.3513777808553868
 30
0.0
 40
0.2440266511303587
 50
277.8510675287844833
 51
314.784952510598373
  0
ARC
  5
13714
  8
0
 10
3517.3167611951848812
 20
157.2225480112319929
 30
0.0
 40
0.0625138332454957
 50
314.784952510598373
 51
353.2669368736430897
  0
ARC
  5
13715
  8
0
 10
3515.4405256206091508
 20
157.5452583473453956
 30
0.0
 40
1.9662156235734609
 50
350.3368554468216871
 51
359.6210233080586818
  0
ARC
  5
13716
  8
0
 10
3517.3395590047271071
 20
157.2171229636913097
 30
0.0
 40
0.0393310039227495
 50
357.2247889070652036
 51
53.5130727138057907
  0
ARC
  5
13717
  8
0
 10
3517.1049671898781526
 20
156.8251487154655024
 30
0.0
 40
0.4959708699138572
 50
58.6576416349737002
 51
79.816965320281426
  0
ARC
  5
13718
  8
0
 10
3516.608009193709222
 20
154.4031211754135882
 30
0.0
 40
2.9683309265323379
 50
78.640758435331378
 51
87.151351663992557
  0
LINE
  5
13719
  8
0
 10
3516.7112507382221338
 20
157.1822191581451023
 30
0.0
 11
3516.7111644388719469
 21
157.1975658091440948
 31
0.0
  0
ARC
  5
1371A
  8
0
 10
3516.6993063229760992
 20
157.1977869571836948
 30
0.0
 40
0.0118601778674634
 50
358.9315856970192158
 51
101.9023740027477061
  0
ARC
  5
1371B
  8
0
 10
3516.5120862329317788
 20
157.8825951604131035
 30
0.0
 40
0.6981000828769562
 50
275.4049585978290793
 51
285.3480124921356946
  0
ARC
  5
1371C
  8
0
 10
3516.5096863549688351
 20
153.5129794793647022
 30
0.0
 40
3.6747718324996161
 50
81.7798018292427855
 51
87.6792192018443188
  0
ARC
  5
1371D
  8
0
 10
3516.8364363676541871
 20
155.7748190405816899
 30
0.0
 40
1.3894526487802521
 50
72.8168130430542959
 51
81.7798018292427855
  0
ARC
  5
1371E
  8
0
 10
3517.1578761927557935
 20
156.8143030516006036
 30
0.0
 40
0.3014036745489442
 50
53.6432156622120004
 51
72.8168130430542959
  0
ARC
  5
1371F
  8
0
 10
3517.3039816973628149
 20
157.0127889986414971
 30
0.0
 40
0.0549417309367951
 50
350.5320064778579763
 51
53.6432156622120004
  0
ARC
  5
13720
  8
0
 10
3516.3546388515501349
 20
157.2522805086605899
 30
0.0
 40
1.0338527792438841
 50
325.1083538328268219
 51
346.0903621904998886
  0
ARC
  5
13721
  8
0
 10
3518.9472879129589273
 20
155.4240255354062015
 30
0.0
 40
2.138603302285238
 50
144.6653345847738876
 51
150.4672102595411047
  0
ARC
  5
13722
  8
0
 10
3514.8913752690000365
 20
157.6309973059341019
 30
0.0
 40
2.4794632532137282
 50
327.9207520533395837
 51
335.1955748783457238
  0
ARC
  5
13723
  8
0
 10
3516.9352665098799662
 20
156.3860665363228861
 30
0.0
 40
0.0917424067932874
 50
274.4380603390159195
 51
308.4063131334926879
  0
ARC
  5
13724
  8
0
 10
3516.783483995233837
 20
157.9509823545483016
 30
0.0
 40
1.663985725787217
 50
268.3907293522300961
 51
275.4790963604746139
  0
ARC
  5
13725
  8
0
 10
3517.1088881650048279
 20
156.6126425092043064
 30
0.0
 40
0.0397431691895191
 50
326.6738570126144054
 51
358.7408213284916201
  0
ARC
  5
13726
  8
0
 10
3517.1344886695710557
 20
156.6120798040373074
 30
0.0
 40
0.014136481173451
 50
358.740809385580917
 51
77.8991213430042535
  0
ARC
  5
13727
  8
0
 10
3516.9956041546811321
 20
156.2795700473058105
 30
0.0
 40
0.3742549867655145
 50
67.7273598630923033
 51
85.4345364010390682
  0
ARC
  5
13728
  8
0
 10
3516.5975662938139976
 20
152.9804128530508933
 30
0.0
 40
3.6970624546414168
 50
83.3547858850949979
 51
87.8512147681959732
  0
LINE
  5
13729
  8
0
 10
3515.4775643749071605
 20
158.0853226994497902
 30
0.0
 11
3515.4775643749071605
 21
159.7664250616498123
 31
0.0
  0
LINE
  5
1372A
  8
0
 10
3515.4775643749071605
 20
158.0656376600497879
 30
0.0
 11
3515.4775643749071605
 21
157.5322531231281005
 31
0.0
  0
LINE
  5
1372B
  8
0
 10
3512.8988242174068546
 20
160.3176061640498062
 30
0.0
 11
3512.9439020822069324
 21
159.8023638119497889
 31
0.0
  0
ARC
  5
1372C
  8
0
 10
3512.9833093117867975
 20
159.8058114978007893
 30
0.0
 40
0.0395577587952061
 50
185.0000000025169982
 51
264.6655942961323262
  0
ARC
  5
1372D
  8
0
 10
3516.3041801550648415
 20
154.7104836414945055
 30
0.0
 40
2.6233715865215101
 50
92.0261490133217848
 51
102.5754153089900029
  0
ARC
  5
1372E
  8
0
 10
3515.8158233379031117
 20
156.9039825594381909
 30
0.0
 40
0.3761680444732005
 50
102.7181524426585071
 51
123.8244285996956933
  0
ARC
  5
1372F
  8
0
 10
3515.628742152929135
 20
157.1870167666949101
 30
0.0
 40
0.0369610933687416
 50
127.1339788120889978
 51
237.8643823713026109
  0
ARC
  5
13730
  8
0
 10
3515.7180610882751353
 20
157.2975074283677941
 30
0.0
 40
0.1788313297584562
 50
232.4540074147784878
 51
248.895496020291688
  0
ARC
  5
13731
  8
0
 10
3516.0763212626220593
 20
157.3522573018570938
 30
0.0
 40
0.4772160154273911
 50
195.6858094803087909
 51
210.4427991233046953
  0
ARC
  5
13732
  8
0
 10
3515.4894146336760059
 20
158.0853389511896125
 30
0.0
 40
0.0118502699128977
 50
180.0785768088150007
 51
266.4300968356322983
  0
ARC
  5
13733
  8
0
 10
3515.4858696865348975
 20
158.0652159954447882
 30
0.0
 40
0.0083160087952688
 50
94.0070075758145407
 51
177.0935616743344099
  0
ARC
  5
13734
  8
0
 10
3515.6953677240330762
 20
157.3513777808553868
 30
0.0
 40
0.2440266511303587
 50
225.2150474894015133
 51
262.1489324712155167
  0
ARC
  5
13735
  8
0
 10
3515.5675014129287774
 20
157.2225480112319929
 30
0.0
 40
0.0625138332454957
 50
186.7330631263567966
 51
225.2150474894015133
  0
ARC
  5
13736
  8
0
 10
3517.4437369875040531
 20
157.5452583473453956
 30
0.0
 40
1.9662156235734609
 50
180.3789766919412898
 51
189.6631445531783129
  0
ARC
  5
13737
  8
0
 10
3515.5447036033870063
 20
157.2171229636913097
 30
0.0
 40
0.0393310039227495
 50
126.4869272861942022
 51
182.7752110929347964
  0
ARC
  5
13738
  8
0
 10
3515.7792954182359608
 20
156.8251487154655024
 30
0.0
 40
0.4959708699138572
 50
100.1830346797186024
 51
121.3423583650262998
  0
ARC
  5
13739
  8
0
 10
3516.2762534144048914
 20
154.4031211754135882
 30
0.0
 40
2.9683309265323379
 50
92.8486483360074573
 51
101.3592415646685936
  0
LINE
  5
1373A
  8
0
 10
3516.1730118698910701
 20
157.1822191581451023
 30
0.0
 11
3516.1730981692421665
 21
157.1975658091440948
 31
0.0
  0
ARC
  5
1373B
  8
0
 10
3516.1849562851371047
 20
157.1977869571836948
 30
0.0
 40
0.0118601778674634
 50
78.0976259972522797
 51
181.0684143029808126
  0
ARC
  5
1373C
  8
0
 10
3516.3721763751809704
 20
157.8825951604131035
 30
0.0
 40
0.6981000828769562
 50
254.6519875078641917
 51
264.595041402170807
  0
ARC
  5
1373D
  8
0
 10
3516.3745762531439141
 20
153.5129794793647022
 30
0.0
 40
3.6747718324996161
 50
92.3207807981556812
 51
98.2201981707572003
  0
ARC
  5
1373E
  8
0
 10
3516.0478262404590168
 20
155.7748190405816899
 30
0.0
 40
1.3894526487802521
 50
98.2201981707572003
 51
107.1831869569457041
  0
ARC
  5
1373F
  8
0
 10
3515.7263864153569557
 20
156.8143030516006036
 30
0.0
 40
0.3014036745489442
 50
107.1831869569457041
 51
126.3567843377879996
  0
ARC
  5
13740
  8
0
 10
3515.5802809107508438
 20
157.0127889986414971
 30
0.0
 40
0.0549417309367951
 50
126.3567843377879996
 51
189.4679935221419953
  0
ARC
  5
13741
  8
0
 10
3516.529623756563069
 20
157.2522805086605899
 30
0.0
 40
1.0338527792438841
 50
193.9096378095001114
 51
214.8916461671732065
  0
ARC
  5
13742
  8
0
 10
3513.9369746951538218
 20
155.4240255354062015
 30
0.0
 40
2.138603302285238
 50
29.5327897404588988
 51
35.3346654152261124
  0
ARC
  5
13743
  8
0
 10
3517.9928873391140769
 20
157.6309973059341019
 30
0.0
 40
2.4794632532137282
 50
204.8044251216543046
 51
212.0792479466603027
  0
ARC
  5
13744
  8
0
 10
3515.948996098232783
 20
156.3860665363228861
 30
0.0
 40
0.0917424067932874
 50
231.5936868665071984
 51
265.5619396609841942
  0
ARC
  5
13745
  8
0
 10
3516.1007786128789121
 20
157.9509823545483016
 30
0.0
 40
1.663985725787217
 50
264.5209036395253861
 51
271.6092706477699039
  0
ARC
  5
13746
  8
0
 10
3515.7753744431088307
 20
156.6126425092043064
 30
0.0
 40
0.0397431691895191
 50
181.259178671506703
 51
213.3261429873857082
  0
ARC
  5
13747
  8
0
 10
3515.7497739385421482
 20
156.6120798040373074
 30
0.0
 40
0.014136481173451
 50
102.1008786569957039
 51
181.2591906144191114
  0
ARC
  5
13748
  8
0
 10
3515.8886584534329813
 20
156.2795700473058105
 30
0.0
 40
0.3742549867655145
 50
94.5654635989609176
 51
112.2726401369076967
  0
ARC
  5
13749
  8
0
 10
3516.286696314297842
 20
152.9804128530508933
 30
0.0
 40
3.6970624546414168
 50
92.148785231804041
 51
96.6452141149050163
  0
ARC
  5
1374A
  8
0
 10
3516.4421313040570567
 20
152.5912493107013859
 30
0.0
 40
4.7465755958659068
 50
87.2141047373538498
 51
92.7858952626461644
  0
ARC
  5
1374B
  8
0
 10
3516.4421313040570567
 20
152.0745574738184018
 30
0.0
 40
5.3024962476230462
 50
86.6116295566964851
 51
93.3883704433035149
  0
ARC
  5
1374C
  8
0
 10
3516.4421313040570567
 20
152.2251614301065104
 30
0.0
 40
4.9642929001696574
 50
87.5020500196173288
 51
92.497949980382657
  0
ARC
  5
1374D
  8
0
 10
3516.4421313040570567
 20
149.2517193314810982
 30
0.0
 40
7.4289782556104296
 50
87.7315181236611465
 51
92.2684818763388677
  0
LINE
  5
1374E
  8
0
 10
3516.1475089540022054
 20
156.2876529311199931
 30
0.0
 11
3516.7367536541109985
 21
156.2876529311199931
 31
0.0
  0
ENDSEC
  0
EOF
