  0
SECTION
  2
HEADER
  9
$ACADVER
  1
AC1009
  9
$INSBASE
 10
4117.4943778794586251
 20
124.0123597556412989
 30
0.0
  9
$EXTMIN
 10
4107.6124881156592892
 20
121.2564542438413042
 30
0.0
  9
$EXTMAX
 10
4127.3762676432588705
 20
124.0170153989125055
 30
0.0
  9
$LIMMIN
 10
0.0
 20
0.0
  9
$LIMMAX
 10
11.6929133858000007
 20
8.2677165353999982
  9
$ORTHOMODE
 70
     0
  9
$REGENMODE
 70
     1
  9
$FILLMODE
 70
     1
  9
$QTEXTMODE
 70
     0
  9
$MIRRTEXT
 70
     0
  9
$DRAGMODE
 70
     2
  9
$LTSCALE
 40
0.6431102362
  9
$OSMODE
 70
  3839
  9
$ATTMODE
 70
     1
  9
$TEXTSIZE
 40
0.2
  9
$TRACEWID
 40
0.05
  9
$TEXTSTYLE
  7
STANDARD
  9
$CLAYER
  8
0
  9
$CELTYPE
  6
BYLAYER
  9
$CECOLOR
 62
   256
  9
$DIMSCALE
 40
1.0
  9
$DIMASZ
 40
0.1875
  9
$DIMEXO
 40
0.0625
  9
$DIMDLI
 40
0.4443307087
  9
$DIMRND
 40
0.0
  9
$DIMDLE
 40
0.0
  9
$DIMEXE
 40
0.125
  9
$DIMTP
 40
0.01
  9
$DIMTM
 40
0.01
  9
$DIMTXT
 40
2.0
  9
$DIMCEN
 40
0.1052362205
  9
$DIMTSZ
 40
0.0
  9
$DIMTOL
 70
     1
  9
$DIMLIM
 70
     0
  9
$DIMTIH
 70
     1
  9
$DIMTOH
 70
     1
  9
$DIMSE1
 70
     0
  9
$DIMSE2
 70
     0
  9
$DIMTAD
 70
     0
  9
$DIMZIN
 70
     0
  9
$DIMBLK
  1

  9
$DIMASO
 70
     1
  9
$DIMSHO
 70
     1
  9
$DIMPOST
  1
\X
  9
$DIMAPOST
  1

  9
$DIMALT
 70
     1
  9
$DIMALTD
 70
     2
  9
$DIMALTF
 40
25.3999999999999986
  9
$DIMLFAC
 40
1.0
  9
$DIMTOFL
 70
     0
  9
$DIMTVP
 40
0.0
  9
$DIMTIX
 70
     0
  9
$DIMSOXD
 70
     0
  9
$DIMSAH
 70
     0
  9
$DIMBLK1
  1

  9
$DIMBLK2
  1

  9
$DIMSTYLE
  2
STANDARD
  9
$DIMCLRD
 70
     0
  9
$DIMCLRE
 70
     0
  9
$DIMCLRT
 70
     0
  9
$DIMTFAC
 40
1.0
  9
$DIMGAP
 40
0.09
  9
$LUNITS
 70
     2
  9
$LUPREC
 70
     4
  9
$SKETCHINC
 40
0.1
  9
$FILLETRAD
 40
0.0
  9
$AUNITS
 70
     0
  9
$AUPREC
 70
     0
  9
$MENU
  1
.
  9
$ELEVATION
 40
0.0
  9
$PELEVATION
 40
0.0
  9
$THICKNESS
 40
0.0
  9
$LIMCHECK
 70
     0
  9
$BLIPMODE
 70
     0
  9
$CHAMFERA
 40
0.0
  9
$CHAMFERB
 40
0.0
  9
$SKPOLY
 70
     0
  9
$TDCREATE
 40
2458060.468368056230247
  9
$TDUPDATE
 40
2459149.7016550931148231
  9
$TDINDWG
 40
0.3214306713
  9
$TDUSRTIMER
 40
0.3214306713
  9
$USRTIMER
 70
     1
  9
$ANGBASE
 50
0.0
  9
$ANGDIR
 70
     0
  9
$PDMODE
 70
     0
  9
$PDSIZE
 40
0.3125
  9
$PLINEWID
 40
0.0
  9
$COORDS
 70
     1
  9
$SPLFRAME
 70
     0
  9
$SPLINETYPE
 70
     6
  9
$SPLINESEGS
 70
     8
  9
$ATTDIA
 70
     1
  9
$ATTREQ
 70
     1
  9
$HANDLING
 70
     1
  9
$HANDSEED
  5
69C6
  9
$SURFTAB1
 70
     6
  9
$SURFTAB2
 70
     6
  9
$SURFTYPE
 70
     6
  9
$SURFU
 70
     6
  9
$SURFV
 70
     6
  9
$UCSNAME
  2

  9
$UCSORG
 10
0.0
 20
0.0
 30
0.0
  9
$UCSXDIR
 10
1.0
 20
0.0
 30
0.0
  9
$UCSYDIR
 10
0.0
 20
1.0
 30
0.0
  9
$PUCSNAME
  2

  9
$PUCSORG
 10
0.0
 20
0.0
 30
0.0
  9
$PUCSXDIR
 10
1.0
 20
0.0
 30
0.0
  9
$PUCSYDIR
 10
0.0
 20
1.0
 30
0.0
  9
$USERI1
 70
     0
  9
$USERI2
 70
     0
  9
$USERI3
 70
     0
  9
$USERI4
 70
     0
  9
$USERI5
 70
     0
  9
$USERR1
 40
0.0
  9
$USERR2
 40
0.0
  9
$USERR3
 40
0.0
  9
$USERR4
 40
0.0
  9
$USERR5
 40
0.0
  9
$WORLDVIEW
 70
     1
  9
$SHADEDGE
 70
     3
  9
$SHADEDIF
 70
    70
  9
$TILEMODE
 70
     1
  9
$MAXACTVP
 70
    64
  9
$PLIMCHECK
 70
     0
  9
$PEXTMIN
 10
1.0000000000000000E+20
 20
1.0000000000000000E+20
 30
1.0000000000000000E+20
  9
$PEXTMAX
 10
-1.0000000000000000E+20
 20
-1.0000000000000000E+20
 30
-1.0000000000000000E+20
  9
$PLIMMIN
 10
0.0
 20
0.0
  9
$PLIMMAX
 10
12.0
 20
9.0
  9
$UNITMODE
 70
     0
  9
$VISRETAIN
 70
     1
  9
$PLINEGEN
 70
     0
  9
$PSLTSCALE
 70
     1
  0
ENDSEC
  0
SECTION
  2
TABLES
  0
TABLE
  2
VPORT
 70
     1
  0
VPORT
  2
*ACTIVE
 70
     0
 10
0.0
 20
0.0
 11
1.0
 21
1.0
 12
0.0
 22
0.0
 13
0.0
 23
0.0
 14
1.0
 24
1.0
 15
0.0
 25
0.0
 16
0.0
 26
0.0
 36
78.4353251260897366
 17
4117.494384765625
 27
122.6367349333428933
 37
0.0
 40
19.9560197268000117
 41
3.1182994454713491
 42
50.0
 43
0.0
 44
0.0
 50
0.0
 51
0.0
 71
     0
 72
   100
 73
     1
 74
     1
 75
     0
 76
     0
 77
     0
 78
     0
  0
ENDTAB
  0
TABLE
  2
LTYPE
 70
     2
  0
LTYPE
  2
CONTINUOUS
 70
     0
  3
Solid line
 72
    65
 73
     0
 40
0.0
  0
LTYPE
  2
PHANTOM2
 70
     0
  3
___ _ _ ___ _ _ ___ _ _ ___ _ _
 72
    65
 73
     6
 40
1.25
 49
0.625
 49
-0.125
 49
0.125
 49
-0.125
 49
0.125
 49
-0.125
  0
ENDTAB
  0
TABLE
  2
LAYER
 70
     2
  0
LAYER
  2
0
 70
     0
 62
   255
  6
CONTINUOUS
  0
LAYER
  2
DEFPOINTS
 70
     0
 62
     7
  6
CONTINUOUS
  0
ENDTAB
  0
TABLE
  2
STYLE
 70
     1
  0
STYLE
  2
STANDARD
 70
     0
 40
0.0
 41
0.8
 50
0.0
 71
     0
 42
0.2
  3
txt
  4

  0
ENDTAB
  0
TABLE
  2
VIEW
 70
     0
  0
ENDTAB
  0
TABLE
  2
UCS
 70
     0
  0
ENDTAB
  0
TABLE
  2
APPID
 70
     9
  0
APPID
  2
ACAD
 70
     0
  0
APPID
  2
ACAD_MLEADERVER
 70
     0
  0
APPID
  2
ACAD_EXEMPT_FROM_CAD_STANDARDS
 70
     0
  0
APPID
  2
ACAD_NAV_VCDISPLAY
 70
     0
  0
APPID
  2
ACAECLAYERSTANDARD
 70
     0
  0
APPID
  2
ACCMTRANSPARENCY
 70
     0
  0
APPID
  2
ACAD_DSTYLE_DIMJAG
 70
     0
  0
APPID
  2
ACAD_DSTYLE_DIMTALN
 70
     0
  0
APPID
  2
ACDBATTR
 70
     0
  0
ENDTAB
  0
TABLE
  2
DIMSTYLE
 70
     1
  0
DIMSTYLE
  2
STANDARD
 70
     0
  3

  4

  5

  6

  7

 40
1.0
 41
0.1875
 42
0.0625
 43
0.38
 44
0.125
 45
0.0
 46
0.0
 47
0.01
 48
0.01
140
0.15625
141
0.09
142
0.0
143
25.3999999999999986
144
1.0
145
0.0
146
1.0
147
0.09
 71
     1
 72
     0
 73
     1
 74
     1
 75
     0
 76
     0
 77
     0
 78
     4
170
     0
171
     2
172
     0
173
     0
174
     0
175
     0
176
     0
177
     0
178
     0
  0
ENDTAB
  0
ENDSEC
  0
SECTION
  2
BLOCKS
  0
BLOCK
  8
0
  2
$MODEL_SPACE
 70
     0
 10
0.0
 20
0.0
 30
0.0
  3
$MODEL_SPACE
  1

  0
ENDBLK
  5
21
  8
0
  0
BLOCK
 67
     1
  8
0
  2
$PAPER_SPACE
 70
     0
 10
0.0
 20
0.0
 30
0.0
  3
$PAPER_SPACE
  1

  0
ENDBLK
  5
1D
 67
     1
  8
0
  0
BLOCK
  8
0
  2
_FILLED
 70
     0
 10
0.0
 20
0.0
 30
0.0
  3
_FILLED
  1

  0
SOLID
  5
681F
  8
0
  6
BYBLOCK
 62
     0
 10
0.0
 20
0.0
 30
0.0
 11
-1.0
 21
0.1666666667
 31
0.0
 12
-1.0
 22
-0.1666666667
 32
0.0
 13
-1.0
 23
-0.1666666667
 33
0.0
  0
ENDBLK
  5
6820
  8
0
  6
BYBLOCK
 62
     0
  0
ENDSEC
  0
SECTION
  2
ENTITIES
  0
ATTDEF
  5
3930
  8
DEFPOINTS
 10
4117.4950268382090144
 20
124.0160153989125007
 30
0.0
 40
0.001
  1
K-97494T
  3

  2
MODELNUMBER
 70
     0
1001
ACDBATTR
1070
     0
1070
     1
  0
ATTDEF
  5
3931
  8
DEFPOINTS
 10
4117.4950268382090144
 20
124.0143487322457929
 30
0.0
 40
0.001
  1
AVID
  3

  2
TRADENAME
 70
     0
1001
ACDBATTR
1070
     0
1070
     1
  0
ATTDEF
  5
3932
  8
DEFPOINTS
 10
4117.4950268382090144
 20
124.0126820655790993
 30
0.0
 40
0.001
  1
TOWEL BAR
  3

  2
PRODUCT
 70
     0
1001
ACDBATTR
1070
     0
1070
     1
  0
LINE
  5
6852
  8
0
 10
4108.1147585337594137
 20
121.2564542438413042
 30
0.0
 11
4126.8739972251596555
 21
121.2564542438413042
 31
0.0
  0
LINE
  5
6853
  8
0
 10
4124.368393627459227
 20
121.8108216258412995
 30
0.0
 11
4110.6203621314589327
 21
121.8108216258412995
 31
0.0
  0
LINE
  5
6854
  8
0
 10
4127.3762676432588705
 20
124.0123597556412989
 30
0.0
 11
4127.3762676432588705
 21
123.7662967635413054
 31
0.0
  0
LINE
  5
6855
  8
0
 10
4127.0897719635604517
 20
123.7210211729413061
 30
0.0
 11
4127.0897719635604517
 21
122.3150922539413017
 31
0.0
  0
LINE
  5
6856
  8
0
 10
4125.891109779558974
 20
123.7210211729413061
 30
0.0
 11
4125.891109779558974
 21
122.6142774620413007
 31
0.0
  0
LINE
  5
6857
  8
0
 10
4125.6046140999596901
 20
124.0123597556412989
 30
0.0
 11
4125.6046140999596901
 21
123.7662967635413054
 31
0.0
  0
LINE
  5
6858
  8
0
 10
4124.5337479582585729
 20
121.8108216258412995
 30
0.0
 11
4125.1124881156592892
 21
121.8108216258412995
 31
0.0
  0
LINE
  5
6859
  8
0
 10
4124.4577330982592684
 20
121.8140634078413029
 30
0.0
 11
4124.5101259109587772
 21
121.8140634078413029
 31
0.0
  0
LINE
  5
685A
  8
0
 10
4127.3467302857598042
 20
123.7367692044413019
 30
0.0
 11
4125.6341416589593791
 21
123.7367692044413019
 31
0.0
  0
LINE
  5
685B
  8
0
 10
4125.6046140999596901
 20
124.0123597556412989
 30
0.0
 11
4127.3762676432588705
 21
124.0123597556412989
 31
0.0
  0
ARC
  5
685C
  8
0
 10
4125.9079396020279091
 20
123.7199393819724946
 30
0.0
 40
0.0168645544272761
 50
93.6778108863844352
 51
176.3221891136057877
  0
ARC
  5
685D
  8
0
 10
4127.0729639048413446
 20
123.7199611456230031
 30
0.0
 40
0.0168414518125722
 50
3.6086713669447898
 51
86.3913286330707137
  0
ARC
  5
685E
  8
0
 10
4124.5092223013170951
 20
121.8049456098768957
 30
0.0
 40
0.0091624641939268
 50
23.6342129836343986
 51
84.3402438692557439
  0
ARC
  5
685F
  8
0
 10
4127.345537878111827
 20
123.7674993669026975
 30
0.0
 40
0.0307532879690519
 50
272.2221056732017814
 51
357.7588844985157834
  0
ARC
  5
6860
  8
0
 10
4125.6332352554427416
 20
123.7653903599270961
 30
0.0
 40
0.0286355043377698
 50
178.1861057142540972
 51
271.8138940917214086
  0
ARC
  5
6861
  8
0
 10
4124.5649049211788224
 20
122.2352190129416982
 30
0.0
 40
2.5261301067694211
 50
337.5768040527552785
 51
1.8119266614530609
  0
ARC
  5
6862
  8
0
 10
4126.8720447130008324
 20
121.2897237048760957
 30
0.0
 40
0.0333267061269492
 50
273.3587118673792133
 51
327.138333615472277
  0
ARC
  5
6863
  8
0
 10
4124.4510707928602642
 20
122.356114495150905
 30
0.0
 40
0.5515250012452083
 50
261.3784936695017791
 51
278.6215063304982209
  0
ARC
  5
6864
  8
0
 10
4124.462069674351369
 20
121.7176082916241029
 30
0.0
 40
0.0965525522017457
 50
92.5742573964913333
 51
114.6442326138598986
  0
ARC
  5
6865
  8
0
 10
4124.4163861864171849
 20
122.6210505323124949
 30
0.0
 40
1.474739146647926
 50
336.520182332333377
 51
359.7368553577467765
  0
ARC
  5
6866
  8
0
 10
4125.3223786088210545
 20
122.3860968815117047
 30
0.0
 40
0.5690587289226064
 50
275.5710988067580729
 51
321.7089652482512179
  0
ARC
  5
6867
  8
0
 10
4125.1773314677102462
 20
123.831796876193394
 30
0.0
 40
2.0220152380337839
 50
268.1622851198983994
 51
275.6847882568874866
  0
LINE
  5
6869
  8
0
 10
4107.6124881156592892
 20
124.0123597556412989
 30
0.0
 11
4107.6124881156592892
 21
123.7662967635413054
 31
0.0
  0
LINE
  5
686A
  8
0
 10
4107.8989837953586175
 20
123.7210211729413061
 30
0.0
 11
4107.8989837953586175
 21
122.3150922539413017
 31
0.0
  0
LINE
  5
686B
  8
0
 10
4109.0976459793600952
 20
123.7210211729413061
 30
0.0
 11
4109.0976459793600952
 21
122.6142774620413007
 31
0.0
  0
LINE
  5
686C
  8
0
 10
4109.3841416589593791
 20
124.0123597556412989
 30
0.0
 11
4109.3841416589593791
 21
123.7662967635413054
 31
0.0
  0
LINE
  5
686D
  8
0
 10
4110.4550078006586773
 20
121.8108216258412995
 30
0.0
 11
4109.87626764325978
 21
121.8108216258412995
 31
0.0
  0
LINE
  5
686E
  8
0
 10
4110.5310226606588913
 20
121.8140634078413029
 30
0.0
 11
4110.478629847960292
 21
121.8140634078413029
 31
0.0
  0
LINE
  5
686F
  8
0
 10
4107.6420254731592649
 20
123.7367692044413019
 30
0.0
 11
4109.3546140999587806
 21
123.7367692044413019
 31
0.0
  0
LINE
  5
6870
  8
0
 10
4109.3841416589593791
 20
124.0123597556412989
 30
0.0
 11
4107.6124881156592892
 21
124.0123597556412989
 31
0.0
  0
ARC
  5
6871
  8
0
 10
4109.0808161568911601
 20
123.7199393819724946
 30
0.0
 40
0.0168645544272761
 50
3.6778108863941452
 51
86.3221891136155648
  0
ARC
  5
6872
  8
0
 10
4107.9157918540777246
 20
123.7199611456230031
 30
0.0
 40
0.0168414518125722
 50
93.6086713669292863
 51
176.3913286330551955
  0
ARC
  5
6873
  8
0
 10
4110.4795334576019741
 20
121.8049456098768957
 30
0.0
 40
0.0091624641939268
 50
95.6597561307442561
 51
156.3657870163656014
  0
ARC
  5
6874
  8
0
 10
4107.6432178808081517
 20
123.7674993669026975
 30
0.0
 40
0.0307532879690519
 50
182.2411155014841881
 51
267.7778943267982186
  0
ARC
  5
6875
  8
0
 10
4109.3555205034772371
 20
123.7653903599270961
 30
0.0
 40
0.0286355043377698
 50
268.1861059082787051
 51
1.8138942857459259
  0
ARC
  5
6876
  8
0
 10
4110.4238508377402468
 20
122.2352190129416982
 30
0.0
 40
2.5261301067694211
 50
178.1880733385461042
 51
202.4231959472446931
  0
ARC
  5
6877
  8
0
 10
4108.1167110459182368
 20
121.2897237048760957
 30
0.0
 40
0.0333267061269492
 50
212.8616663845276946
 51
266.641288132620673
  0
ARC
  5
6878
  8
0
 10
4110.5376849660597145
 20
122.356114495150905
 30
0.0
 40
0.5515250012452083
 50
261.3784936695017791
 51
278.6215063304982209
  0
ARC
  5
6879
  8
0
 10
4110.5266860845667907
 20
121.7176082916241029
 30
0.0
 40
0.0965525522017457
 50
65.3557673861400588
 51
87.4257426035086951
  0
ARC
  5
687A
  8
0
 10
4110.5723695725037032
 20
122.6210505323124949
 30
0.0
 40
1.474739146647926
 50
180.2631446422531951
 51
203.4798176676665946
  0
ARC
  5
687B
  8
0
 10
4109.6663771500989242
 20
122.3860968815117047
 30
0.0
 40
0.5690587289226064
 50
218.2910347517488105
 51
264.4289011932419271
  0
ARC
  5
687C
  8
0
 10
4109.811424291210642
 20
123.831796876193394
 30
0.0
 40
2.0220152380337839
 50
264.3152117431123997
 51
271.8377148801014869
  0
ENDSEC
  0
EOF
