  0
SECTION
  2
HEADER
  9
$ACADVER
  1
AC1009
  9
$INSBASE
 10
2875.282959403230052
 20
158.0325993424370097
 30
0.0
  9
$EXTMIN
 10
2872.8971288603552239
 20
157.1467725703834901
 30
0.0
  9
$EXTMAX
 10
2877.6687899461048801
 20
159.8384265924370027
 30
0.0
  9
$LIMMIN
 10
0.0
 20
0.0
  9
$LIMMAX
 10
11.6929133858000007
 20
8.2677165353999982
  9
$ORTHOMODE
 70
     0
  9
$REGENMODE
 70
     1
  9
$FILLMODE
 70
     1
  9
$QTEXTMODE
 70
     0
  9
$MIRRTEXT
 70
     0
  9
$DRAGMODE
 70
     2
  9
$LTSCALE
 40
0.6431102362
  9
$OSMODE
 70
  2047
  9
$ATTMODE
 70
     1
  9
$TEXTSIZE
 40
0.2
  9
$TRACEWID
 40
0.05
  9
$TEXTSTYLE
  7
STANDARD
  9
$CLAYER
  8
0
  9
$CELTYPE
  6
BYLAYER
  9
$CECOLOR
 62
   256
  9
$DIMSCALE
 40
1.0
  9
$DIMASZ
 40
0.1875
  9
$DIMEXO
 40
0.0625
  9
$DIMDLI
 40
0.4443307087
  9
$DIMRND
 40
0.0
  9
$DIMDLE
 40
0.0
  9
$DIMEXE
 40
0.125
  9
$DIMTP
 40
0.01
  9
$DIMTM
 40
0.01
  9
$DIMTXT
 40
2.0
  9
$DIMCEN
 40
0.1052362205
  9
$DIMTSZ
 40
0.0
  9
$DIMTOL
 70
     1
  9
$DIMLIM
 70
     0
  9
$DIMTIH
 70
     1
  9
$DIMTOH
 70
     1
  9
$DIMSE1
 70
     0
  9
$DIMSE2
 70
     0
  9
$DIMTAD
 70
     0
  9
$DIMZIN
 70
     0
  9
$DIMBLK
  1

  9
$DIMASO
 70
     1
  9
$DIMSHO
 70
     1
  9
$DIMPOST
  1
\X
  9
$DIMAPOST
  1

  9
$DIMALT
 70
     1
  9
$DIMALTD
 70
     2
  9
$DIMALTF
 40
25.3999999999999986
  9
$DIMLFAC
 40
1.0
  9
$DIMTOFL
 70
     0
  9
$DIMTVP
 40
0.0
  9
$DIMTIX
 70
     0
  9
$DIMSOXD
 70
     0
  9
$DIMSAH
 70
     0
  9
$DIMBLK1
  1

  9
$DIMBLK2
  1

  9
$DIMSTYLE
  2
STANDARD
  9
$DIMCLRD
 70
     0
  9
$DIMCLRE
 70
     0
  9
$DIMCLRT
 70
     0
  9
$DIMTFAC
 40
1.0
  9
$DIMGAP
 40
0.09
  9
$LUNITS
 70
     2
  9
$LUPREC
 70
     4
  9
$SKETCHINC
 40
0.1
  9
$FILLETRAD
 40
0.0
  9
$AUNITS
 70
     0
  9
$AUPREC
 70
     0
  9
$MENU
  1
.
  9
$ELEVATION
 40
0.0
  9
$PELEVATION
 40
0.0
  9
$THICKNESS
 40
0.0
  9
$LIMCHECK
 70
     0
  9
$BLIPMODE
 70
     0
  9
$CHAMFERA
 40
0.0
  9
$CHAMFERB
 40
0.0
  9
$SKPOLY
 70
     0
  9
$TDCREATE
 40
2458060.468368056230247
  9
$TDUPDATE
 40
2459016.8028703709132969
  9
$TDINDWG
 40
0.3252038194
  9
$TDUSRTIMER
 40
0.3252038194
  9
$USRTIMER
 70
     1
  9
$ANGBASE
 50
0.0
  9
$ANGDIR
 70
     0
  9
$PDMODE
 70
     0
  9
$PDSIZE
 40
0.3125
  9
$PLINEWID
 40
0.0
  9
$COORDS
 70
     1
  9
$SPLFRAME
 70
     0
  9
$SPLINETYPE
 70
     6
  9
$SPLINESEGS
 70
     8
  9
$ATTDIA
 70
     1
  9
$ATTREQ
 70
     1
  9
$HANDLING
 70
     1
  9
$HANDSEED
  5
7C7D
  9
$SURFTAB1
 70
     6
  9
$SURFTAB2
 70
     6
  9
$SURFTYPE
 70
     6
  9
$SURFU
 70
     6
  9
$SURFV
 70
     6
  9
$UCSNAME
  2

  9
$UCSORG
 10
0.0
 20
0.0
 30
0.0
  9
$UCSXDIR
 10
1.0
 20
0.0
 30
0.0
  9
$UCSYDIR
 10
0.0
 20
1.0
 30
0.0
  9
$PUCSNAME
  2

  9
$PUCSORG
 10
0.0
 20
0.0
 30
0.0
  9
$PUCSXDIR
 10
1.0
 20
0.0
 30
0.0
  9
$PUCSYDIR
 10
0.0
 20
1.0
 30
0.0
  9
$USERI1
 70
     0
  9
$USERI2
 70
     0
  9
$USERI3
 70
     0
  9
$USERI4
 70
     0
  9
$USERI5
 70
     0
  9
$USERR1
 40
0.0
  9
$USERR2
 40
0.0
  9
$USERR3
 40
0.0
  9
$USERR4
 40
0.0
  9
$USERR5
 40
0.0
  9
$WORLDVIEW
 70
     1
  9
$SHADEDGE
 70
     3
  9
$SHADEDIF
 70
    70
  9
$TILEMODE
 70
     1
  9
$MAXACTVP
 70
    64
  9
$PLIMCHECK
 70
     0
  9
$PEXTMIN
 10
1.0000000000000000E+20
 20
1.0000000000000000E+20
 30
1.0000000000000000E+20
  9
$PEXTMAX
 10
-1.0000000000000000E+20
 20
-1.0000000000000000E+20
 30
-1.0000000000000000E+20
  9
$PLIMMIN
 10
0.0
 20
0.0
  9
$PLIMMAX
 10
12.0
 20
9.0
  9
$UNITMODE
 70
     0
  9
$VISRETAIN
 70
     1
  9
$PLINEGEN
 70
     0
  9
$PSLTSCALE
 70
     1
  0
ENDSEC
  0
SECTION
  2
TABLES
  0
TABLE
  2
VPORT
 70
     1
  0
VPORT
  2
*ACTIVE
 70
     0
 10
0.0
 20
0.0
 11
1.0
 21
1.0
 12
66.7558715993794038
 22
26.6937009910337295
 13
0.0
 23
0.0
 14
1.0
 24
1.0
 15
0.0
 25
0.0
 16
0.0
 26
0.0
 36
30.1241266108570898
 17
2863.1249790072511132
 27
147.6709518432616903
 37
0.0
 40
53.6399087008534323
 41
2.6486111111111108
 42
50.0
 43
0.0
 44
0.0
 50
0.0
 51
0.0
 71
     0
 72
   100
 73
     1
 74
     1
 75
     0
 76
     0
 77
     0
 78
     0
  0
ENDTAB
  0
TABLE
  2
LTYPE
 70
     2
  0
LTYPE
  2
CONTINUOUS
 70
     0
  3
Solid line
 72
    65
 73
     0
 40
0.0
  0
LTYPE
  2
PHANTOM2
 70
     0
  3
___ _ _ ___ _ _ ___ _ _ ___ _ _
 72
    65
 73
     6
 40
1.25
 49
0.625
 49
-0.125
 49
0.125
 49
-0.125
 49
0.125
 49
-0.125
  0
ENDTAB
  0
TABLE
  2
LAYER
 70
     2
  0
LAYER
  2
0
 70
     0
 62
   255
  6
CONTINUOUS
  0
LAYER
  2
DEFPOINTS
 70
     0
 62
     7
  6
CONTINUOUS
  0
ENDTAB
  0
TABLE
  2
STYLE
 70
     1
  0
STYLE
  2
STANDARD
 70
     0
 40
0.0
 41
0.8
 50
0.0
 71
     0
 42
0.2
  3
txt
  4

  0
ENDTAB
  0
TABLE
  2
VIEW
 70
     0
  0
ENDTAB
  0
TABLE
  2
UCS
 70
     0
  0
ENDTAB
  0
TABLE
  2
APPID
 70
     9
  0
APPID
  2
ACAD
 70
     0
  0
APPID
  2
ACAD_MLEADERVER
 70
     0
  0
APPID
  2
ACAD_EXEMPT_FROM_CAD_STANDARDS
 70
     0
  0
APPID
  2
ACAD_NAV_VCDISPLAY
 70
     0
  0
APPID
  2
ACAECLAYERSTANDARD
 70
     0
  0
APPID
  2
ACCMTRANSPARENCY
 70
     0
  0
APPID
  2
ACAD_DSTYLE_DIMJAG
 70
     0
  0
APPID
  2
ACAD_DSTYLE_DIMTALN
 70
     0
  0
APPID
  2
ACDBATTR
 70
     0
  0
ENDTAB
  0
TABLE
  2
DIMSTYLE
 70
     1
  0
DIMSTYLE
  2
STANDARD
 70
     0
  3

  4

  5

  6

  7

 40
1.0
 41
0.1875
 42
0.0625
 43
0.38
 44
0.125
 45
0.0
 46
0.0
 47
0.01
 48
0.01
140
0.15625
141
0.09
142
0.0
143
25.3999999999999986
144
1.0
145
0.0
146
1.0
147
0.09
 71
     1
 72
     0
 73
     1
 74
     1
 75
     0
 76
     0
 77
     0
 78
     4
170
     0
171
     2
172
     0
173
     0
174
     0
175
     0
176
     0
177
     0
178
     0
  0
ENDTAB
  0
ENDSEC
  0
SECTION
  2
BLOCKS
  0
BLOCK
  8
0
  2
$MODEL_SPACE
 70
     0
 10
0.0
 20
0.0
 30
0.0
  3
$MODEL_SPACE
  1

  0
ENDBLK
  5
21
  8
0
  0
BLOCK
 67
     1
  8
0
  2
$PAPER_SPACE
 70
     0
 10
0.0
 20
0.0
 30
0.0
  3
$PAPER_SPACE
  1

  0
ENDBLK
  5
1D
 67
     1
  8
0
  0
BLOCK
  8
0
  2
_FILLED
 70
     0
 10
0.0
 20
0.0
 30
0.0
  3
_FILLED
  1

  0
SOLID
  5
78BD
  8
0
  6
BYBLOCK
 62
     0
 10
0.0
 20
0.0
 30
0.0
 11
-1.0
 21
0.1666666667
 31
0.0
 12
-1.0
 22
-0.1666666667
 32
0.0
 13
-1.0
 23
-0.1666666667
 33
0.0
  0
ENDBLK
  5
78BE
  8
0
  6
BYBLOCK
 62
     0
  0
ENDSEC
  0
SECTION
  2
ENTITIES
  0
ATTDEF
  5
75EE
  8
DEFPOINTS
 10
2875.2831728784858569
 20
158.036300887784904
 30
0.0
 40
0.001
  1
K-97500T
  3

  2
MODELNUMBER
 70
     0
1001
ACDBATTR
1070
     0
1070
     1
  0
ATTDEF
  5
75EF
  8
DEFPOINTS
 10
2875.2831728784858569
 20
158.0346342211182105
 30
0.0
 40
0.001
  1
AVID
  3

  2
TRADENAME
 70
     0
1001
ACDBATTR
1070
     0
1070
     1
  0
ATTDEF
  5
75F0
  8
DEFPOINTS
 10
2875.2831728784858569
 20
158.0329675544514885
 30
0.0
 40
0.001
  1
ROBE HOOK
  3

  2
PRODUCT
 70
     0
1001
ACDBATTR
1070
     0
1070
     1
  0
LINE
  5
7A79
  8
0
 10
2876.2629149334748035
 20
158.9184261140869978
 30
0.0
 11
2874.3030038729848457
 21
158.9184261140869978
 31
0.0
  0
LINE
  5
7A7A
  8
0
 10
2873.3719484891798857
 20
159.8384265924370027
 30
0.0
 11
2874.1939397383798678
 21
159.8384265924370027
 31
0.0
  0
ARC
  5
7A7B
  8
0
 10
2873.3721927464807777
 20
159.7333730350019039
 30
0.0
 40
0.1050538413929007
 50
90.1332166903309115
 51
118.4539557547657012
  0
ARC
  5
7A7C
  8
0
 10
2873.378287142730187
 20
159.7434631511220005
 30
0.0
 40
0.0996064002741692
 50
124.3116616307148945
 51
164.8595934880667073
  0
ARC
  5
7A7D
  8
0
 10
2873.6344108630851224
 20
159.6698201543943014
 30
0.0
 40
0.3660981864208989
 50
164.2036723057032077
 51
177.993018767894398
  0
ARC
  5
7A7E
  8
0
 10
2878.2566782858748411
 20
159.5068377683678875
 30
0.0
 40
4.9912381099142786
 50
177.9814850556741135
 51
179.7348056484543122
  0
LINE
  5
7A7F
  8
0
 10
2873.2654936398798782
 20
159.5299397043062868
 30
0.0
 11
2873.2654628308800966
 21
159.2989024854869911
 31
0.0
  0
ARC
  5
7A80
  8
0
 10
2852.7047211397989486
 20
159.3042616676248997
 30
0.0
 40
20.56074238952041
 50
358.4440814614836199
 51
359.9850657862536991
  0
ARC
  5
7A81
  8
0
 10
2873.7829236109291742
 20
158.0325673209576109
 30
0.0
 40
0.8857947505741007
 50
126.3512731744202995
 51
270.0014999158368028
  0
LINE
  5
7A82
  8
0
 10
2873.7829467996798485
 20
157.1467725706870056
 30
0.0
 11
2876.783021932812062
 21
157.1467725707869931
 31
0.0
  0
ARC
  5
7A83
  8
0
 10
2868.2593248374892028
 20
158.9664838748610123
 30
0.0
 40
5.0034189934679159
 50
351.7912454586609101
 51
357.4741752526135201
  0
ARC
  5
7A84
  8
0
 10
2864.4340723209661519
 20
159.5183078149686935
 30
0.0
 40
8.8682691168283618
 50
350.7814843041510926
 51
351.7912454586609101
  0
ARC
  5
7A85
  8
0
 10
2873.782569183465057
 20
158.0316919217382008
 30
0.0
 40
0.5984071215258965
 50
173.6757465040577131
 51
270.0311036386672185
  0
ARC
  5
7A86
  8
0
 10
2873.7831351769459616
 20
158.0323515675135866
 30
0.0
 40
0.5990667276598584
 50
269.9769367927996768
 51
11.18678000065918
  0
ARC
  5
7A87
  8
0
 10
2873.9314773644750858
 20
159.6698201543943014
 30
0.0
 40
0.3660981864208989
 50
2.0069812321055478
 51
15.7963276942967408
  0
ARC
  5
7A88
  8
0
 10
2868.8298432542701448
 20
159.493613756567612
 30
0.0
 40
5.4707743610615909
 50
0.3804469893053368
 51
1.98009281986484
  0
LINE
  5
7A89
  8
0
 10
2874.3004970117381163
 20
159.5299397191091941
 30
0.0
 11
2874.3005303920799633
 21
159.2989254021869954
 31
0.0
  0
ARC
  5
7A8A
  8
0
 10
2879.2008564245738853
 20
158.957782969097309
 30
0.0
 40
4.8973536448821022
 50
182.4786289321407082
 51
189.510808424496588
  0
ARC
  5
7A8B
  8
0
 10
2874.1936954810798852
 20
159.7333730350019039
 30
0.0
 40
0.1050538413929101
 50
61.5460442452571783
 51
89.8667833096690742
  0
ARC
  5
7A8C
  8
0
 10
2874.1876010848309306
 20
159.7434631511220005
 30
0.0
 40
0.0996064002741692
 50
15.14040651193333
 51
55.6883383692850487
  0
ARC
  5
7A8D
  8
0
 10
2894.1507933154180137
 20
158.7326538370770947
 30
0.0
 40
20.8929147677770892
 50
179.9634422209342119
 51
181.3653389492369001
  0
ARC
  5
7A8E
  8
0
 10
2874.1290864241041163
 20
158.2330017170951919
 30
0.0
 40
0.8652780394637638
 50
179.8789439310521061
 51
199.6162237497142939
  0
ARC
  5
7A8F
  8
0
 10
2873.7829735754230569
 20
158.1268940945739985
 30
0.0
 40
0.5038924631742584
 50
201.4639342147436025
 51
338.5454044809310972
  0
ARC
  5
7A90
  8
0
 10
2873.1190942841722062
 20
158.295675279449199
 30
0.0
 40
1.18660556457444
 50
342.688867245283177
 51
1.490273860697098
  0
ARC
  5
7A91
  8
0
 10
2851.5056995142440428
 20
158.5340969759159861
 30
0.0
 40
22.8005437415756198
 50
359.4784092222502068
 51
0.9658313731357996
  0
ARC
  5
7A92
  8
0
 10
2881.9518294877661901
 20
159.0574999511246119
 30
0.0
 40
7.6500898568238567
 50
181.0416587290480948
 51
182.3337287912237912
  0
ARC
  5
7A93
  8
0
 10
2890.5894464427501589
 20
159.2145523658728905
 30
0.0
 40
16.2891344869901182
 50
179.703222997749009
 51
181.0416587290480948
  0
LINE
  5
7A94
  8
0
 10
2877.1939703172802183
 20
159.8384265924370027
 30
0.0
 11
2876.3719790680797814
 21
159.8384265924370027
 31
0.0
  0
ARC
  5
7A95
  8
0
 10
2877.193726059979781
 20
159.7333730350019039
 30
0.0
 40
0.1050538413929007
 50
61.5460442452342704
 51
89.8667833096690742
  0
ARC
  5
7A96
  8
0
 10
2877.1876316637299169
 20
159.7434631511220005
 30
0.0
 40
0.0996064002741692
 50
15.14040651193333
 51
55.6883383692850487
  0
ARC
  5
7A97
  8
0
 10
2876.9315079433749816
 20
159.6698201543943014
 30
0.0
 40
0.3660981864208989
 50
2.0069812321055478
 51
15.7963276942967408
  0
ARC
  5
7A98
  8
0
 10
2872.3092405205861724
 20
159.5068377683678875
 30
0.0
 40
4.9912381099142786
 50
0.2651943515456708
 51
2.0185149443258599
  0
LINE
  5
7A99
  8
0
 10
2877.3004251665811353
 20
159.5299397043062868
 30
0.0
 11
2877.3004559755800074
 21
159.2989024854869911
 31
0.0
  0
ARC
  5
7A9A
  8
0
 10
2897.8611976666620649
 20
159.3042616676248997
 30
0.0
 40
20.56074238952041
 50
180.0149342137463009
 51
181.5559185385164085
  0
ARC
  5
7A9B
  8
0
 10
2876.7829951955318393
 20
158.0325673209576109
 30
0.0
 40
0.8857947505741007
 50
269.9985000841630836
 51
53.6487268255797218
  0
ARC
  5
7A9C
  8
0
 10
2882.3065939689709012
 20
158.9664838748610123
 30
0.0
 40
5.0034189934679159
 50
182.5258247473865083
 51
188.2087545413390899
  0
ARC
  5
7A9D
  8
0
 10
2886.1318464854948616
 20
159.5183078149686935
 30
0.0
 40
8.8682691168283618
 50
188.2087545413390899
 51
189.2185156958489927
  0
ARC
  5
7A9E
  8
0
 10
2876.783349622995047
 20
158.0316919217382008
 30
0.0
 40
0.5984071215258965
 50
269.9688963613327815
 51
6.3242534959422994
  0
ARC
  5
7A9F
  8
0
 10
2876.7827836295150519
 20
158.0323515675135866
 30
0.0
 40
0.5990667276598584
 50
168.813219999340788
 51
270.0230632072003232
  0
ARC
  5
7AA0
  8
0
 10
2876.6344414419859277
 20
159.6698201543943014
 30
0.0
 40
0.3660981864208989
 50
164.2036723057032077
 51
177.993018767894398
  0
ARC
  5
7AA1
  8
0
 10
2881.7360755521899591
 20
159.493613756567612
 30
0.0
 40
5.4707743610615909
 50
178.0199071801351067
 51
179.6195530106946023
  0
LINE
  5
7AA2
  8
0
 10
2876.2654217947228972
 20
159.5299397191091941
 30
0.0
 11
2876.2653884143801406
 21
159.2989254021869954
 31
0.0
  0
ARC
  5
7AA3
  8
0
 10
2871.3650623818871281
 20
158.957782969097309
 30
0.0
 40
4.8973536448821022
 50
350.489191575503412
 51
357.5213710678593202
  0
ARC
  5
7AA4
  8
0
 10
2876.3722233253811282
 20
159.7333730350019039
 30
0.0
 40
0.1050538413929101
 50
90.1332166903309115
 51
118.4539557547427933
  0
ARC
  5
7AA5
  8
0
 10
2876.3783177216300828
 20
159.7434631511220005
 30
0.0
 40
0.0996064002741692
 50
124.3116616307148945
 51
164.8595934880667073
  0
ARC
  5
7AA6
  8
0
 10
2856.4151254910311764
 20
158.7326538370774074
 30
0.0
 40
20.892914767789069
 50
358.6346610507630999
 51
0.0365577790658196
  0
ARC
  5
7AA7
  8
0
 10
2876.4368323823568971
 20
158.2330017170951919
 30
0.0
 40
0.8652780394637638
 50
340.3837762502856776
 51
0.1210560689478925
  0
ARC
  5
7AA8
  8
0
 10
2876.7829452310370471
 20
158.1268940945739985
 30
0.0
 40
0.5038924631742584
 50
201.4545955190689881
 51
338.5360657852564259
  0
ARC
  5
7AA9
  8
0
 10
2877.4468245222878977
 20
158.295675279449199
 30
0.0
 40
1.18660556457444
 50
178.5097261393028987
 51
197.3111327547167946
  0
ARC
  5
7AAA
  8
0
 10
2899.0602192922160611
 20
158.5340969759159861
 30
0.0
 40
22.8005437415756198
 50
179.0341686268641865
 51
180.5215907777497932
  0
ARC
  5
7AAB
  8
0
 10
2868.6140893186948233
 20
159.0574999511246119
 30
0.0
 40
7.6500898568238567
 50
357.6662712087760951
 51
358.9583412709519052
  0
ARC
  5
7AAC
  8
0
 10
2859.9764723637099451
 20
159.2145523658728905
 30
0.0
 40
16.2891344869901182
 50
358.9583412709519052
 51
0.2967770022509786
  0
ENDSEC
  0
EOF
