  0
SECTION
  2
HEADER
  9
$ACADVER
  1
AC1009
  9
$INSBASE
 10
3572.0977289891211512
 20
313.4250531471757881
 30
0.0
  9
$EXTMIN
 10
3569.2986740426699726
 20
311.763367601179084
 30
0.0
  9
$EXTMAX
 10
3574.8967839355709657
 20
314.9722184138258854
 30
0.0
  9
$LIMMIN
 10
0.0
 20
0.0
  9
$LIMMAX
 10
11.6929133858000007
 20
8.2677165353999982
  9
$ORTHOMODE
 70
     0
  9
$REGENMODE
 70
     1
  9
$FILLMODE
 70
     1
  9
$QTEXTMODE
 70
     0
  9
$MIRRTEXT
 70
     0
  9
$DRAGMODE
 70
     2
  9
$LTSCALE
 40
0.6431102362
  9
$OSMODE
 70
  4095
  9
$ATTMODE
 70
     1
  9
$TEXTSIZE
 40
0.2
  9
$TRACEWID
 40
0.05
  9
$TEXTSTYLE
  7
STANDARD
  9
$CLAYER
  8
0
  9
$CELTYPE
  6
BYLAYER
  9
$CECOLOR
 62
   256
  9
$DIMSCALE
 40
1.0
  9
$DIMASZ
 40
0.1875
  9
$DIMEXO
 40
0.0625
  9
$DIMDLI
 40
0.4443307087
  9
$DIMRND
 40
0.0
  9
$DIMDLE
 40
0.0
  9
$DIMEXE
 40
0.125
  9
$DIMTP
 40
0.01
  9
$DIMTM
 40
0.01
  9
$DIMTXT
 40
2.0
  9
$DIMCEN
 40
0.1052362205
  9
$DIMTSZ
 40
0.0
  9
$DIMTOL
 70
     1
  9
$DIMLIM
 70
     0
  9
$DIMTIH
 70
     1
  9
$DIMTOH
 70
     1
  9
$DIMSE1
 70
     0
  9
$DIMSE2
 70
     0
  9
$DIMTAD
 70
     0
  9
$DIMZIN
 70
     0
  9
$DIMBLK
  1

  9
$DIMASO
 70
     1
  9
$DIMSHO
 70
     1
  9
$DIMPOST
  1
\X
  9
$DIMAPOST
  1

  9
$DIMALT
 70
     1
  9
$DIMALTD
 70
     2
  9
$DIMALTF
 40
25.3999999999999986
  9
$DIMLFAC
 40
1.0
  9
$DIMTOFL
 70
     0
  9
$DIMTVP
 40
0.0
  9
$DIMTIX
 70
     0
  9
$DIMSOXD
 70
     0
  9
$DIMSAH
 70
     0
  9
$DIMBLK1
  1

  9
$DIMBLK2
  1

  9
$DIMSTYLE
  2
STANDARD
  9
$DIMCLRD
 70
     0
  9
$DIMCLRE
 70
     0
  9
$DIMCLRT
 70
     0
  9
$DIMTFAC
 40
1.0
  9
$DIMGAP
 40
0.09
  9
$LUNITS
 70
     2
  9
$LUPREC
 70
     4
  9
$SKETCHINC
 40
0.1
  9
$FILLETRAD
 40
0.0
  9
$AUNITS
 70
     0
  9
$AUPREC
 70
     0
  9
$MENU
  1
.
  9
$ELEVATION
 40
0.0
  9
$PELEVATION
 40
0.0
  9
$THICKNESS
 40
0.0
  9
$LIMCHECK
 70
     0
  9
$BLIPMODE
 70
     0
  9
$CHAMFERA
 40
0.0
  9
$CHAMFERB
 40
0.0
  9
$SKPOLY
 70
     0
  9
$TDCREATE
 40
2458060.468368056230247
  9
$TDUPDATE
 40
2458956.7779166670516133
  9
$TDINDWG
 40
0.6675996528
  9
$TDUSRTIMER
 40
0.6675996528
  9
$USRTIMER
 70
     1
  9
$ANGBASE
 50
0.0
  9
$ANGDIR
 70
     0
  9
$PDMODE
 70
     0
  9
$PDSIZE
 40
0.3125
  9
$PLINEWID
 40
0.0
  9
$COORDS
 70
     1
  9
$SPLFRAME
 70
     0
  9
$SPLINETYPE
 70
     6
  9
$SPLINESEGS
 70
     8
  9
$ATTDIA
 70
     1
  9
$ATTREQ
 70
     1
  9
$HANDLING
 70
     1
  9
$HANDSEED
  5
B5DC
  9
$SURFTAB1
 70
     6
  9
$SURFTAB2
 70
     6
  9
$SURFTYPE
 70
     6
  9
$SURFU
 70
     6
  9
$SURFV
 70
     6
  9
$UCSNAME
  2

  9
$UCSORG
 10
0.0
 20
0.0
 30
0.0
  9
$UCSXDIR
 10
1.0
 20
0.0
 30
0.0
  9
$UCSYDIR
 10
0.0
 20
1.0
 30
0.0
  9
$PUCSNAME
  2

  9
$PUCSORG
 10
0.0
 20
0.0
 30
0.0
  9
$PUCSXDIR
 10
1.0
 20
0.0
 30
0.0
  9
$PUCSYDIR
 10
0.0
 20
1.0
 30
0.0
  9
$USERI1
 70
     0
  9
$USERI2
 70
     0
  9
$USERI3
 70
     0
  9
$USERI4
 70
     0
  9
$USERI5
 70
     0
  9
$USERR1
 40
0.0
  9
$USERR2
 40
0.0
  9
$USERR3
 40
0.0
  9
$USERR4
 40
0.0
  9
$USERR5
 40
0.0
  9
$WORLDVIEW
 70
     1
  9
$SHADEDGE
 70
     3
  9
$SHADEDIF
 70
    70
  9
$TILEMODE
 70
     1
  9
$MAXACTVP
 70
    64
  9
$PLIMCHECK
 70
     0
  9
$PEXTMIN
 10
1.0000000000000000E+20
 20
1.0000000000000000E+20
 30
1.0000000000000000E+20
  9
$PEXTMAX
 10
-1.0000000000000000E+20
 20
-1.0000000000000000E+20
 30
-1.0000000000000000E+20
  9
$PLIMMIN
 10
0.0
 20
0.0
  9
$PLIMMAX
 10
12.0
 20
9.0
  9
$UNITMODE
 70
     0
  9
$VISRETAIN
 70
     1
  9
$PLINEGEN
 70
     0
  9
$PSLTSCALE
 70
     1
  0
ENDSEC
  0
SECTION
  2
TABLES
  0
TABLE
  2
VPORT
 70
     1
  0
VPORT
  2
*ACTIVE
 70
     0
 10
0.0
 20
0.0
 11
1.0
 21
1.0
 12
0.0
 22
0.0
 13
0.0
 23
0.0
 14
1.0
 24
1.0
 15
0.0
 25
0.0
 16
0.0
 26
0.0
 36
24.5209956019614914
 17
3572.09765625
 27
313.3677978515625
 37
0.0
 40
6.4525978863717093
 41
3.0022321428571419
 42
50.0
 43
0.0
 44
0.0
 50
0.0
 51
0.0
 71
     0
 72
   100
 73
     1
 74
     1
 75
     0
 76
     0
 77
     0
 78
     0
  0
ENDTAB
  0
TABLE
  2
LTYPE
 70
     2
  0
LTYPE
  2
CONTINUOUS
 70
     0
  3
Solid line
 72
    65
 73
     0
 40
0.0
  0
LTYPE
  2
PHANTOM2
 70
     0
  3
___ _ _ ___ _ _ ___ _ _ ___ _ _
 72
    65
 73
     6
 40
1.25
 49
0.625
 49
-0.125
 49
0.125
 49
-0.125
 49
0.125
 49
-0.125
  0
ENDTAB
  0
TABLE
  2
LAYER
 70
     2
  0
LAYER
  2
0
 70
     0
 62
   255
  6
CONTINUOUS
  0
LAYER
  2
DEFPOINTS
 70
     0
 62
     7
  6
CONTINUOUS
  0
ENDTAB
  0
TABLE
  2
STYLE
 70
     1
  0
STYLE
  2
STANDARD
 70
     0
 40
0.0
 41
0.8
 50
0.0
 71
     0
 42
0.2
  3
txt
  4

  0
ENDTAB
  0
TABLE
  2
VIEW
 70
     0
  0
ENDTAB
  0
TABLE
  2
UCS
 70
     0
  0
ENDTAB
  0
TABLE
  2
APPID
 70
     9
  0
APPID
  2
ACAD
 70
     0
  0
APPID
  2
ACAD_MLEADERVER
 70
     0
  0
APPID
  2
ACAD_EXEMPT_FROM_CAD_STANDARDS
 70
     0
  0
APPID
  2
ACAD_NAV_VCDISPLAY
 70
     0
  0
APPID
  2
ACAECLAYERSTANDARD
 70
     0
  0
APPID
  2
ACCMTRANSPARENCY
 70
     0
  0
APPID
  2
ACAD_DSTYLE_DIMJAG
 70
     0
  0
APPID
  2
ACAD_DSTYLE_DIMTALN
 70
     0
  0
APPID
  2
ACDBATTR
 70
     0
  0
ENDTAB
  0
TABLE
  2
DIMSTYLE
 70
     1
  0
DIMSTYLE
  2
STANDARD
 70
     0
  3

  4

  5

  6

  7

 40
1.0
 41
0.1875
 42
0.0625
 43
0.38
 44
0.125
 45
0.0
 46
0.0
 47
0.01
 48
0.01
140
0.15625
141
0.09
142
0.0
143
25.3999999999999986
144
1.0
145
0.0
146
1.0
147
0.09
 71
     1
 72
     0
 73
     1
 74
     1
 75
     0
 76
     0
 77
     0
 78
     4
170
     0
171
     2
172
     0
173
     0
174
     0
175
     0
176
     0
177
     0
178
     0
  0
ENDTAB
  0
ENDSEC
  0
SECTION
  2
BLOCKS
  0
BLOCK
  8
0
  2
$MODEL_SPACE
 70
     0
 10
0.0
 20
0.0
 30
0.0
  3
$MODEL_SPACE
  1

  0
ENDBLK
  5
21
  8
0
  0
BLOCK
 67
     1
  8
0
  2
$PAPER_SPACE
 70
     0
 10
0.0
 20
0.0
 30
0.0
  3
$PAPER_SPACE
  1

  0
ENDBLK
  5
1D
 67
     1
  8
0
  0
BLOCK
  8
0
  2
_FILLED
 70
     0
 10
0.0
 20
0.0
 30
0.0
  3
_FILLED
  1

  0
SOLID
  5
6F59
  8
0
  6
BYBLOCK
 62
     0
 10
0.0
 20
0.0
 30
0.0
 11
-1.0
 21
0.1666666667
 31
0.0
 12
-1.0
 22
-0.1666666667
 32
0.0
 13
-1.0
 23
-0.1666666667
 33
0.0
  0
ENDBLK
  5
6F5A
  8
0
  6
BYBLOCK
 62
     0
  0
ENDSEC
  0
SECTION
  2
ENTITIES
  0
ATTDEF
  5
3930
  8
DEFPOINTS
 10
3572.0948988394011394
 20
313.4226509769085851
 30
0.0
 40
0.001
  1
K-97503T
  3

  2
MODELNUMBER
 70
     0
1001
ACDBATTR
1070
     0
1070
     1
  0
ATTDEF
  5
3931
  8
DEFPOINTS
 10
3572.0948988394011394
 20
313.4209843102419768
 30
0.0
 40
0.001
  1
AVID
  3

  2
TRADENAME
 70
     0
1001
ACDBATTR
1070
     0
1070
     1
  0
ATTDEF
  5
3932
  8
DEFPOINTS
 10
3572.0948988394011394
 20
313.4193176435753116
 30
0.0
 40
0.001
  1
TOILET TISSUE HOLDER
  3

  2
PRODUCT
 70
     0
1001
ACDBATTR
1070
     0
1070
     1
  0
LINE
  5
B4DF
  8
0
 10
3569.298674042670882
 20
311.9407223508259221
 30
0.0
 11
3569.298674042670882
 21
314.9722184138258854
 31
0.0
  0
LINE
  5
B4E0
  8
0
 10
3569.3221310275707765
 20
312.9956623330257912
 30
0.0
 11
3569.322138434271892
 21
311.7909117633258802
 31
0.0
  0
LINE
  5
B4E1
  8
0
 10
3569.5189888279710431
 20
311.7923053325259275
 30
0.0
 11
3569.5189888279710431
 21
312.9956740524257839
 31
0.0
  0
LINE
  5
B4E2
  8
0
 10
3569.4914296729712078
 20
311.7633676045257971
 30
0.0
 11
3569.3496975010712049
 21
311.7633676045257971
 31
0.0
  0
LINE
  5
B4E3
  8
0
 10
3569.5189888279710431
 20
311.8217637937244717
 30
0.0
 11
3573.5938204438971297
 21
311.8217637937244717
 31
0.0
  0
LINE
  5
B4E4
  8
0
 10
3569.5189967818719197
 20
312.9645418395688807
 30
0.0
 11
3573.5948465423171001
 21
312.9645418395688807
 31
0.0
  0
LINE
  5
B4E5
  8
0
 10
3569.4914609521629245
 20
313.0231963915258007
 30
0.0
 11
3569.3496974239710653
 21
313.0231963915258007
 31
0.0
  0
LINE
  5
B4E6
  8
0
 10
3574.8967839355709657
 20
314.9722184138258854
 30
0.0
 11
3569.298674042670882
 21
314.9722184138258854
 31
0.0
  0
ARC
  5
B4E7
  8
0
 10
3569.3667722427207991
 20
311.9432415893646748
 30
0.0
 40
0.0681447827268482
 50
182.1186454634928964
 51
229.0807999084339031
  0
ARC
  5
B4E8
  8
0
 10
3569.4914842497901191
 20
312.9956918174751195
 30
0.0
 40
0.0275045839178744
 50
359.962992989977181
 51
90.048532122662337
  0
ARC
  5
B4E9
  8
0
 10
3569.4914197136799885
 20
311.7909690814873898
 30
0.0
 40
0.0276014787583245
 50
270.0206737246829221
 51
2.7749050691306678
  0
ARC
  5
B4EA
  8
0
 10
3569.3496473101258744
 20
312.9956801488374936
 30
0.0
 40
0.0275162883231573
 50
89.8956504114075301
 51
180.0370969686686919
  0
ARC
  5
B4EB
  8
0
 10
3569.349683922551776
 20
311.790913089491994
 30
0.0
 40
0.0275454883129126
 50
180.002758481634288
 51
270.0282438943779084
  0
ARC
  5
B4EC
  8
0
 10
3574.8339492458230779
 20
311.9407224108467744
 30
0.0
 40
0.0628346897477495
 50
338.9275327104301141
 51
359.9999452699677249
  0
ARC
  5
B4ED
  8
0
 10
3572.1131472022088928
 20
319.6481144091886222
 30
0.0
 40
5.9713706628820171
 50
258.0676182227168738
 51
269.8520608468315913
  0
ARC
  5
B4EE
  8
0
 10
3571.8538943049329646
 20
318.4207686057663977
 30
0.0
 40
4.716942597913401
 50
248.5891778636508036
 51
258.0662636648931993
  0
ARC
  5
B4EF
  8
0
 10
3570.7777997459861581
 20
315.6764248756417146
 30
0.0
 40
1.7691634323602281
 50
228.7573175374621997
 51
248.5891778636508036
  0
ARC
  5
B4F0
  8
0
 10
3570.1576678992560119
 20
315.0472811255456236
 30
0.0
 40
0.888768391691005
 50
213.37217071563731
 51
232.0810843165980089
  0
ARC
  5
B4F1
  8
0
 10
3570.0799608650659138
 20
314.9616972848407954
 30
0.0
 40
0.7773275489014121
 50
193.5567480042838895
 51
211.2542115128429998
  0
ARC
  5
B4F2
  8
0
 10
3570.1968812303261984
 20
315.0048134132317159
 30
0.0
 40
0.9012138653733325
 50
188.7616110925904138
 51
194.4791346186545979
  0
ARC
  5
B4F3
  8
0
 10
3571.0134383600261572
 20
315.1007894126390738
 30
0.0
 40
1.723114699524966
 50
185.6429896644947917
 51
187.7798201320102862
  0
ARC
  5
B4F4
  8
0
 10
3572.1103475232321216
 20
319.5335949089380279
 30
0.0
 40
5.8249322422754641
 50
261.8170665024131836
 51
269.8758802190880033
  0
ARC
  5
B4F5
  8
0
 10
3572.1124709185319261
 20
319.5467922181597942
 30
0.0
 40
5.8382974211995418
 50
253.7731067838491015
 51
261.8148746029388008
  0
ARC
  5
B4F6
  8
0
 10
3571.2136554119679204
 20
316.4584603431295022
 30
0.0
 40
2.6218299357164239
 50
240.6126030455372131
 51
253.7731067838491015
  0
ARC
  5
B4F7
  8
0
 10
3570.9498578549619197
 20
315.9900542204562157
 30
0.0
 40
2.0842488284966141
 50
228.6783414626870865
 51
240.6126030455372131
  0
ARC
  5
B4F8
  8
0
 10
3570.1186015735711408
 20
315.0445760997910156
 30
0.0
 40
0.8253144052604572
 50
205.0128792105109028
 51
228.6783414626870865
  0
ARC
  5
B4F9
  8
0
 10
3570.2215380824600288
 20
315.0571814840565139
 30
0.0
 40
0.924484097305465
 50
193.541329706241612
 51
203.0230104762923986
  0
ARC
  5
B4FA
  8
0
 10
3572.1161184902248351
 20
315.4654880628021942
 30
0.0
 40
2.8623814522459772
 50
190.1658980577722957
 51
192.6074316211424957
  0
ARC
  5
B4FB
  8
0
 10
3569.3548319728001843
 20
314.8675162713525992
 30
0.0
 40
0.0561728440923492
 50
156.5845906763107962
 51
178.6796758402178114
  0
ARC
  5
B4FC
  8
0
 10
3573.6267328866538264
 20
239.5728384630658923
 30
0.0
 40
73.391710303300286
 50
89.5974428763374391
 51
90.0248931794053391
  0
ARC
  5
B4FD
  8
0
 10
3574.0797324875479717
 20
308.2900353516636187
 30
0.0
 40
4.6731218451073042
 50
83.2730463219397308
 51
89.2319363598910229
  0
ARC
  5
B4FE
  8
0
 10
3574.2580067145468092
 20
309.8014749650777162
 30
0.0
 40
3.1512048286410952
 50
78.8231987807937031
 51
83.2730463219397308
  0
ARC
  5
B4FF
  8
0
 10
3574.8629119072861613
 20
312.8634072640630279
 30
0.0
 40
0.0300930139746689
 50
0.2744713017465899
 51
78.6635645116176931
  0
ARC
  5
B500
  8
0
 10
3581.0176177268931497
 20
-1398.9001051092800481
 30
0.0
 40
1710.7379768711189172
 50
90.2299281586826964
 51
90.2486374845447301
  0
ARC
  5
B501
  8
0
 10
3574.0809540506079429
 20
316.4363824398109273
 30
0.0
 40
4.6128396194282999
 50
270.8879431315116904
 51
277.4568403766562028
  0
ARC
  5
B502
  8
0
 10
3574.3015730202569102
 20
314.7508044144183827
 30
0.0
 40
2.912884911368355
 50
277.4568403766562028
 51
281.2291881432776108
  0
ARC
  5
B503
  8
0
 10
3574.8629602104401783
 20
311.9231529104546894
 30
0.0
 40
0.0300445402813519
 50
281.2291881432776108
 51
359.8045825930743717
  0
LINE
  5
B504
  8
0
 10
3574.8930045759711902
 20
311.9230504384257756
 30
0.0
 11
3574.8930045759711902
 21
312.8635514219258766
 31
0.0
  0
LINE
  5
B505
  8
0
 10
3574.7824566820340806
 20
311.8778878805259183
 30
0.0
 11
3574.8339494578722224
 21
311.8778878805259183
 31
0.0
  0
ARC
  5
B506
  8
0
 10
3574.8339494578722224
 20
311.9407223508245011
 30
0.0
 40
0.0628344702986188
 50
270.0
 51
318.6727628863653194
  0
LINE
  5
B507
  8
0
 10
3574.8967839355709657
 20
311.9407223508259221
 30
0.0
 11
3574.8967839355709657
 21
314.9722184138258854
 31
0.0
  0
ARC
  5
B508
  8
0
 10
3572.0823107760329549
 20
319.6481144091886222
 30
0.0
 40
5.9713706628820207
 50
270.1479391531685224
 51
281.9323817772831262
  0
ARC
  5
B509
  8
0
 10
3572.3415636733088832
 20
318.4207686057663977
 30
0.0
 40
4.716942597913401
 50
281.9337363351069143
 51
291.4108221363492248
  0
ARC
  5
B50A
  8
0
 10
3573.4176582322547802
 20
315.6764248756417146
 30
0.0
 40
1.7691634323602281
 50
291.4108221363492248
 51
311.2426824625378003
  0
ARC
  5
B50B
  8
0
 10
3574.0377900789858359
 20
315.0472811255456236
 30
0.0
 40
0.888768391691005
 50
307.9189156834019059
 51
326.62782928436269
  0
ARC
  5
B50C
  8
0
 10
3574.1154971131750244
 20
314.9616972848407954
 30
0.0
 40
0.7773275489014121
 50
328.7457884871569718
 51
346.4432519957160821
  0
ARC
  5
B50D
  8
0
 10
3573.9985767479170136
 20
315.0048134132317159
 30
0.0
 40
0.9012138653733325
 50
345.5208653813454021
 51
351.2383889074095009
  0
ARC
  5
B50E
  8
0
 10
3573.1820196182161453
 20
315.1007894126390738
 30
0.0
 40
1.723114699524966
 50
352.2201798679897138
 51
354.3570103355052083
  0
ARC
  5
B50F
  8
0
 10
3572.0851104550101809
 20
319.5335949089381984
 30
0.0
 40
5.8249322422755903
 50
270.124119780911883
 51
278.1829334975868164
  0
ARC
  5
B510
  8
0
 10
3572.0829870597099216
 20
319.5467922181597942
 30
0.0
 40
5.8382974211995418
 50
278.1851253970610856
 51
286.2268932161509269
  0
ARC
  5
B511
  8
0
 10
3572.9818025662748369
 20
316.4584603431295022
 30
0.0
 40
2.6218299357164239
 50
286.2268932161509269
 51
299.3873969544628153
  0
ARC
  5
B512
  8
0
 10
3573.2456001232799281
 20
315.9900542204562157
 30
0.0
 40
2.0842488284966141
 50
299.3873969544628153
 51
311.3216585373128851
  0
ARC
  5
B513
  8
0
 10
3574.0768564046711617
 20
315.0445760997910156
 30
0.0
 40
0.8253144052604572
 50
311.3216585373128851
 51
334.9871207894892109
  0
ARC
  5
B514
  8
0
 10
3573.9739198957818189
 20
315.0571814840565139
 30
0.0
 40
0.924484097305465
 50
336.976989523707573
 51
346.4586702937584164
  0
ARC
  5
B515
  8
0
 10
3572.0793394880179221
 20
315.4654880628021942
 30
0.0
 40
2.8623814522459772
 50
347.3925683788575043
 51
349.8341019422276759
  0
ENDSEC
  0
EOF
