  0
SECTION
  2
HEADER
  9
$ACADVER
  1
AC1009
  9
$INSBASE
 10
3208.1477555600081359
 20
98.4540176333164538
 30
0.0
  9
$EXTMIN
 10
3207.6902555600067899
 20
98.2845665230827166
 30
0.0
  9
$EXTMAX
 10
3208.6052555600072083
 20
98.6234687435502053
 30
0.0
  9
$LIMMIN
 10
0.0
 20
0.0
  9
$LIMMAX
 10
11.6929133858000007
 20
8.2677165353999982
  9
$ORTHOMODE
 70
     0
  9
$REGENMODE
 70
     1
  9
$FILLMODE
 70
     1
  9
$QTEXTMODE
 70
     0
  9
$MIRRTEXT
 70
     0
  9
$DRAGMODE
 70
     2
  9
$LTSCALE
 40
0.6431102362
  9
$OSMODE
 70
  4095
  9
$ATTMODE
 70
     1
  9
$TEXTSIZE
 40
0.2
  9
$TRACEWID
 40
0.05
  9
$TEXTSTYLE
  7
STANDARD
  9
$CLAYER
  8
0
  9
$CELTYPE
  6
BYLAYER
  9
$CECOLOR
 62
   256
  9
$DIMSCALE
 40
1.0
  9
$DIMASZ
 40
0.1875
  9
$DIMEXO
 40
0.0625
  9
$DIMDLI
 40
0.4443307087
  9
$DIMRND
 40
0.0
  9
$DIMDLE
 40
0.0
  9
$DIMEXE
 40
0.125
  9
$DIMTP
 40
0.01
  9
$DIMTM
 40
0.01
  9
$DIMTXT
 40
2.0
  9
$DIMCEN
 40
0.1052362205
  9
$DIMTSZ
 40
0.0
  9
$DIMTOL
 70
     1
  9
$DIMLIM
 70
     0
  9
$DIMTIH
 70
     1
  9
$DIMTOH
 70
     1
  9
$DIMSE1
 70
     0
  9
$DIMSE2
 70
     0
  9
$DIMTAD
 70
     0
  9
$DIMZIN
 70
     0
  9
$DIMBLK
  1

  9
$DIMASO
 70
     1
  9
$DIMSHO
 70
     1
  9
$DIMPOST
  1
\X
  9
$DIMAPOST
  1

  9
$DIMALT
 70
     1
  9
$DIMALTD
 70
     2
  9
$DIMALTF
 40
25.3999999999999986
  9
$DIMLFAC
 40
1.0
  9
$DIMTOFL
 70
     0
  9
$DIMTVP
 40
0.0
  9
$DIMTIX
 70
     0
  9
$DIMSOXD
 70
     0
  9
$DIMSAH
 70
     0
  9
$DIMBLK1
  1

  9
$DIMBLK2
  1

  9
$DIMSTYLE
  2
STANDARD
  9
$DIMCLRD
 70
     0
  9
$DIMCLRE
 70
     0
  9
$DIMCLRT
 70
     0
  9
$DIMTFAC
 40
1.0
  9
$DIMGAP
 40
0.09
  9
$LUNITS
 70
     2
  9
$LUPREC
 70
     4
  9
$SKETCHINC
 40
0.1
  9
$FILLETRAD
 40
0.0
  9
$AUNITS
 70
     0
  9
$AUPREC
 70
     0
  9
$MENU
  1
.
  9
$ELEVATION
 40
0.0
  9
$PELEVATION
 40
0.0
  9
$THICKNESS
 40
0.0
  9
$LIMCHECK
 70
     0
  9
$BLIPMODE
 70
     0
  9
$CHAMFERA
 40
0.0
  9
$CHAMFERB
 40
0.0
  9
$SKPOLY
 70
     0
  9
$TDCREATE
 40
2458060.468368056230247
  9
$TDUPDATE
 40
2460693.499479167163372
  9
$TDINDWG
 40
0.5129931713
  9
$TDUSRTIMER
 40
0.5129931713
  9
$USRTIMER
 70
     1
  9
$ANGBASE
 50
0.0
  9
$ANGDIR
 70
     0
  9
$PDMODE
 70
     0
  9
$PDSIZE
 40
0.3125
  9
$PLINEWID
 40
0.0
  9
$COORDS
 70
     2
  9
$SPLFRAME
 70
     0
  9
$SPLINETYPE
 70
     6
  9
$SPLINESEGS
 70
     8
  9
$ATTDIA
 70
     1
  9
$ATTREQ
 70
     1
  9
$HANDLING
 70
     1
  9
$HANDSEED
  5
349BD
  9
$SURFTAB1
 70
     6
  9
$SURFTAB2
 70
     6
  9
$SURFTYPE
 70
     6
  9
$SURFU
 70
     6
  9
$SURFV
 70
     6
  9
$UCSNAME
  2

  9
$UCSORG
 10
0.0
 20
0.0
 30
0.0
  9
$UCSXDIR
 10
1.0
 20
0.0
 30
0.0
  9
$UCSYDIR
 10
0.0
 20
1.0
 30
0.0
  9
$PUCSNAME
  2

  9
$PUCSORG
 10
0.0
 20
0.0
 30
0.0
  9
$PUCSXDIR
 10
1.0
 20
0.0
 30
0.0
  9
$PUCSYDIR
 10
0.0
 20
1.0
 30
0.0
  9
$USERI1
 70
     0
  9
$USERI2
 70
     0
  9
$USERI3
 70
     0
  9
$USERI4
 70
     0
  9
$USERI5
 70
     0
  9
$USERR1
 40
0.0
  9
$USERR2
 40
0.0
  9
$USERR3
 40
0.0
  9
$USERR4
 40
0.0
  9
$USERR5
 40
0.0
  9
$WORLDVIEW
 70
     1
  9
$SHADEDGE
 70
     3
  9
$SHADEDIF
 70
    70
  9
$TILEMODE
 70
     1
  9
$MAXACTVP
 70
    64
  9
$PLIMCHECK
 70
     0
  9
$PEXTMIN
 10
1.0000000000000000E+20
 20
1.0000000000000000E+20
 30
1.0000000000000000E+20
  9
$PEXTMAX
 10
-1.0000000000000000E+20
 20
-1.0000000000000000E+20
 30
-1.0000000000000000E+20
  9
$PLIMMIN
 10
0.0
 20
0.0
  9
$PLIMMAX
 10
12.0
 20
9.0
  9
$UNITMODE
 70
     0
  9
$VISRETAIN
 70
     1
  9
$PLINEGEN
 70
     0
  9
$PSLTSCALE
 70
     1
  0
ENDSEC
  0
SECTION
  2
TABLES
  0
TABLE
  2
VPORT
 70
     1
  0
VPORT
  2
*ACTIVE
 70
     0
 10
0.0
 20
0.0
 11
1.0
 21
1.0
 12
-595.3963118228052736
 22
-27.5412445634334588
 13
0.0
 23
0.0
 14
1.0
 24
1.0
 15
0.0
 25
0.0
 16
0.0
 26
0.0
 36
17.1152628219792007
 17
3803.5440673828129547
 27
125.9952621967499056
 37
0.0
 40
0.4138994419192126
 41
2.21775147928994
 42
50.0
 43
0.0
 44
0.0
 50
0.0
 51
0.0
 71
     0
 72
   100
 73
     1
 74
     1
 75
     0
 76
     0
 77
     0
 78
     0
  0
ENDTAB
  0
TABLE
  2
LTYPE
 70
     2
  0
LTYPE
  2
CONTINUOUS
 70
     0
  3
Solid line
 72
    65
 73
     0
 40
0.0
  0
LTYPE
  2
PHANTOM2
 70
     0
  3
___ _ _ ___ _ _ ___ _ _ ___ _ _
 72
    65
 73
     6
 40
1.25
 49
0.625
 49
-0.125
 49
0.125
 49
-0.125
 49
0.125
 49
-0.125
  0
ENDTAB
  0
TABLE
  2
LAYER
 70
     2
  0
LAYER
  2
0
 70
     0
 62
   255
  6
CONTINUOUS
  0
LAYER
  2
DEFPOINTS
 70
     0
 62
     7
  6
CONTINUOUS
  0
ENDTAB
  0
TABLE
  2
STYLE
 70
     1
  0
STYLE
  2
STANDARD
 70
     0
 40
0.0
 41
0.8
 50
0.0
 71
     0
 42
0.2
  3
txt
  4

  0
ENDTAB
  0
TABLE
  2
VIEW
 70
     0
  0
ENDTAB
  0
TABLE
  2
UCS
 70
     0
  0
ENDTAB
  0
TABLE
  2
APPID
 70
    10
  0
APPID
  2
ACAD
 70
     0
  0
APPID
  2
ACAD_MLEADERVER
 70
     0
  0
APPID
  2
ACAD_EXEMPT_FROM_CAD_STANDARDS
 70
     0
  0
APPID
  2
ACAD_NAV_VCDISPLAY
 70
     0
  0
APPID
  2
ACAECLAYERSTANDARD
 70
     0
  0
APPID
  2
ACCMTRANSPARENCY
 70
     0
  0
APPID
  2
ACAD_DSTYLE_DIMJAG
 70
     0
  0
APPID
  2
ACAD_DSTYLE_DIMTALN
 70
     0
  0
APPID
  2
ACDBATTR
 70
     0
  0
APPID
  2
DCO15
 70
     0
  0
ENDTAB
  0
TABLE
  2
DIMSTYLE
 70
     1
  0
DIMSTYLE
  2
STANDARD
 70
     0
  3

  4

  5

  6

  7

 40
1.0
 41
0.1875
 42
0.0625
 43
0.38
 44
0.125
 45
0.0
 46
0.0
 47
0.01
 48
0.01
140
0.15625
141
0.09
142
0.0
143
25.3999999999999986
144
1.0
145
0.0
146
1.0
147
0.09
 71
     1
 72
     0
 73
     1
 74
     1
 75
     0
 76
     0
 77
     0
 78
     4
170
     0
171
     2
172
     0
173
     0
174
     0
175
     0
176
     0
177
     0
178
     0
  0
ENDTAB
  0
ENDSEC
  0
SECTION
  2
BLOCKS
  0
BLOCK
  8
0
  2
$MODEL_SPACE
 70
     0
 10
0.0
 20
0.0
 30
0.0
  3
$MODEL_SPACE
  1

  0
ENDBLK
  5
21
  8
0
  0
BLOCK
 67
     1
  8
0
  2
$PAPER_SPACE
 70
     0
 10
0.0
 20
0.0
 30
0.0
  3
$PAPER_SPACE
  1

  0
ENDBLK
  5
1D
 67
     1
  8
0
  0
BLOCK
  8
0
  2
_FILLED
 70
     0
 10
0.0
 20
0.0
 30
0.0
  3
_FILLED
  1

  0
SOLID
  5
3293C
  8
0
  6
BYBLOCK
 62
     0
 10
0.0
 20
0.0
 30
0.0
 11
-1.0
 21
0.1666666667
 31
0.0
 12
-1.0
 22
-0.1666666667
 32
0.0
 13
-1.0
 23
-0.1666666667
 33
0.0
  0
ENDBLK
  5
3293D
  8
0
  6
BYBLOCK
 62
     0
  0
ENDSEC
  0
SECTION
  2
ENTITIES
  0
ATTDEF
  5
32824
  8
DEFPOINTS
 10
3208.1359178345410328
 20
98.4557554086796216
 30
0.0
 40
0.001
  1
K-97638
  3

  2
MODELNUMBER
 70
     0
1001
ACDBATTR
1070
     0
1070
     1
  0
ATTDEF
  5
32825
  8
DEFPOINTS
 10
3208.1359178345410328
 20
98.4540887420129707
 30
0.0
 40
0.001
  1
CHOREOGRAPH
  3

  2
TRADENAME
 70
     0
1001
ACDBATTR
1070
     0
1070
     1
  0
ATTDEF
  5
32826
  8
DEFPOINTS
 10
3208.1359178345410328
 20
98.4524220753463055
 30
0.0
 40
0.001
  1
EDGE TRIM
  3

  2
PRODUCT
 70
     0
1001
ACDBATTR
1070
     0
1070
     1
  0
ARC
  5
34861
  8
0
 10
3208.5852555600072264
 20
98.6034687435501951
 30
0.0
 40
0.0199999999999996
 50
270.0
 51
90.0
  0
ARC
  5
34862
  8
0
 10
3208.3197170842067862
 20
98.7773917919502082
 30
0.0
 40
0.2239230484999979
 50
245.1464988714047024
 51
294.8535011285949281
  0
ARC
  5
34863
  8
0
 10
3208.4558617975408197
 20
98.4834687435501905
 30
0.0
 40
0.1
 50
90.0
 51
114.8535011285948997
  0
LINE
  5
34864
  8
0
 10
3208.5852555600072264
 20
98.6234687435502053
 30
0.0
 11
3207.7302555600072083
 21
98.6234687435502053
 31
0.0
  0
LINE
  5
34865
  8
0
 10
3208.5852555600072264
 20
98.5834687435502133
 30
0.0
 11
3208.4558617975408197
 21
98.5834687435502133
 31
0.0
  0
LINE
  5
34866
  8
0
 10
3208.183572370874117
 20
98.5834687435502133
 30
0.0
 11
3208.0553823341260795
 21
98.5834687435502133
 31
0.0
  0
ARC
  5
34867
  8
0
 10
3208.183572370874117
 20
98.4834687435494089
 30
0.0
 40
0.1
 50
65.1464988715472373
 51
89.9999999999478888
  0
LINE
  5
34868
  8
0
 10
3207.9480588762608022
 20
98.5582391277573322
 30
0.0
 11
3208.0295004296481238
 21
98.5800613261879732
 31
0.0
  0
LINE
  5
34869
  8
0
 10
3207.7302555600072083
 20
98.3639257050502636
 30
0.0
 11
3207.7302555600072083
 21
98.5384687435502116
 31
0.0
  0
LINE
  5
3486A
  8
0
 10
3207.6902555600067899
 20
98.364713224977109
 30
0.0
 11
3207.6902555600067899
 21
98.5834687435502133
 31
0.0
  0
ARC
  5
3486B
  8
0
 10
3207.7302555600072083
 20
98.5834687435502133
 30
0.0
 40
0.04
 50
90.0000000000260485
 51
179.9999999999893987
  0
ARC
  5
3486C
  8
0
 10
3208.0553823341260795
 20
98.4834687435500058
 30
0.0
 40
0.1
 50
90.0000000000260485
 51
104.9999999803578987
  0
LINE
  5
3486D
  8
0
 10
3207.911824209992119
 20
98.5534687434502246
 30
0.0
 11
3207.7452555600079904
 21
98.5534687434502246
 31
0.0
  0
ARC
  5
3486E
  8
0
 10
3207.911824209992119
 20
98.6934687434502251
 30
0.0
 40
0.14
 50
270.0
 51
284.9999999803839046
  0
ARC
  5
3486F
  8
0
 10
3207.7452555600079904
 20
98.538468743450224
 30
0.0
 40
0.015
 50
90.0000000000260485
 51
180.0000000000268017
  0
ARC
  5
34870
  8
0
 10
3207.8066188954780955
 20
99.1993066131644952
 30
0.0
 40
0.8761719642563964
 50
267.5075426986488765
 51
287.4475292319536948
  0
ARC
  5
34871
  8
0
 10
3207.7702555600071719
 20
98.3639257050502636
 30
0.0
 40
0.04
 50
180.0
 51
267.5075426986488765
  0
ARC
  5
34872
  8
0
 10
3207.7841635887962184
 20
99.0239131081148543
 30
0.0
 40
0.7393465850321446
 50
268.791333003833472
 51
293.2628986398017901
  0
ARC
  5
34873
  8
0
 10
3207.7702555600071719
 20
98.3647132249770948
 30
0.0
 40
0.08
 50
179.9999999999942872
 51
268.791333003833472
  0
ARC
  5
34874
  8
0
 10
3208.0723385944079382
 20
98.3539109869502113
 30
0.0
 40
0.0099999999999999
 50
292.5223436100927188
 51
107.5481324844480042
  0
ENDSEC
  0
EOF
