  0
SECTION
  2
HEADER
  9
$ACADVER
  1
AC1009
  9
$INSBASE
 10
4973.4900021257590197
 20
257.1199293582353107
 30
0.0
  9
$EXTMIN
 10
4948.4092537341593925
 20
257.1144566805488125
 30
0.0
  9
$EXTMAX
 10
4997.4761828679593236
 20
343.7341025865404731
 30
0.0
  9
$LIMMIN
 10
0.0
 20
0.0
  9
$LIMMAX
 10
11.6929133858000007
 20
8.2677165353999982
  9
$ORTHOMODE
 70
     1
  9
$REGENMODE
 70
     1
  9
$FILLMODE
 70
     1
  9
$QTEXTMODE
 70
     0
  9
$MIRRTEXT
 70
     0
  9
$DRAGMODE
 70
     2
  9
$LTSCALE
 40
0.6431102362
  9
$OSMODE
 70
  4095
  9
$ATTMODE
 70
     1
  9
$TEXTSIZE
 40
0.2
  9
$TRACEWID
 40
0.05
  9
$TEXTSTYLE
  7
STANDARD
  9
$CLAYER
  8
0
  9
$CELTYPE
  6
BYLAYER
  9
$CECOLOR
 62
   256
  9
$DIMSCALE
 40
1.0
  9
$DIMASZ
 40
0.1875
  9
$DIMEXO
 40
0.0625
  9
$DIMDLI
 40
0.4443307087
  9
$DIMRND
 40
0.0
  9
$DIMDLE
 40
0.0
  9
$DIMEXE
 40
0.125
  9
$DIMTP
 40
0.01
  9
$DIMTM
 40
0.01
  9
$DIMTXT
 40
2.0
  9
$DIMCEN
 40
0.1052362205
  9
$DIMTSZ
 40
0.0
  9
$DIMTOL
 70
     1
  9
$DIMLIM
 70
     0
  9
$DIMTIH
 70
     1
  9
$DIMTOH
 70
     1
  9
$DIMSE1
 70
     0
  9
$DIMSE2
 70
     0
  9
$DIMTAD
 70
     0
  9
$DIMZIN
 70
     0
  9
$DIMBLK
  1

  9
$DIMASO
 70
     1
  9
$DIMSHO
 70
     1
  9
$DIMPOST
  1
\X
  9
$DIMAPOST
  1

  9
$DIMALT
 70
     1
  9
$DIMALTD
 70
     2
  9
$DIMALTF
 40
25.3999999999999986
  9
$DIMLFAC
 40
1.0
  9
$DIMTOFL
 70
     0
  9
$DIMTVP
 40
0.0
  9
$DIMTIX
 70
     0
  9
$DIMSOXD
 70
     0
  9
$DIMSAH
 70
     0
  9
$DIMBLK1
  1

  9
$DIMBLK2
  1

  9
$DIMSTYLE
  2
STANDARD
  9
$DIMCLRD
 70
     0
  9
$DIMCLRE
 70
     0
  9
$DIMCLRT
 70
     0
  9
$DIMTFAC
 40
1.0
  9
$DIMGAP
 40
0.09
  9
$LUNITS
 70
     2
  9
$LUPREC
 70
     4
  9
$SKETCHINC
 40
0.1
  9
$FILLETRAD
 40
0.0
  9
$AUNITS
 70
     0
  9
$AUPREC
 70
     0
  9
$MENU
  1
.
  9
$ELEVATION
 40
0.0
  9
$PELEVATION
 40
0.0
  9
$THICKNESS
 40
0.0
  9
$LIMCHECK
 70
     0
  9
$BLIPMODE
 70
     0
  9
$CHAMFERA
 40
0.0
  9
$CHAMFERB
 40
0.0
  9
$SKPOLY
 70
     0
  9
$TDCREATE
 40
2458060.468368056230247
  9
$TDUPDATE
 40
2459152.8983912039548159
  9
$TDINDWG
 40
0.3445672454
  9
$TDUSRTIMER
 40
0.3445672454
  9
$USRTIMER
 70
     1
  9
$ANGBASE
 50
0.0
  9
$ANGDIR
 70
     0
  9
$PDMODE
 70
     0
  9
$PDSIZE
 40
0.3125
  9
$PLINEWID
 40
0.0
  9
$COORDS
 70
     1
  9
$SPLFRAME
 70
     0
  9
$SPLINETYPE
 70
     6
  9
$SPLINESEGS
 70
     8
  9
$ATTDIA
 70
     1
  9
$ATTREQ
 70
     1
  9
$HANDLING
 70
     1
  9
$HANDSEED
  5
CFF9
  9
$SURFTAB1
 70
     6
  9
$SURFTAB2
 70
     6
  9
$SURFTYPE
 70
     6
  9
$SURFU
 70
     6
  9
$SURFV
 70
     6
  9
$UCSNAME
  2

  9
$UCSORG
 10
0.0
 20
0.0
 30
0.0
  9
$UCSXDIR
 10
1.0
 20
0.0
 30
0.0
  9
$UCSYDIR
 10
0.0
 20
1.0
 30
0.0
  9
$PUCSNAME
  2

  9
$PUCSORG
 10
0.0
 20
0.0
 30
0.0
  9
$PUCSXDIR
 10
1.0
 20
0.0
 30
0.0
  9
$PUCSYDIR
 10
0.0
 20
1.0
 30
0.0
  9
$USERI1
 70
     0
  9
$USERI2
 70
     0
  9
$USERI3
 70
     0
  9
$USERI4
 70
     0
  9
$USERI5
 70
     0
  9
$USERR1
 40
0.0
  9
$USERR2
 40
0.0
  9
$USERR3
 40
0.0
  9
$USERR4
 40
0.0
  9
$USERR5
 40
0.0
  9
$WORLDVIEW
 70
     1
  9
$SHADEDGE
 70
     3
  9
$SHADEDIF
 70
    70
  9
$TILEMODE
 70
     1
  9
$MAXACTVP
 70
    64
  9
$PLIMCHECK
 70
     0
  9
$PEXTMIN
 10
1.0000000000000000E+20
 20
1.0000000000000000E+20
 30
1.0000000000000000E+20
  9
$PEXTMAX
 10
-1.0000000000000000E+20
 20
-1.0000000000000000E+20
 30
-1.0000000000000000E+20
  9
$PLIMMIN
 10
0.0
 20
0.0
  9
$PLIMMAX
 10
12.0
 20
9.0
  9
$UNITMODE
 70
     0
  9
$VISRETAIN
 70
     1
  9
$PLINEGEN
 70
     0
  9
$PSLTSCALE
 70
     1
  0
ENDSEC
  0
SECTION
  2
TABLES
  0
TABLE
  2
VPORT
 70
     1
  0
VPORT
  2
*ACTIVE
 70
     0
 10
0.0
 20
0.0
 11
1.0
 21
1.0
 12
0.0
 22
0.0
 13
0.0
 23
0.0
 14
1.0
 24
1.0
 15
0.0
 25
0.0
 16
0.0
 26
0.0
 36
282.0771592228342115
 17
4972.942626953125
 27
300.4242785111728153
 37
0.0
 40
99.5530178441715634
 41
2.1186252771618621
 42
50.0
 43
0.0
 44
0.0
 50
0.0
 51
0.0
 71
     0
 72
   100
 73
     1
 74
     1
 75
     0
 76
     0
 77
     0
 78
     0
  0
ENDTAB
  0
TABLE
  2
LTYPE
 70
     2
  0
LTYPE
  2
CONTINUOUS
 70
     0
  3
Solid line
 72
    65
 73
     0
 40
0.0
  0
LTYPE
  2
PHANTOM2
 70
     0
  3
___ _ _ ___ _ _ ___ _ _ ___ _ _
 72
    65
 73
     6
 40
1.25
 49
0.625
 49
-0.125
 49
0.125
 49
-0.125
 49
0.125
 49
-0.125
  0
ENDTAB
  0
TABLE
  2
LAYER
 70
     2
  0
LAYER
  2
0
 70
     0
 62
   255
  6
CONTINUOUS
  0
LAYER
  2
DEFPOINTS
 70
     0
 62
     7
  6
CONTINUOUS
  0
ENDTAB
  0
TABLE
  2
STYLE
 70
     1
  0
STYLE
  2
STANDARD
 70
     0
 40
0.0
 41
0.8
 50
0.0
 71
     0
 42
0.2
  3
txt
  4

  0
ENDTAB
  0
TABLE
  2
VIEW
 70
     0
  0
ENDTAB
  0
TABLE
  2
UCS
 70
     0
  0
ENDTAB
  0
TABLE
  2
APPID
 70
     9
  0
APPID
  2
ACAD
 70
     0
  0
APPID
  2
ACAD_MLEADERVER
 70
     0
  0
APPID
  2
ACAD_EXEMPT_FROM_CAD_STANDARDS
 70
     0
  0
APPID
  2
ACAD_NAV_VCDISPLAY
 70
     0
  0
APPID
  2
ACAECLAYERSTANDARD
 70
     0
  0
APPID
  2
ACCMTRANSPARENCY
 70
     0
  0
APPID
  2
ACAD_DSTYLE_DIMJAG
 70
     0
  0
APPID
  2
ACAD_DSTYLE_DIMTALN
 70
     0
  0
APPID
  2
ACDBATTR
 70
     0
  0
ENDTAB
  0
TABLE
  2
DIMSTYLE
 70
     1
  0
DIMSTYLE
  2
STANDARD
 70
     0
  3

  4

  5

  6

  7

 40
1.0
 41
0.1875
 42
0.0625
 43
0.38
 44
0.125
 45
0.0
 46
0.0
 47
0.01
 48
0.01
140
0.15625
141
0.09
142
0.0
143
25.3999999999999986
144
1.0
145
0.0
146
1.0
147
0.09
 71
     1
 72
     0
 73
     1
 74
     1
 75
     0
 76
     0
 77
     0
 78
     4
170
     0
171
     2
172
     0
173
     0
174
     0
175
     0
176
     0
177
     0
178
     0
  0
ENDTAB
  0
ENDSEC
  0
SECTION
  2
BLOCKS
  0
BLOCK
  8
0
  2
$MODEL_SPACE
 70
     0
 10
0.0
 20
0.0
 30
0.0
  3
$MODEL_SPACE
  1

  0
ENDBLK
  5
21
  8
0
  0
BLOCK
 67
     1
  8
0
  2
$PAPER_SPACE
 70
     0
 10
0.0
 20
0.0
 30
0.0
  3
$PAPER_SPACE
  1

  0
ENDBLK
  5
1D
 67
     1
  8
0
  0
ENDSEC
  0
SECTION
  2
ENTITIES
  0
ATTDEF
  5
3930
  8
DEFPOINTS
 10
4973.4849877892211225
 20
257.117790013882086
 30
0.0
 40
0.001
  1
K-97680T-L
  3

  2
MODELNUMBER
 70
     0
1001
ACDBATTR
1070
     0
1070
     1
  0
ATTDEF
  5
3931
  8
DEFPOINTS
 10
4973.4849877892211225
 20
257.1161233472154208
 30
0.0
 40
0.001
  1
TRILGOY
  3

  2
TRADENAME
 70
     0
1001
ACDBATTR
1070
     0
1070
     1
  0
ATTDEF
  5
3932
  8
DEFPOINTS
 10
4973.4849877892211225
 20
257.1144566805488125
 30
0.0
 40
0.001
  1
SHOWER DOOR
  3

  2
PRODUCT
 70
     0
1001
ACDBATTR
1070
     0
1070
     1
  0
LINE
  5
CE65
  8
0
 10
4996.9142494058587545
 20
257.1199293582353107
 30
0.0
 11
4950.1927183010593581
 21
257.1199293582353107
 31
0.0
  0
LINE
  5
CE66
  8
0
 10
4976.0588600333603608
 20
257.1671734526352111
 30
0.0
 11
4950.1927183010593581
 21
257.1671734526352111
 31
0.0
  0
LINE
  5
CE67
  8
0
 10
4948.4092537341593925
 20
257.387645893635181
 30
0.0
 11
4950.1927183010593581
 21
257.387645893635181
 31
0.0
  0
LINE
  5
CE68
  8
0
 10
4950.1927183010593581
 20
257.4742600668351997
 30
0.0
 11
4976.0588600333603608
 21
257.4742600668351997
 31
0.0
  0
LINE
  5
CE69
  8
0
 10
4950.1415371986604441
 20
257.5136301455352168
 30
0.0
 11
4950.5756229822600289
 21
257.5136301455352168
 31
0.0
  0
LINE
  5
CE6A
  8
0
 10
4977.4411911045717716
 20
257.5529961045352252
 30
0.0
 11
4976.0667340490590504
 21
257.5530002243352214
 31
0.0
  0
LINE
  5
CE6B
  8
0
 10
4975.4761828679593236
 20
257.9073309329352242
 30
0.0
 11
4977.3580547326591841
 21
257.9073309329352242
 31
0.0
  0
LINE
  5
CE6C
  8
0
 10
4975.4761828679593236
 20
257.978197074735192
 30
0.0
 11
4948.4092537341593925
 21
257.978197074735192
 31
0.0
  0
LINE
  5
CE6D
  8
0
 10
4948.4092537341593925
 20
258.5175671535351967
 30
0.0
 11
4975.4761828679593236
 21
258.5175671535351967
 31
0.0
  0
LINE
  5
CE6E
  8
0
 10
4997.1809072774603919
 20
272.8679608542352071
 30
0.0
 11
4996.8659466474591682
 21
272.8679608542352071
 31
0.0
  0
LINE
  5
CE6F
  8
0
 10
4948.4092537341593925
 20
258.5175671535351967
 30
0.0
 11
4948.4092537341593925
 21
257.387645893635181
 31
0.0
  0
LINE
  5
CE70
  8
0
 10
4949.4722458600590471
 20
258.5175671535351967
 30
0.0
 11
4949.4722458600590471
 21
331.9230789644352058
 31
0.0
  0
LINE
  5
CE71
  8
0
 10
4949.612919479658558
 20
343.7341025865351867
 30
0.0
 11
4949.612919479658558
 21
332.238039594435179
 31
0.0
  0
LINE
  5
CE72
  8
0
 10
4950.1415371986604441
 20
257.5136301455352168
 30
0.0
 11
4950.1415371986604441
 21
257.978197074735192
 31
0.0
  0
LINE
  5
CE73
  8
0
 10
4950.1415371986604441
 20
258.5175671535351967
 30
0.0
 11
4950.1415371986604441
 21
267.572685263735309
 31
0.0
  0
LINE
  5
CE74
  8
0
 10
4950.1415371986604441
 20
270.32859077553519
 30
0.0
 11
4950.1415371986604441
 21
318.7144175471352128
 31
0.0
  0
LINE
  5
CE75
  8
0
 10
4950.1415371986604441
 20
321.4703230589352074
 30
0.0
 11
4950.1415371986604441
 21
331.9230789644352058
 31
0.0
  0
LINE
  5
CE76
  8
0
 10
4949.6217727057592128
 20
336.0570230490353083
 30
0.0
 11
4949.6219316197593798
 21
338.0255269795351865
 31
0.0
  0
LINE
  5
CE77
  8
0
 10
4950.1927183010593581
 20
257.4742045593353055
 30
0.0
 11
4950.1927183010593581
 21
257.1199293582353107
 31
0.0
  0
LINE
  5
CE78
  8
0
 10
4950.2911993516590883
 20
343.7341025865351867
 30
0.0
 11
4950.2911993516590883
 21
338.0254729507352067
 31
0.0
  0
LINE
  5
CE79
  8
0
 10
4950.2911993516590883
 20
336.0569690073352263
 30
0.0
 11
4950.2911993516590883
 21
332.238039594435179
 31
0.0
  0
LINE
  5
CE7A
  8
0
 10
4950.5738667068590075
 20
257.5136301455352168
 30
0.0
 11
4950.5738667068590075
 21
257.978197074735192
 31
0.0
  0
LINE
  5
CE7B
  8
0
 10
4950.5738667068590075
 20
258.5175671535351967
 30
0.0
 11
4950.5738667068590075
 21
267.5726852637351953
 31
0.0
  0
LINE
  5
CE7C
  8
0
 10
4950.5738667068590075
 20
270.32859077553519
 30
0.0
 11
4950.5738667068590075
 21
318.7144175471352128
 31
0.0
  0
LINE
  5
CE7D
  8
0
 10
4950.5738667068590075
 20
321.4703230589352074
 30
0.0
 11
4950.5738667068590075
 21
331.9230789644352058
 31
0.0
  0
LINE
  5
CE7E
  8
0
 10
4997.1809072774603919
 20
283.694732507735182
 30
0.0
 11
4997.358072631759569
 21
283.694732507735182
 31
0.0
  0
LINE
  5
CE7F
  8
0
 10
4975.4761828679593236
 20
257.9073309329352242
 30
0.0
 11
4975.4761828679593236
 21
331.9230789644352058
 31
0.0
  0
LINE
  5
CE80
  8
0
 10
4975.9683088522597245
 20
257.4742600668351997
 30
0.0
 11
4975.9683088522597245
 21
257.9073309329352242
 31
0.0
  0
LINE
  5
CE81
  8
0
 10
4976.0234269624588705
 20
257.9073309329352242
 30
0.0
 11
4976.0234269624588705
 21
331.9230789644352058
 31
0.0
  0
LINE
  5
CE82
  8
0
 10
4976.0391172042591279
 20
332.238039594435179
 30
0.0
 11
4976.0391172042591279
 21
336.0569372322352137
 31
0.0
  0
LINE
  5
CE83
  8
0
 10
4976.0391172042591279
 20
338.0254411692351937
 30
0.0
 11
4976.0391172042591279
 21
343.7341025865351867
 31
0.0
  0
LINE
  5
CE84
  8
0
 10
4976.0588600333603608
 20
257.5451256311351926
 30
0.0
 11
4976.0588600333603608
 21
257.1199293581352094
 31
0.0
  0
LINE
  5
CE85
  8
0
 10
4976.4155454327592452
 20
331.9230789644352058
 30
0.0
 11
4976.4155454327592452
 21
257.9073309329352242
 31
0.0
  0
LINE
  5
CE86
  8
0
 10
4976.513137973159246
 20
257.9073309329352242
 30
0.0
 11
4976.513137973159246
 21
331.9230789644352058
 31
0.0
  0
LINE
  5
CE87
  8
0
 10
4976.7173990121591487
 20
343.7341025865351867
 30
0.0
 11
4976.7173990121591487
 21
338.0254411692351937
 31
0.0
  0
LINE
  5
CE88
  8
0
 10
4976.7173990121591487
 20
336.0569372322352137
 30
0.0
 11
4976.7173990121591487
 21
332.238039594435179
 31
0.0
  0
LINE
  5
CE89
  8
0
 10
4976.7220517347595887
 20
257.9073309329352242
 30
0.0
 11
4976.7220517347595887
 21
331.9230789644352058
 31
0.0
  0
LINE
  5
CE8A
  8
0
 10
4976.8659466474600777
 20
257.5530002243352214
 30
0.0
 11
4976.8659466474600777
 21
257.9073309329352242
 31
0.0
  0
LINE
  5
CE8B
  8
0
 10
4976.8659466474600777
 20
331.9230789644352058
 30
0.0
 11
4976.8659466474600777
 21
336.0569372322352137
 31
0.0
  0
LINE
  5
CE8C
  8
0
 10
4976.8659466474600777
 20
338.0254411692351937
 30
0.0
 11
4976.8659466474600777
 21
343.7341025865351867
 31
0.0
  0
LINE
  5
CE8D
  8
0
 10
4977.3580726317586596
 20
257.9073309329352242
 30
0.0
 11
4977.3580726317586596
 21
331.9230789644352058
 31
0.0
  0
LINE
  5
CE8E
  8
0
 10
4977.4761827437596367
 20
257.5156566703352041
 30
0.0
 11
4977.4761828679602331
 21
257.1199293581352094
 31
0.0
  0
LINE
  5
CE8F
  8
0
 10
4979.0509860175588983
 20
343.7341025865351867
 30
0.0
 11
4979.0509860175588983
 21
342.2282439449351727
 31
0.0
  0
LINE
  5
CE90
  8
0
 10
4979.0509860175588983
 20
257.1199293581352094
 30
0.0
 11
4979.0509860175588983
 21
258.6257879998352109
 31
0.0
  0
LINE
  5
CE91
  8
0
 10
4981.019489954558594
 20
258.6257879998352109
 30
0.0
 11
4981.019489954558594
 21
257.1199293581352094
 31
0.0
  0
LINE
  5
CE92
  8
0
 10
4981.019489954558594
 20
342.2282439449351727
 30
0.0
 11
4981.019489954558594
 21
343.7341025865351867
 31
0.0
  0
LINE
  5
CE93
  8
0
 10
4996.2368806706590476
 20
257.1199293581352094
 30
0.0
 11
4996.2368806706590476
 21
285.269535657435199
 31
0.0
  0
LINE
  5
CE94
  8
0
 10
4996.2368806706590476
 20
287.238039594435179
 30
0.0
 11
4996.2368806706590476
 21
330.9388269959351874
 31
0.0
  0
LINE
  5
CE95
  8
0
 10
4996.2368806706590476
 20
332.9073309329352242
 30
0.0
 11
4996.2368806706590476
 21
343.7341025865351867
 31
0.0
  0
LINE
  5
CE96
  8
0
 10
4996.9142494058587545
 20
272.8679608542352071
 30
0.0
 11
4996.9142494058587545
 21
257.1199293581352094
 31
0.0
  0
LINE
  5
CE97
  8
0
 10
4997.1809072774603919
 20
272.8679608542352071
 30
0.0
 11
4997.1809072774603919
 21
285.269535657435199
 31
0.0
  0
LINE
  5
CE98
  8
0
 10
4997.1809072774603919
 20
287.238039594435179
 30
0.0
 11
4997.1809072774603919
 21
330.9388269959351874
 31
0.0
  0
LINE
  5
CE99
  8
0
 10
4997.1809072774603919
 20
332.9073309329352242
 30
0.0
 11
4997.1809072774603919
 21
343.7341025865351867
 31
0.0
  0
LINE
  5
CE9A
  8
0
 10
4997.358072631759569
 20
285.269535657435199
 30
0.0
 11
4997.358072631759569
 21
283.694732507735182
 31
0.0
  0
LINE
  5
CE9B
  8
0
 10
4997.4761828679593236
 20
330.9388269959351874
 30
0.0
 11
4997.4761828679593236
 21
332.9073309329352242
 31
0.0
  0
LINE
  5
CE9C
  8
0
 10
4995.3600880058602343
 20
330.9388269959351874
 30
0.0
 11
4997.4761828679593236
 21
330.9388269959351874
 31
0.0
  0
LINE
  5
CE9D
  8
0
 10
4977.3580726317586596
 20
331.9230789644352058
 30
0.0
 11
4949.4722458600590471
 21
331.9230789644352058
 31
0.0
  0
LINE
  5
CE9E
  8
0
 10
4949.612919479658558
 20
332.238039594435179
 30
0.0
 11
4976.7173990121591487
 21
332.238039594435179
 31
0.0
  0
LINE
  5
CE9F
  8
0
 10
4997.4761828679593236
 20
332.9073309329352242
 30
0.0
 11
4995.3600880058602343
 21
332.9073309329352242
 31
0.0
  0
LINE
  5
CEA0
  8
0
 10
4975.1238675334589061
 20
336.0569372322352137
 30
0.0
 11
4978.1355848166585929
 21
336.0569372322352137
 31
0.0
  0
LINE
  5
CEA1
  8
0
 10
4949.6217727057592128
 20
336.0570230490353083
 30
0.0
 11
4951.1276313424586988
 21
336.0569014835352277
 31
0.0
  0
LINE
  5
CEA2
  8
0
 10
4978.1355848166585929
 20
338.0254411692351937
 30
0.0
 11
4975.1238675334589061
 21
338.0254411692351937
 31
0.0
  0
LINE
  5
CEA3
  8
0
 10
4951.1277902564579563
 20
338.0254054141352071
 30
0.0
 11
4949.6219316197593798
 21
338.0255269795351865
 31
0.0
  0
LINE
  5
CEA4
  8
0
 10
4997.1809072774603919
 20
341.7655986495353204
 30
0.0
 11
4997.239962395558905
 21
341.7655986495353204
 31
0.0
  0
LINE
  5
CEA5
  8
0
 10
4976.8659466474600777
 20
343.7341025865351867
 30
0.0
 11
4997.2399623955407151
 21
343.7341025865351867
 31
0.0
  0
LINE
  5
CEA6
  8
0
 10
4976.7173990121591487
 20
343.7341025865351867
 30
0.0
 11
4949.612919479658558
 21
343.7341025865351867
 31
0.0
  0
ARC
  5
CEA7
  8
0
 10
4950.0942931061590571
 20
337.0412368749351799
 30
0.0
 40
1.4960629920999999
 50
322.6901736415059077
 51
37.3005755730066966
  0
ARC
  5
CEA8
  8
0
 10
4951.1277743650580305
 20
337.8285550210351857
 30
0.0
 40
0.1968503937
 50
37.3005755729103612
 51
89.9953746073220202
  0
ARC
  5
CEA9
  8
0
 10
4951.1276472338586245
 20
336.2537518766351923
 30
0.0
 40
0.1968503937
 50
269.9953746073219918
 51
322.6901736416947983
  0
ARC
  5
CEAA
  8
0
 10
4980.0352379860596557
 20
257.5923703030352954
 30
0.0
 40
1.4960629920999999
 50
52.6947990341937
 51
127.3052009658852057
  0
CIRCLE
  5
CEAB
  8
0
 10
4980.0352379860596557
 20
258.1829214841353064
 30
0.0
 40
0.4192913386
  0
ARC
  5
CEAC
  8
0
 10
4979.2478364112603231
 20
258.6257879998352109
 30
0.0
 40
0.1968503937
 50
127.3052009662019941
 51
179.9999999975003107
  0
ARC
  5
CEAD
  8
0
 10
4980.8226395608589883
 20
258.6257879998352109
 30
0.0
 40
0.1968503937
 50
0.0000000001009635
 51
52.6947990341937
  0
ARC
  5
CEAE
  8
0
 10
4976.0667340490590504
 20
257.54512620853518
 30
0.0
 40
0.0078740157
 50
90.0
 51
180.0
  0
ARC
  5
CEAF
  8
0
 10
4993.1979676448590908
 20
342.7498506180352251
 30
0.0
 40
4.1601049869000004
 50
346.3145146572052226
 51
13.6855468252015307
  0
ARC
  5
CEB0
  8
0
 10
4980.0352379860596557
 20
343.2616616416352144
 30
0.0
 40
1.4960629920999999
 50
232.6947990341928119
 51
307.3052009658063071
  0
ARC
  5
CEB1
  8
0
 10
4996.3935057026592403
 20
331.9230789644352058
 30
0.0
 40
1.4960629920999999
 50
142.6947990341913055
 51
217.3052009658086945
  0
ARC
  5
CEB2
  8
0
 10
4976.1572852301596868
 20
337.0411892007351753
 30
0.0
 40
1.4960629920999999
 50
142.6947990341913055
 51
217.3052009658086945
  0
ARC
  5
CEB3
  8
0
 10
4977.1021671199596312
 20
337.0411892007351753
 30
0.0
 40
1.4960629920999999
 50
322.6947990341913055
 51
37.3052009658087087
  0
ARC
  5
CEB4
  8
0
 10
4980.8226395608589883
 20
342.2282439449351727
 30
0.0
 40
0.1968503937
 50
307.305200965686879
 51
0.0
  0
ARC
  5
CEB5
  8
0
 10
4979.2478364112603231
 20
342.2282439449351727
 30
0.0
 40
0.1968503937
 50
180.0
 51
232.6947990343911101
  0
ARC
  5
CEB6
  8
0
 10
4995.3600880058602343
 20
332.7104805392352205
 30
0.0
 40
0.1968503937
 50
90.0
 51
142.6947990344129948
  0
ARC
  5
CEB7
  8
0
 10
4995.3600880058602343
 20
331.1356773896353047
 30
0.0
 40
0.1968503937
 50
217.3052009657122881
 51
270.0
  0
ARC
  5
CEB8
  8
0
 10
4978.1355848166585929
 20
337.82859077553519
 30
0.0
 40
0.1968503937
 50
37.3052009658087087
 51
90.0
  0
ARC
  5
CEB9
  8
0
 10
4975.1238675334589061
 20
337.82859077553519
 30
0.0
 40
0.1968503937
 50
90.0
 51
142.6947990341913055
  0
ARC
  5
CEBA
  8
0
 10
4975.1238675334589061
 20
336.2537876259352174
 30
0.0
 40
0.1968503937
 50
217.3052009655870052
 51
270.0
  0
ARC
  5
CEBB
  8
0
 10
4978.1355848166585929
 20
336.2537876259352174
 30
0.0
 40
0.1968503937
 50
270.0
 51
322.6947990344129948
  0
LINE
  5
CEBC
  8
0
 10
4949.6612222381590982
 20
267.5687482558352031
 30
0.0
 11
4949.9446868050590638
 21
267.5687482558352031
 31
0.0
  0
LINE
  5
CEBD
  8
0
 10
4949.6612222381590982
 20
267.572685263735309
 30
0.0
 11
4952.070671056959327
 21
267.572685263735309
 31
0.0
  0
LINE
  5
CEBE
  8
0
 10
4950.2596474350602875
 20
268.2380395944352927
 30
0.0
 11
4949.6612222381590982
 21
268.2380395944352927
 31
0.0
  0
LINE
  5
CEBF
  8
0
 10
4949.6612222381590982
 20
268.277409673135196
 30
0.0
 11
4950.2202773562594302
 21
268.277409673135196
 31
0.0
  0
LINE
  5
CEC0
  8
0
 10
4949.6612222381590982
 20
269.6199293581352094
 30
0.0
 11
4950.2202773562594302
 21
269.6199293581352094
 31
0.0
  0
LINE
  5
CEC1
  8
0
 10
4949.6612222381590982
 20
269.6632364448352064
 30
0.0
 11
4950.2596474350602875
 21
269.6632364448352064
 31
0.0
  0
LINE
  5
CEC2
  8
0
 10
4949.6690962538596068
 20
270.3246537676353114
 30
0.0
 11
4949.6612222381590982
 21
270.3246537676353114
 31
0.0
  0
LINE
  5
CEC3
  8
0
 10
4952.070671056959327
 20
270.32859077553519
 30
0.0
 11
4949.6690962538596068
 21
270.32859077553519
 31
0.0
  0
LINE
  5
CEC4
  8
0
 10
4949.6612222381590982
 20
267.5687482558352031
 30
0.0
 11
4949.6612222381590982
 21
270.3246537676353114
 31
0.0
  0
LINE
  5
CEC5
  8
0
 10
4949.6690962538596068
 20
270.32859077553519
 30
0.0
 11
4949.6690962538596068
 21
269.6632364448352064
 31
0.0
  0
LINE
  5
CEC6
  8
0
 10
4949.9446868050590638
 20
267.5687482558352031
 30
0.0
 11
4949.9446868050590638
 21
267.572685263735309
 31
0.0
  0
LINE
  5
CEC7
  8
0
 10
4950.2202773562594302
 20
269.6632364448352064
 30
0.0
 11
4950.2202773562594302
 21
268.2380395944352927
 31
0.0
  0
LINE
  5
CEC8
  8
0
 10
4950.2596474349593336
 20
268.2380395938351967
 30
0.0
 11
4950.2596474349593336
 21
269.6632364453352011
 31
0.0
  0
LINE
  5
CEC9
  8
0
 10
4952.070671056959327
 20
270.32859077553519
 30
0.0
 11
4952.070671056959327
 21
267.572685263735309
 31
0.0
  0
LINE
  5
CECA
  8
0
 10
4949.6612222381590982
 20
318.7104805392352205
 30
0.0
 11
4949.9446868050590638
 21
318.7104805392352205
 31
0.0
  0
LINE
  5
CECB
  8
0
 10
4949.6612222381590982
 20
318.7144175471352128
 30
0.0
 11
4952.070671056959327
 21
318.7144175471352128
 31
0.0
  0
LINE
  5
CECC
  8
0
 10
4950.2596474350602875
 20
319.3797718778351964
 30
0.0
 11
4949.6612222381590982
 21
319.3797718778351964
 31
0.0
  0
LINE
  5
CECD
  8
0
 10
4949.6612222381590982
 20
319.4191419565352135
 30
0.0
 11
4950.2202773562594302
 21
319.4191419565352135
 31
0.0
  0
LINE
  5
CECE
  8
0
 10
4949.6612222381590982
 20
320.7616616415352269
 30
0.0
 11
4950.2202773562594302
 21
320.7616616415352269
 31
0.0
  0
LINE
  5
CECF
  8
0
 10
4949.6612222381590982
 20
320.8049687282352238
 30
0.0
 11
4950.2596474350602875
 21
320.8049687282352238
 31
0.0
  0
LINE
  5
CED0
  8
0
 10
4949.6690962538596068
 20
321.4663860510352151
 30
0.0
 11
4949.6612222381590982
 21
321.4663860510352151
 31
0.0
  0
LINE
  5
CED1
  8
0
 10
4952.070671056959327
 20
321.4703230589352074
 30
0.0
 11
4949.6690962538596068
 21
321.4703230589352074
 31
0.0
  0
LINE
  5
CED2
  8
0
 10
4949.6612222381590982
 20
318.7104805392352205
 30
0.0
 11
4949.6612222381590982
 21
321.4663860510352151
 31
0.0
  0
LINE
  5
CED3
  8
0
 10
4949.6690962538596068
 20
321.4703230589352074
 30
0.0
 11
4949.6690962538596068
 21
320.8049687282352238
 31
0.0
  0
LINE
  5
CED4
  8
0
 10
4949.9446868050590638
 20
318.7104805392352205
 30
0.0
 11
4949.9446868050590638
 21
318.7144175471352128
 31
0.0
  0
LINE
  5
CED5
  8
0
 10
4950.2202773562594302
 20
320.8049687282352238
 30
0.0
 11
4950.2202773562594302
 21
319.3797718778351964
 31
0.0
  0
LINE
  5
CED6
  8
0
 10
4950.2596474349593336
 20
319.3797718772352141
 30
0.0
 11
4950.2596474349593336
 21
320.8049687287352185
 31
0.0
  0
LINE
  5
CED7
  8
0
 10
4952.070671056959327
 20
321.4703230589352074
 30
0.0
 11
4952.070671056959327
 21
318.7144175471352128
 31
0.0
  0
ARC
  5
CED8
  8
0
 10
4977.438943256363018
 20
257.5158260433946111
 30
0.0
 40
0.0372379680805649
 50
359.7377109428597919
 51
86.5392697993178643
  0
LINE
  5
CED9
  8
0
 10
4996.8659466474591682
 20
272.8679608542352071
 30
0.0
 11
4996.8659466474591682
 21
285.269535657435199
 31
0.0
  0
LINE
  5
CEDA
  8
0
 10
4997.4761828679593236
 20
285.269535657435199
 30
0.0
 11
4997.4761828679593236
 21
287.238039594435179
 31
0.0
  0
LINE
  5
CEDB
  8
0
 10
4995.3600880058602343
 20
285.269535657435199
 30
0.0
 11
4997.4761828679593236
 21
285.269535657435199
 31
0.0
  0
LINE
  5
CEDC
  8
0
 10
4997.4761828679593236
 20
287.238039594435179
 30
0.0
 11
4995.3600880058602343
 21
287.238039594435179
 31
0.0
  0
ARC
  5
CEDD
  8
0
 10
4996.3935057026592403
 20
286.2537876259352174
 30
0.0
 40
1.4960629920999999
 50
142.6947990341913055
 51
217.3052009658086945
  0
ARC
  5
CEDE
  8
0
 10
4995.3600880058602343
 20
287.0411892007351753
 30
0.0
 40
0.1968503937
 50
90.0
 51
142.6947990344129948
  0
ARC
  5
CEDF
  8
0
 10
4995.3600880058602343
 20
285.4663860511352027
 30
0.0
 40
0.1968503937
 50
217.3052009657122881
 51
270.0
  0
ARC
  5
CEE0
  8
0
 10
5003.1563851282053292
 20
284.6965317149932844
 30
0.0
 40
5.9165718809380188
 50
174.4423480213147002
 51
189.7483364320742112
  0
LINE
  5
CEE1
  8
0
 10
4971.5785450727089483
 20
294.482134082635298
 30
0.0
 11
4954.5706710569093048
 21
294.482134082635298
 31
0.0
  0
LINE
  5
CEE2
  8
0
 10
4971.5785450727089483
 20
295.4663860511352027
 30
0.0
 11
4954.5706710569093048
 21
295.4663860511352027
 31
0.0
  0
ARC
  5
CEE3
  8
0
 10
4971.5785450727089483
 20
294.9742600668351997
 30
0.0
 40
0.4921259843
 50
270.0
 51
90.0
  0
ARC
  5
CEE4
  8
0
 10
4954.5706710569093048
 20
294.9742600668351997
 30
0.0
 40
0.4921259843
 50
90.0
 51
270.0
  0
CIRCLE
  5
CEE5
  8
0
 10
4971.5785450727089483
 20
301.9821340826351843
 30
0.0
 40
0.2559055118
  0
ENDSEC
  0
EOF
