  0
SECTION
  2
HEADER
  9
$ACADVER
  1
AC1009
  9
$INSBASE
 10
5196.2890687167146098
 20
308.5287896451495158
 30
0.0
  9
$EXTMIN
 10
5171.7332824421146142
 20
306.7735567050494865
 30
0.0
  9
$EXTMAX
 10
5220.844854991367356
 20
322.0064119276495944
 30
0.0
  9
$LIMMIN
 10
0.0
 20
0.0
  9
$LIMMAX
 10
11.6929133858000007
 20
8.2677165353999982
  9
$ORTHOMODE
 70
     1
  9
$REGENMODE
 70
     1
  9
$FILLMODE
 70
     1
  9
$QTEXTMODE
 70
     0
  9
$MIRRTEXT
 70
     0
  9
$DRAGMODE
 70
     2
  9
$LTSCALE
 40
0.6431102362
  9
$OSMODE
 70
  4095
  9
$ATTMODE
 70
     1
  9
$TEXTSIZE
 40
0.2
  9
$TRACEWID
 40
0.05
  9
$TEXTSTYLE
  7
STANDARD
  9
$CLAYER
  8
0
  9
$CELTYPE
  6
BYLAYER
  9
$CECOLOR
 62
   256
  9
$DIMSCALE
 40
1.0
  9
$DIMASZ
 40
0.1875
  9
$DIMEXO
 40
0.0625
  9
$DIMDLI
 40
0.4443307087
  9
$DIMRND
 40
0.0
  9
$DIMDLE
 40
0.0
  9
$DIMEXE
 40
0.125
  9
$DIMTP
 40
0.01
  9
$DIMTM
 40
0.01
  9
$DIMTXT
 40
2.0
  9
$DIMCEN
 40
0.1052362205
  9
$DIMTSZ
 40
0.0
  9
$DIMTOL
 70
     1
  9
$DIMLIM
 70
     0
  9
$DIMTIH
 70
     1
  9
$DIMTOH
 70
     1
  9
$DIMSE1
 70
     0
  9
$DIMSE2
 70
     0
  9
$DIMTAD
 70
     0
  9
$DIMZIN
 70
     0
  9
$DIMBLK
  1

  9
$DIMASO
 70
     1
  9
$DIMSHO
 70
     1
  9
$DIMPOST
  1
\X
  9
$DIMAPOST
  1

  9
$DIMALT
 70
     1
  9
$DIMALTD
 70
     2
  9
$DIMALTF
 40
25.3999999999999986
  9
$DIMLFAC
 40
1.0
  9
$DIMTOFL
 70
     0
  9
$DIMTVP
 40
0.0
  9
$DIMTIX
 70
     0
  9
$DIMSOXD
 70
     0
  9
$DIMSAH
 70
     0
  9
$DIMBLK1
  1

  9
$DIMBLK2
  1

  9
$DIMSTYLE
  2
STANDARD
  9
$DIMCLRD
 70
     0
  9
$DIMCLRE
 70
     0
  9
$DIMCLRT
 70
     0
  9
$DIMTFAC
 40
1.0
  9
$DIMGAP
 40
0.09
  9
$LUNITS
 70
     2
  9
$LUPREC
 70
     4
  9
$SKETCHINC
 40
0.1
  9
$FILLETRAD
 40
0.0
  9
$AUNITS
 70
     0
  9
$AUPREC
 70
     0
  9
$MENU
  1
.
  9
$ELEVATION
 40
0.0
  9
$PELEVATION
 40
0.0
  9
$THICKNESS
 40
0.0
  9
$LIMCHECK
 70
     0
  9
$BLIPMODE
 70
     0
  9
$CHAMFERA
 40
0.0
  9
$CHAMFERB
 40
0.0
  9
$SKPOLY
 70
     0
  9
$TDCREATE
 40
2458060.468368056230247
  9
$TDUPDATE
 40
2459152.9013541671447456
  9
$TDINDWG
 40
0.3474144676
  9
$TDUSRTIMER
 40
0.3474144676
  9
$USRTIMER
 70
     1
  9
$ANGBASE
 50
0.0
  9
$ANGDIR
 70
     0
  9
$PDMODE
 70
     0
  9
$PDSIZE
 40
0.3125
  9
$PLINEWID
 40
0.0
  9
$COORDS
 70
     1
  9
$SPLFRAME
 70
     0
  9
$SPLINETYPE
 70
     6
  9
$SPLINESEGS
 70
     8
  9
$ATTDIA
 70
     1
  9
$ATTREQ
 70
     1
  9
$HANDLING
 70
     1
  9
$HANDSEED
  5
D56B
  9
$SURFTAB1
 70
     6
  9
$SURFTAB2
 70
     6
  9
$SURFTYPE
 70
     6
  9
$SURFU
 70
     6
  9
$SURFV
 70
     6
  9
$UCSNAME
  2

  9
$UCSORG
 10
0.0
 20
0.0
 30
0.0
  9
$UCSXDIR
 10
1.0
 20
0.0
 30
0.0
  9
$UCSYDIR
 10
0.0
 20
1.0
 30
0.0
  9
$PUCSNAME
  2

  9
$PUCSORG
 10
0.0
 20
0.0
 30
0.0
  9
$PUCSXDIR
 10
1.0
 20
0.0
 30
0.0
  9
$PUCSYDIR
 10
0.0
 20
1.0
 30
0.0
  9
$USERI1
 70
     0
  9
$USERI2
 70
     0
  9
$USERI3
 70
     0
  9
$USERI4
 70
     0
  9
$USERI5
 70
     0
  9
$USERR1
 40
0.0
  9
$USERR2
 40
0.0
  9
$USERR3
 40
0.0
  9
$USERR4
 40
0.0
  9
$USERR5
 40
0.0
  9
$WORLDVIEW
 70
     1
  9
$SHADEDGE
 70
     3
  9
$SHADEDIF
 70
    70
  9
$TILEMODE
 70
     1
  9
$MAXACTVP
 70
    64
  9
$PLIMCHECK
 70
     0
  9
$PEXTMIN
 10
1.0000000000000000E+20
 20
1.0000000000000000E+20
 30
1.0000000000000000E+20
  9
$PEXTMAX
 10
-1.0000000000000000E+20
 20
-1.0000000000000000E+20
 30
-1.0000000000000000E+20
  9
$PLIMMIN
 10
0.0
 20
0.0
  9
$PLIMMAX
 10
12.0
 20
9.0
  9
$UNITMODE
 70
     0
  9
$VISRETAIN
 70
     1
  9
$PLINEGEN
 70
     0
  9
$PSLTSCALE
 70
     1
  0
ENDSEC
  0
SECTION
  2
TABLES
  0
TABLE
  2
VPORT
 70
     1
  0
VPORT
  2
*ACTIVE
 70
     0
 10
0.0
 20
0.0
 11
1.0
 21
1.0
 12
0.0
 22
0.0
 13
0.0
 23
0.0
 14
1.0
 24
1.0
 15
0.0
 25
0.0
 16
0.0
 26
0.0
 36
145.6958773434093075
 17
5196.2890625
 27
314.389984130859375
 37
0.0
 40
51.4405103889442472
 41
2.1186252771618621
 42
50.0
 43
0.0
 44
0.0
 50
0.0
 51
0.0
 71
     0
 72
   100
 73
     1
 74
     1
 75
     0
 76
     0
 77
     0
 78
     0
  0
ENDTAB
  0
TABLE
  2
LTYPE
 70
     2
  0
LTYPE
  2
CONTINUOUS
 70
     0
  3
Solid line
 72
    65
 73
     0
 40
0.0
  0
LTYPE
  2
PHANTOM2
 70
     0
  3
___ _ _ ___ _ _ ___ _ _ ___ _ _
 72
    65
 73
     6
 40
1.25
 49
0.625
 49
-0.125
 49
0.125
 49
-0.125
 49
0.125
 49
-0.125
  0
ENDTAB
  0
TABLE
  2
LAYER
 70
     2
  0
LAYER
  2
0
 70
     0
 62
   255
  6
CONTINUOUS
  0
LAYER
  2
DEFPOINTS
 70
     0
 62
     7
  6
CONTINUOUS
  0
ENDTAB
  0
TABLE
  2
STYLE
 70
     1
  0
STYLE
  2
STANDARD
 70
     0
 40
0.0
 41
0.8
 50
0.0
 71
     0
 42
0.2
  3
txt
  4

  0
ENDTAB
  0
TABLE
  2
VIEW
 70
     0
  0
ENDTAB
  0
TABLE
  2
UCS
 70
     0
  0
ENDTAB
  0
TABLE
  2
APPID
 70
     9
  0
APPID
  2
ACAD
 70
     0
  0
APPID
  2
ACAD_MLEADERVER
 70
     0
  0
APPID
  2
ACAD_EXEMPT_FROM_CAD_STANDARDS
 70
     0
  0
APPID
  2
ACAD_NAV_VCDISPLAY
 70
     0
  0
APPID
  2
ACAECLAYERSTANDARD
 70
     0
  0
APPID
  2
ACCMTRANSPARENCY
 70
     0
  0
APPID
  2
ACAD_DSTYLE_DIMJAG
 70
     0
  0
APPID
  2
ACAD_DSTYLE_DIMTALN
 70
     0
  0
APPID
  2
ACDBATTR
 70
     0
  0
ENDTAB
  0
TABLE
  2
DIMSTYLE
 70
     1
  0
DIMSTYLE
  2
STANDARD
 70
     0
  3

  4

  5

  6

  7

 40
1.0
 41
0.1875
 42
0.0625
 43
0.38
 44
0.125
 45
0.0
 46
0.0
 47
0.01
 48
0.01
140
0.15625
141
0.09
142
0.0
143
25.3999999999999986
144
1.0
145
0.0
146
1.0
147
0.09
 71
     1
 72
     0
 73
     1
 74
     1
 75
     0
 76
     0
 77
     0
 78
     4
170
     0
171
     2
172
     0
173
     0
174
     0
175
     0
176
     0
177
     0
178
     0
  0
ENDTAB
  0
ENDSEC
  0
SECTION
  2
BLOCKS
  0
BLOCK
  8
0
  2
$MODEL_SPACE
 70
     0
 10
0.0
 20
0.0
 30
0.0
  3
$MODEL_SPACE
  1

  0
ENDBLK
  5
21
  8
0
  0
BLOCK
 67
     1
  8
0
  2
$PAPER_SPACE
 70
     0
 10
0.0
 20
0.0
 30
0.0
  3
$PAPER_SPACE
  1

  0
ENDBLK
  5
1D
 67
     1
  8
0
  0
ENDSEC
  0
SECTION
  2
ENTITIES
  0
ATTDEF
  5
3930
  8
DEFPOINTS
 10
5196.2858672293868949
 20
308.5327797850824254
 30
0.0
 40
0.001
  1
K-97681T-L
  3

  2
MODELNUMBER
 70
     0
1001
ACDBATTR
1070
     0
1070
     1
  0
ATTDEF
  5
3931
  8
DEFPOINTS
 10
5196.2858672293868949
 20
308.5311131184158171
 30
0.0
 40
0.001
  1
TRILGOY
  3

  2
TRADENAME
 70
     0
1001
ACDBATTR
1070
     0
1070
     1
  0
ATTDEF
  5
3932
  8
DEFPOINTS
 10
5196.2858672293868949
 20
308.5294464517490951
 30
0.0
 40
0.001
  1
SHOWER DOOR
  3

  2
PRODUCT
 70
     0
1001
ACDBATTR
1070
     0
1070
     1
  0
LINE
  5
D315
  8
0
 10
5172.1481939633149523
 20
319.7957295710494918
 30
0.0
 11
5172.1481939633149523
 21
319.7507745764494871
 31
0.0
  0
LINE
  5
D316
  8
0
 10
5172.1358703736150346
 20
319.7618707864494922
 30
0.0
 11
5172.1481939633149523
 21
319.7957295710494918
 31
0.0
  0
LINE
  5
D317
  8
0
 10
5173.5845659441138196
 20
321.9833056824494975
 30
0.0
 11
5172.1926234614147688
 21
320.5913631997494804
 31
0.0
  0
LINE
  5
D318
  8
0
 10
5171.7750407166149671
 20
320.1737804549495081
 30
0.0
 11
5171.7332824421146142
 21
320.1320221804494963
 31
0.0
  0
LINE
  5
D319
  8
0
 10
5172.3874954090151732
 20
320.5913631997494804
 30
0.0
 11
5173.6820019178139773
 21
321.8858697086495226
 31
0.0
  0
LINE
  5
D31A
  8
0
 10
5171.8863374774728072
 20
320.0623271708828952
 30
0.0
 11
5171.9142349649146126
 21
320.0902639060494721
 31
0.0
  0
LINE
  5
D31B
  8
0
 10
5172.2761400104136555
 20
320.4521689515494813
 30
0.0
 11
5172.303978860013558
 21
320.4800078011494975
 31
0.0
  0
LINE
  5
D31C
  8
0
 10
5172.7591440518890522
 20
320.9351729929741737
 30
0.0
 11
5173.3521115494886544
 21
321.5281404905742875
 31
0.0
  0
LINE
  5
D31D
  8
0
 10
5171.9496768810149661
 20
319.9029950249495187
 30
0.0
 11
5172.2685369439141141
 21
320.2218550877494749
 31
0.0
  0
LINE
  5
D31E
  8
0
 10
5172.2665153763136914
 20
320.1641558208494871
 30
0.0
 11
5172.0076003456151739
 21
319.9052407901494917
 31
0.0
  0
LINE
  5
D31F
  8
0
 10
5172.5684479317151272
 20
320.1598610301495
 30
0.0
 11
5172.5266896572147743
 21
320.1181027556494882
 31
0.0
  0
LINE
  5
D320
  8
0
 10
5172.7452246270149772
 20
320.2336339817495059
 30
0.0
 11
5172.7591440519154276
 21
320.247553406549514
 31
0.0
  0
LINE
  5
D321
  8
0
 10
5172.5684479317151272
 20
319.8257948343494945
 30
0.0
 11
5172.6380450559154269
 21
319.8953919584495225
 31
0.0
  0
LINE
  5
D322
  8
0
 10
5172.7354810296146752
 20
319.7979559846494908
 30
0.0
 11
5172.7911587290136595
 21
319.8536336839495107
 31
0.0
  0
LINE
  5
D323
  8
0
 10
5172.9025141276151771
 20
319.630922886749488
 30
0.0
 11
5172.9581918269150265
 21
319.6866005860495079
 31
0.0
  0
LINE
  5
D324
  8
0
 10
5172.9999501014153793
 20
319.5334869129495132
 30
0.0
 11
5172.9303529772150796
 21
319.4638897888494853
 31
0.0
  0
LINE
  5
D325
  8
0
 10
5173.3381921246145794
 20
319.6406664841495058
 30
0.0
 11
5173.3521115495150298
 21
319.6545859089495139
 31
0.0
  0
LINE
  5
D326
  8
0
 10
5173.4871299703154364
 20
319.1576624426494959
 30
0.0
 11
5173.5567270944147822
 21
319.2272595667495239
 31
0.0
  0
LINE
  5
D327
  8
0
 10
5173.6820019178139773
 20
319.2968566909494825
 30
0.0
 11
5173.5845659441138196
 21
319.1994207171495077
 31
0.0
  0
LINE
  5
D328
  8
0
 10
5173.1669831993149273
 20
318.7818379723494786
 30
0.0
 11
5173.125224924813665
 21
318.7400796978495237
 31
0.0
  0
LINE
  5
D329
  8
0
 10
5181.2564226463136947
 20
309.6474413434494863
 30
0.0
 11
5181.2564226463136947
 21
309.1342258176495079
 31
0.0
  0
LINE
  5
D32A
  8
0
 10
5182.5198860634818629
 20
308.5770663086830154
 30
0.0
 11
5182.5335690387146315
 21
308.5633833335494955
 31
0.0
  0
LINE
  5
D32B
  8
0
 10
5172.5203268573150126
 20
319.912754911649472
 30
0.0
 11
5172.4207573924159078
 21
320.0233380054494887
 31
0.0
  0
LINE
  5
D32C
  8
0
 10
5172.4096611823151761
 20
320.0356615952495076
 30
0.0
 11
5172.2948394386148721
 21
320.1631840607494723
 31
0.0
  0
LINE
  5
D32D
  8
0
 10
5172.2824563687154296
 20
320.2357745126495274
 30
0.0
 11
5172.560174822715453
 21
319.927336921949518
 31
0.0
  0
LINE
  5
D32E
  8
0
 10
5183.3405099138153673
 20
309.1980676037495073
 30
0.0
 11
5183.3252822315143931
 21
309.2307234738494799
 31
0.0
  0
LINE
  5
D32F
  8
0
 10
5183.5420621409148225
 20
309.1954502365495046
 30
0.0
 11
5183.5421880465146387
 21
309.1882371120494781
 31
0.0
  0
LINE
  5
D330
  8
0
 10
5182.9887061109147908
 20
309.5115010378494844
 30
0.0
 11
5182.9887061109147908
 21
309.2481149777494807
 31
0.0
  0
LINE
  5
D331
  8
0
 10
5183.0280761896137847
 20
309.5115010378494844
 30
0.0
 11
5183.0280761896137847
 21
309.2341866263495263
 31
0.0
  0
LINE
  5
D332
  8
0
 10
5183.0280761896137847
 20
309.2477999598496012
 30
0.0
 11
5183.0280761896137847
 21
309.5115010378494844
 31
0.0
  0
LINE
  5
D333
  8
0
 10
5183.1090613266151195
 20
309.1661988285495113
 30
0.0
 11
5183.1090613266151195
 21
309.6171350539494824
 31
0.0
  0
LINE
  5
D334
  8
0
 10
5183.1484314053150229
 20
309.5745889835495177
 30
0.0
 11
5183.1484314053150229
 21
309.208744898949476
 31
0.0
  0
LINE
  5
D335
  8
0
 10
5183.3036667408150606
 20
309.6689813528495279
 30
0.0
 11
5183.3036667408150606
 21
309.7459976499495156
 31
0.0
  0
LINE
  5
D336
  8
0
 10
5183.331505590515917
 20
309.7459976499495156
 30
0.0
 11
5183.331505590515917
 21
309.7738364996495193
 31
0.0
  0
LINE
  5
D337
  8
0
 10
5183.6311548531148219
 20
308.5366636608495128
 30
0.0
 11
5183.6311548531148219
 21
308.707614611322299
 31
0.0
  0
LINE
  5
D338
  8
0
 10
5183.9423564353146503
 20
309.1571703292494817
 30
0.0
 11
5183.9423564353146503
 21
309.2341866263495263
 31
0.0
  0
LINE
  5
D339
  8
0
 10
5184.4442780691151711
 20
309.6689813528495279
 30
0.0
 11
5184.4442780691151711
 21
309.5491472562495119
 31
0.0
  0
LINE
  5
D33A
  8
0
 10
5183.5421899824150387
 20
309.5952076813495069
 30
0.0
 11
5183.5420621409148225
 21
309.5878836459494892
 31
0.0
  0
LINE
  5
D33B
  8
0
 10
5172.3758023978161873
 20
320.0233380054494887
 30
0.0
 11
5172.4096611823151761
 21
320.0356615952495076
 31
0.0
  0
LINE
  5
D33C
  8
0
 10
5172.2440120663150083
 20
319.6115219024495104
 30
0.0
 11
5171.9357574562136506
 21
319.8890756001495106
 31
0.0
  0
LINE
  5
D33D
  8
0
 10
5172.0081122841147589
 20
319.8769046869495014
 30
0.0
 11
5172.1358703736150346
 21
319.7618707864494922
 31
0.0
  0
LINE
  5
D33E
  8
0
 10
5172.1481939633149523
 20
319.7507745764494871
 30
0.0
 11
5172.2594098048148226
 21
319.6506353829494742
 31
0.0
  0
LINE
  5
D33F
  8
0
 10
5180.8365862787150036
 20
310.8616852460494897
 30
0.0
 11
5179.3332883974153447
 21
312.3649831273496034
 31
0.0
  0
LINE
  5
D340
  8
0
 10
5182.7669354708150422
 20
309.0910196955495053
 30
0.0
 11
5182.7631381404153217
 21
309.09481702594951
 31
0.0
  0
LINE
  5
D341
  8
0
 10
5179.4168049464151409
 20
312.4484996762495257
 30
0.0
 11
5180.8087474290150567
 21
311.0565571936494962
 31
0.0
  0
LINE
  5
D342
  8
0
 10
5182.773444556614777
 20
309.1196989156495079
 30
0.0
 11
5181.2680884483152113
 21
310.6250550239495283
 31
0.0
  0
LINE
  5
D343
  8
0
 10
5182.4929978330146696
 20
309.4558233385495214
 30
0.0
 11
5182.5625949572140598
 21
309.3862262144494935
 31
0.0
  0
LINE
  5
D344
  8
0
 10
5182.4929978330146696
 20
309.4558233385495214
 30
0.0
 11
5180.544278357314397
 21
311.4045428142495098
 31
0.0
  0
LINE
  5
D345
  8
0
 10
5180.544278357314397
 20
311.4045428142495098
 30
0.0
 11
5172.0255903635152208
 21
319.9232308080495955
 31
0.0
  0
LINE
  5
D346
  8
0
 10
5171.9977515138143644
 20
319.9510696577494855
 30
0.0
 11
5171.8836535871669184
 21
320.0650072906486798
 31
0.0
  0
LINE
  5
D347
  8
0
 10
5171.8648981767528312
 20
320.083922994910381
 30
0.0
 11
5171.7750407166149671
 21
320.1737804549495081
 31
0.0
  0
LINE
  5
D348
  8
0
 10
5182.5765143820153753
 20
309.4001456392495015
 30
0.0
 11
5182.50691725791512
 21
309.4697427633494726
 31
0.0
  0
LINE
  5
D349
  8
0
 10
5172.0255903635152208
 20
319.9789085074494892
 30
0.0
 11
5171.9142349649146126
 21
320.0902639060494721
 31
0.0
  0
LINE
  5
D34A
  8
0
 10
5182.534756107514113
 20
309.4975816130494763
 30
0.0
 11
5182.6043532316143683
 21
309.4279844889495052
 31
0.0
  0
LINE
  5
D34B
  8
0
 10
5182.6182726565148187
 20
309.4419039137495133
 30
0.0
 11
5182.5486755323154284
 21
309.5115010378494844
 31
0.0
  0
LINE
  5
D34C
  8
0
 10
5182.5765143820153753
 20
309.5393398875494881
 30
0.0
 11
5182.6461115061147211
 21
309.4697427633494726
 31
0.0
  0
LINE
  5
D34D
  8
0
 10
5182.6600309309142176
 20
309.4836621882495251
 30
0.0
 11
5182.5904338068148718
 21
309.5532593123494962
 31
0.0
  0
LINE
  5
D34E
  8
0
 10
5182.6182726565148187
 20
309.5810981620494999
 30
0.0
 11
5182.687869780615074
 21
309.5115010378494844
 31
0.0
  0
LINE
  5
D34F
  8
0
 10
5182.7157086303150209
 20
309.6785341357494872
 30
0.0
 11
5180.6138754814146523
 21
311.7803672845495271
 31
0.0
  0
LINE
  5
D350
  8
0
 10
5180.1406150359880485
 20
312.2536277272420193
 30
0.0
 11
5172.2483011607137087
 21
320.145941605349492
 31
0.0
  0
LINE
  5
D351
  8
0
 10
5182.6934375506152719
 20
309.73977960494949
 30
0.0
 11
5182.540323877415176
 21
309.8928932781494723
 31
0.0
  0
LINE
  5
D352
  8
0
 10
5182.9384194275144182
 20
309.5115010378494844
 30
0.0
 11
5182.926251582551231
 21
309.523638405285908
 31
0.0
  0
LINE
  5
D353
  8
0
 10
5182.9121795090213709
 20
309.5377409563432138
 30
0.0
 11
5181.5464769448153675
 21
310.9034435205495015
 31
0.0
  0
LINE
  5
D354
  8
0
 10
5181.2402495986161739
 20
311.2653485660495107
 30
0.0
 11
5180.6695531808136366
 21
311.8360449838494901
 31
0.0
  0
LINE
  5
D355
  8
0
 10
5180.196292736714895
 20
312.3093054279494822
 30
0.0
 11
5179.7369517174147404
 21
312.7686464472495231
 31
0.0
  0
LINE
  5
D356
  8
0
 10
5172.9999501014153793
 20
319.5334869129495132
 30
0.0
 11
5172.6380450559154269
 21
319.8953919584495225
 31
0.0
  0
LINE
  5
D357
  8
0
 10
5183.3252822315143931
 20
309.2307234738494799
 30
0.0
 11
5183.357070213114639
 21
309.1989354923495057
 31
0.0
  0
LINE
  5
D358
  8
0
 10
5173.4871299703154364
 20
319.1576624426494959
 30
0.0
 11
5172.5266896572147743
 21
320.1181027556494882
 31
0.0
  0
LINE
  5
D359
  8
0
 10
5183.0036499097150227
 20
309.6689813528495279
 30
0.0
 11
5181.6578323434150661
 21
311.0147989191494844
 31
0.0
  0
LINE
  5
D35A
  8
0
 10
5182.3732907795147185
 20
310.3104760229495014
 30
0.0
 11
5182.9857454719149246
 21
309.6980213305495226
 31
0.0
  0
LINE
  5
D35B
  8
0
 10
5172.5684479317151272
 20
320.1598610301495
 30
0.0
 11
5172.2761400104136555
 21
320.4521689515494813
 31
0.0
  0
LINE
  5
D35C
  8
0
 10
5181.37944384691491
 20
311.4045428142495098
 30
0.0
 11
5179.8761459656143415
 21
312.9078406955495097
 31
0.0
  0
LINE
  5
D35D
  8
0
 10
5173.5845659441138196
 20
319.1994207171495077
 30
0.0
 11
5172.1926234614147688
 21
320.5913631997494804
 31
0.0
  0
LINE
  5
D35E
  8
0
 10
5180.9938757792151591
 20
311.8179497316494917
 30
0.0
 11
5180.2895528830149487
 21
312.5222726278494747
 31
0.0
  0
LINE
  5
D35F
  8
0
 10
5173.6820019178139773
 20
319.2968566909494825
 30
0.0
 11
5172.3874954090151732
 21
320.5913631997494804
 31
0.0
  0
LINE
  5
D360
  8
0
 10
5173.3521115495150298
 20
319.6545859089495139
 30
0.0
 11
5172.7591440519154276
 21
320.247553406549514
 31
0.0
  0
LINE
  5
D361
  8
0
 10
5172.7452246270886462
 20
320.9490924177741817
 30
0.0
 11
5172.7591440518890522
 21
320.9351729929741737
 31
0.0
  0
LINE
  5
D362
  8
0
 10
5184.6008565080146582
 20
309.5491472562495119
 30
0.0
 11
5184.6008565080146582
 21
309.6689813528495279
 31
0.0
  0
LINE
  5
D363
  8
0
 10
5184.6816194967150295
 20
309.7459976499495156
 30
0.0
 11
5184.6816194967150295
 21
309.6689813528495279
 31
0.0
  0
LINE
  5
D364
  8
0
 10
5184.7094583464140669
 20
309.7738364996495193
 30
0.0
 11
5184.7094583464140669
 21
309.6689813528495279
 31
0.0
  0
LINE
  5
D365
  8
0
 10
5184.8281832070151722
 20
309.2341866263495263
 30
0.0
 11
5184.8281832070151722
 21
309.1178002504494771
 31
0.0
  0
LINE
  5
D366
  8
0
 10
5184.9069233645150234
 20
309.1178002504494771
 30
0.0
 11
5184.9069231581161148
 21
309.0587450821088851
 31
0.0
  0
LINE
  5
D367
  8
0
 10
5184.9069233645150234
 20
309.5491472562495119
 30
0.0
 11
5184.9069233645150234
 21
309.6689813528495279
 31
0.0
  0
LINE
  5
D368
  8
0
 10
5182.773444556614777
 20
309.1196989156495079
 30
0.0
 11
5182.725174226915442
 21
309.003164030949506
 31
0.0
  0
LINE
  5
D369
  8
0
 10
5182.7297580102140273
 20
309.0012653657494752
 30
0.0
 11
5182.7780283399151813
 21
309.1178002504494771
 31
0.0
  0
LINE
  5
D36A
  8
0
 10
5179.4585632208154493
 20
312.4902579507494806
 30
0.0
 11
5179.3332883974153447
 21
312.3649831273496034
 31
0.0
  0
LINE
  5
D36B
  8
0
 10
5179.7369517174147404
 20
312.7686464472495231
 30
0.0
 11
5179.8761459656143415
 21
312.9078406955495097
 31
0.0
  0
LINE
  5
D36C
  8
0
 10
5173.3381921246891579
 20
321.5420599153742955
 30
0.0
 11
5173.3521115494886544
 21
321.5281404905742875
 31
0.0
  0
LINE
  5
D36D
  8
0
 10
5173.6820019178139773
 20
321.8858697086495226
 30
0.0
 11
5173.5845659441138196
 21
321.9833056824494975
 31
0.0
  0
LINE
  5
D36E
  8
0
 10
5186.9257139849160012
 20
309.0373362326495226
 30
0.0
 11
5186.9257139849160012
 21
309.2341866263495263
 31
0.0
  0
LINE
  5
D36F
  8
0
 10
5187.9099659534149396
 20
309.0373362326495226
 30
0.0
 11
5187.9099659534149396
 21
309.2341866263495263
 31
0.0
  0
LINE
  5
D370
  8
0
 10
5183.3252822315143931
 20
309.5526104087495014
 30
0.0
 11
5183.3405099138153673
 21
309.5852662787494864
 31
0.0
  0
LINE
  5
D371
  8
0
 10
5180.2756334582154523
 20
312.5083532030495235
 30
0.0
 11
5180.2895528830149487
 21
312.5222726278494747
 31
0.0
  0
LINE
  5
D372
  8
0
 10
5179.9179042401146944
 20
312.0309169314494966
 30
0.0
 11
5180.196292736714895
 21
312.3093054279494822
 31
0.0
  0
LINE
  5
D373
  8
0
 10
5180.6695531808136366
 20
311.8360449838494901
 30
0.0
 11
5180.391164684215255
 21
311.5576564873495045
 31
0.0
  0
LINE
  5
D374
  8
0
 10
5180.683472605614952
 20
311.7942867094495227
 30
0.0
 11
5180.6417143311136897
 21
311.7525284349495109
 31
0.0
  0
LINE
  5
D375
  8
0
 10
5180.8686009558150545
 20
311.9153857054495234
 30
0.0
 11
5180.8825203806136415
 21
311.9293051302494746
 31
0.0
  0
LINE
  5
D376
  8
0
 10
5180.9799563544138437
 20
311.804030306749496
 30
0.0
 11
5180.9938757792151591
 21
311.8179497316494917
 31
0.0
  0
LINE
  5
D377
  8
0
 10
5180.7252308801143954
 20
310.9730406446494726
 30
0.0
 11
5180.8505057035154096
 21
311.0983154680495204
 31
0.0
  0
LINE
  5
D378
  8
0
 10
5181.37944384691491
 20
311.4045428142495098
 30
0.0
 11
5181.2402495986161739
 21
311.2653485660495107
 31
0.0
  0
LINE
  5
D379
  8
0
 10
5180.8365862787150036
 20
310.8616852460494897
 30
0.0
 11
5180.9618611021151082
 21
310.9869600694494807
 31
0.0
  0
LINE
  5
D37A
  8
0
 10
5181.6578323434150661
 20
311.0147989191494844
 30
0.0
 11
5181.5464769448153675
 21
310.9034435205495015
 31
0.0
  0
LINE
  5
D37B
  8
0
 10
5181.2680884483152113
 20
310.6250550239495283
 30
0.0
 11
5181.2263301738148584
 21
310.5832967495495041
 31
0.0
  0
LINE
  5
D37C
  8
0
 10
5181.5743157945144048
 20
310.8756046708494978
 30
0.0
 11
5181.5464769448153675
 21
310.8477658212494816
 31
0.0
  0
LINE
  5
D37D
  8
0
 10
5181.8742542932150172
 20
310.7983769693494764
 30
0.0
 11
5181.7628988946144091
 21
310.6870215707494935
 31
0.0
  0
LINE
  5
D37E
  8
0
 10
5181.8736165705149688
 20
310.5763038948495023
 30
0.0
 11
5181.984971969113758
 21
310.6876592934494852
 31
0.0
  0
LINE
  5
D37F
  8
0
 10
5182.0754150882148679
 20
310.3466665274494858
 30
0.0
 11
5182.0614956634153714
 21
310.3327471026494777
 31
0.0
  0
LINE
  5
D380
  8
0
 10
5182.3677230096145649
 20
310.0265197564494883
 30
0.0
 11
5182.3816424344149709
 21
310.0404391812494964
 31
0.0
  0
LINE
  5
D381
  8
0
 10
5202.6540604416150018
 20
306.7735567050494865
 30
0.0
 11
5189.1894935125146731
 21
306.7735567050494865
 31
0.0
  0
LINE
  5
D382
  8
0
 10
5202.6540604416150018
 20
307.7578086735495049
 30
0.0
 11
5189.1894935125146731
 21
307.7578086735495049
 31
0.0
  0
LINE
  5
D383
  8
0
 10
5182.5486755323154284
 20
309.9012449330494974
 30
0.0
 11
5182.5208366827146165
 21
309.8734060833494937
 31
0.0
  0
LINE
  5
D384
  8
0
 10
5182.7157086303150209
 20
309.6785341357494872
 30
0.0
 11
5182.4929978330146696
 21
309.4558233385495214
 31
0.0
  0
LINE
  5
D385
  8
0
 10
5182.534756107514113
 20
309.3583873647494897
 30
0.0
 11
5182.5625949572140598
 21
309.3862262144494935
 31
0.0
  0
LINE
  5
D386
  8
0
 10
5182.5765143820153753
 20
309.4001456392495015
 30
0.0
 11
5182.6043532316143683
 21
309.4279844889495052
 31
0.0
  0
LINE
  5
D387
  8
0
 10
5182.6182726565148187
 20
309.4419039137495133
 30
0.0
 11
5182.6461115061147211
 21
309.4697427633494726
 31
0.0
  0
LINE
  5
D388
  8
0
 10
5182.6600309309142176
 20
309.4836621882495251
 30
0.0
 11
5182.687869780615074
 21
309.5115010378494844
 31
0.0
  0
LINE
  5
D389
  8
0
 10
5183.357070213114639
 20
309.5843983902494756
 30
0.0
 11
5183.3252822315143931
 21
309.5526104087495014
 31
0.0
  0
LINE
  5
D38A
  8
0
 10
5209.5844090440150467
 20
309.5942470453495048
 30
0.0
 11
5209.413045810213589
 21
309.5852662787494864
 31
0.0
  0
LINE
  5
D38B
  8
0
 10
5209.3964855110152712
 20
309.5843983902494756
 30
0.0
 11
5209.2470349326149517
 21
309.576566017349478
 31
0.0
  0
LINE
  5
D38C
  8
0
 10
5209.230019483515207
 20
309.6150983835494799
 30
0.0
 11
5209.6444943974147463
 21
309.6368200933495132
 31
0.0
  0
LINE
  5
D38D
  8
0
 10
5182.6170855888149163
 20
308.5287896451495158
 30
0.0
 11
5183.6232808373151784
 21
308.5287896451495158
 31
0.0
  0
LINE
  5
D38E
  8
0
 10
5209.1429658767146975
 20
308.5799707474495222
 30
0.0
 11
5204.8701785618150097
 21
308.5799707474495222
 31
0.0
  0
LINE
  5
D38F
  8
0
 10
5203.8483423004136057
 20
308.5799707474495222
 30
0.0
 11
5187.9945007981250455
 21
308.5799707474495222
 31
0.0
  0
LINE
  5
D390
  8
0
 10
5186.9723975374772635
 20
308.5799707474495222
 30
0.0
 11
5183.6311548531148219
 21
308.5799707474495222
 31
0.0
  0
LINE
  5
D391
  8
0
 10
5209.0105562201651992
 20
308.6075735896495189
 30
0.0
 11
5210.0167295440151065
 21
308.6075735896495189
 31
0.0
  0
LINE
  5
D392
  8
0
 10
5184.8805279063135458
 20
309.0524116923494944
 30
0.0
 11
5186.9257139849160012
 21
309.0524116923494944
 31
0.0
  0
LINE
  5
D393
  8
0
 10
5187.9099659534149396
 20
309.0524116923494944
 30
0.0
 11
5203.9335880007147352
 21
309.0524116923494944
 31
0.0
  0
LINE
  5
D394
  8
0
 10
5204.9178399692145831
 20
309.0524116923494944
 30
0.0
 11
5208.0301581845387773
 21
309.0524116923494944
 31
0.0
  0
LINE
  5
D395
  8
0
 10
5184.9069233645150234
 20
309.1178002504494771
 30
0.0
 11
5182.7780283399151813
 21
309.1178002504494771
 31
0.0
  0
LINE
  5
D396
  8
0
 10
5181.2564226463136947
 20
309.1342258176495079
 30
0.0
 11
5181.944481582501794
 21
309.1342258176495079
 31
0.0
  0
LINE
  5
D397
  8
0
 10
5183.3124002229160396
 20
309.1571703292494817
 30
0.0
 11
5183.9423564353146503
 21
309.1571703292494817
 31
0.0
  0
LINE
  5
D398
  8
0
 10
5209.883625642514744
 20
309.1687453453495209
 30
0.0
 11
5209.746504348234339
 21
309.1687453453495209
 31
0.0
  0
LINE
  5
D399
  8
0
 10
5209.2264839085719359
 20
309.1687453453495209
 30
0.0
 11
5207.7547306179149018
 21
309.1687453453495209
 31
0.0
  0
LINE
  5
D39A
  8
0
 10
5208.7192975471161844
 20
309.2081154240494811
 30
0.0
 11
5209.216401542683343
 21
309.2081154240494811
 31
0.0
  0
LINE
  5
D39B
  8
0
 10
5209.245949706146348
 20
309.2081154240494811
 30
0.0
 11
5209.4056654427149624
 21
309.2081154240494811
 31
0.0
  0
LINE
  5
D39C
  8
0
 10
5209.4177311858147732
 20
309.2081154240494811
 30
0.0
 11
5209.5460692006154204
 21
309.2081154240494811
 31
0.0
  0
LINE
  5
D39D
  8
0
 10
5209.5460692006154204
 20
309.2278004634495119
 30
0.0
 11
5209.4269104703762423
 21
309.2278004634495119
 31
0.0
  0
LINE
  5
D39E
  8
0
 10
5209.605124318714843
 20
309.2341866263495263
 30
0.0
 11
5183.1484314053150229
 21
309.2341866263495263
 31
0.0
  0
LINE
  5
D39F
  8
0
 10
5183.1090613266151195
 20
309.2341866263495263
 30
0.0
 11
5183.0280761896137847
 21
309.2341866263495263
 31
0.0
  0
LINE
  5
D3A0
  8
0
 10
5181.2564226463136947
 20
309.2343634449495084
 30
0.0
 11
5181.8720355578780072
 21
309.2343634449495084
 31
0.0
  0
LINE
  5
D3A1
  8
0
 10
5182.1285092798216283
 20
309.2343634449495084
 30
0.0
 11
5182.4393031770432572
 21
309.2343634449495084
 31
0.0
  0
LINE
  5
D3A2
  8
0
 10
5182.6587800273136963
 20
309.2343634449495084
 30
0.0
 11
5182.9210814975140238
 21
309.2343634449495084
 31
0.0
  0
LINE
  5
D3A3
  8
0
 10
5182.9475305925434441
 20
309.2343656640940139
 30
0.0
 11
5182.9902448937573354
 21
309.234721764827782
 31
0.0
  0
LINE
  5
D3A4
  8
0
 10
5209.752546090814576
 20
309.3044239833495226
 30
0.0
 11
5209.7086905319147263
 21
309.3044239833495226
 31
0.0
  0
LINE
  5
D3A5
  8
0
 10
5209.666076665815126
 20
309.3044239833495226
 30
0.0
 11
5209.6444943974147463
 21
309.3044239833495226
 31
0.0
  0
LINE
  5
D3A6
  8
0
 10
5209.6444943974147463
 20
309.3241090227494965
 30
0.0
 11
5209.6579228555146983
 21
309.3241090227494965
 31
0.0
  0
LINE
  5
D3A7
  8
0
 10
5209.7005367217152525
 20
309.3241090227494965
 30
0.0
 11
5209.752546090814576
 21
309.3241090227494965
 31
0.0
  0
LINE
  5
D3A8
  8
0
 10
5183.5065207914140046
 20
309.576566017349478
 30
0.0
 11
5183.357070213114639
 21
309.5843983902494756
 31
0.0
  0
LINE
  5
D3A9
  8
0
 10
5183.3405099138153673
 20
309.5852662787494864
 30
0.0
 11
5183.1691466801139541
 21
309.5942470453495048
 31
0.0
  0
LINE
  5
D3AA
  8
0
 10
5183.1090613266151195
 20
309.6368200933495132
 30
0.0
 11
5183.5235362406137938
 21
309.6150983835494799
 31
0.0
  0
LINE
  5
D3AB
  8
0
 10
5183.5235362406137938
 20
309.1682354990495014
 30
0.0
 11
5183.1090613266151195
 21
309.146513789249525
 31
0.0
  0
LINE
  5
D3AC
  8
0
 10
5183.1691466801139541
 20
309.1890868372494765
 30
0.0
 11
5183.3405099138153673
 21
309.1980676037495073
 31
0.0
  0
LINE
  5
D3AD
  8
0
 10
5183.357070213114639
 20
309.1989354923495057
 30
0.0
 11
5183.5065207914140046
 21
309.2067678652495033
 31
0.0
  0
LINE
  5
D3AE
  8
0
 10
5183.1090613266151195
 20
309.1926698285341217
 30
0.0
 11
5183.0508519351151335
 21
309.1891407925494946
 31
0.0
  0
LINE
  5
D3AF
  8
0
 10
5183.1090613266151195
 20
309.2341866263495263
 30
0.0
 11
5183.0487914644154444
 21
309.2284569160494812
 31
0.0
  0
LINE
  5
D3B0
  8
0
 10
5182.9384194275144182
 20
309.5115010378494844
 30
0.0
 11
5183.1090613266151195
 21
309.5115010378494844
 31
0.0
  0
LINE
  5
D3B1
  8
0
 10
5181.2564226463136947
 20
309.5489704377495173
 30
0.0
 11
5181.6713778191806341
 21
309.5489704377495173
 31
0.0
  0
LINE
  5
D3B2
  8
0
 10
5182.6504003807149275
 20
309.5489704377495173
 30
0.0
 11
5182.9009500276151812
 21
309.5489704377495173
 31
0.0
  0
LINE
  5
D3B3
  8
0
 10
5209.605124318714843
 20
309.5491472562495119
 30
0.0
 11
5183.1484314053150229
 21
309.5491472562495119
 31
0.0
  0
LINE
  5
D3B4
  8
0
 10
5207.7547306179149018
 20
309.5624461327495283
 30
0.0
 11
5209.4184377685151048
 21
309.5624461327495283
 31
0.0
  0
LINE
  5
D3B5
  8
0
 10
5209.423687019114368
 20
309.5624461327495283
 30
0.0
 11
5209.605124318714843
 21
309.5624461327495283
 31
0.0
  0
LINE
  5
D3B6
  8
0
 10
5209.6444943974147463
 20
309.5624461327495283
 30
0.0
 11
5209.723234554913688
 21
309.5624461327495283
 31
0.0
  0
LINE
  5
D3B7
  8
0
 10
5181.2564226463136947
 20
309.6474413434494863
 30
0.0
 11
5181.6162361713513747
 21
309.6474413434494863
 31
0.0
  0
LINE
  5
D3B8
  8
0
 10
5184.9069233645150234
 20
309.6474413434494863
 30
0.0
 11
5203.9335880007147352
 21
309.6474413434494863
 31
0.0
  0
LINE
  5
D3B9
  8
0
 10
5204.9178399692145831
 20
309.6474413434494863
 30
0.0
 11
5207.7547306179149018
 21
309.6474413434494863
 31
0.0
  0
LINE
  5
D3BA
  8
0
 10
5184.9069233645150234
 20
309.6689813528495279
 30
0.0
 11
5183.0036499097150227
 21
309.6689813528495279
 31
0.0
  0
LINE
  5
D3BB
  8
0
 10
5207.7547306179149018
 20
309.7199264476495273
 30
0.0
 11
5209.6580040727139931
 21
309.7199264476495273
 31
0.0
  0
LINE
  5
D3BC
  8
0
 10
5184.6816194967150295
 20
309.7459976499495156
 30
0.0
 11
5183.3036667408150606
 21
309.7459976499495156
 31
0.0
  0
LINE
  5
D3BD
  8
0
 10
5184.7094583464140669
 20
309.7738364996495193
 30
0.0
 11
5183.331505590515917
 21
309.7738364996495193
 31
0.0
  0
LINE
  5
D3BE
  8
0
 10
5209.6444943974147463
 20
309.146513789249525
 30
0.0
 11
5209.230019483515207
 21
309.1682354990495014
 31
0.0
  0
LINE
  5
D3BF
  8
0
 10
5209.2470349326149517
 20
309.2067678652495033
 30
0.0
 11
5209.3964855110152712
 21
309.1989354923495057
 31
0.0
  0
LINE
  5
D3C0
  8
0
 10
5209.413045810213589
 20
309.1980676038494948
 30
0.0
 11
5209.5844090440150467
 21
309.1890868372494765
 31
0.0
  0
LINE
  5
D3C1
  8
0
 10
5172.4207573924159078
 20
320.0233380054494887
 30
0.0
 11
5172.3758023978161873
 21
320.0233380054494887
 31
0.0
  0
LINE
  5
D3C2
  8
0
 10
5220.2023350357148956
 20
320.046444250649472
 30
0.0
 11
5220.1573800411151751
 21
320.046444250649472
 31
0.0
  0
LINE
  5
D3C3
  8
0
 10
5209.4282734925136538
 20
309.5526104087495014
 30
0.0
 11
5209.3964855110152712
 21
309.5843983902494756
 31
0.0
  0
LINE
  5
D3C4
  8
0
 10
5209.879132113014748
 20
309.5179039733495188
 30
0.0
 11
5209.7789122542153564
 21
309.6181238320494913
 31
0.0
  0
LINE
  5
D3C5
  8
0
 10
5209.6675568556147482
 20
309.7294792306494742
 30
0.0
 11
5209.6480696609141887
 21
309.7489664254495096
 31
0.0
  0
LINE
  5
D3C6
  8
0
 10
5209.8930515380143333
 20
309.5318233979494948
 30
0.0
 11
5209.7928316791148973
 21
309.6320432568494994
 31
0.0
  0
LINE
  5
D3C7
  8
0
 10
5209.9737842018148513
 20
309.5624461327495283
 30
0.0
 11
5210.0016230515147981
 21
309.5346072830495245
 31
0.0
  0
LINE
  5
D3C8
  8
0
 10
5210.0155424763152041
 20
309.5206878582495165
 30
0.0
 11
5210.0433813259151066
 21
309.4928490086495003
 31
0.0
  0
LINE
  5
D3C9
  8
0
 10
5210.0573007508146475
 20
309.4789295837495047
 30
0.0
 11
5210.0851396004145499
 21
309.4510907341494885
 31
0.0
  0
LINE
  5
D3CA
  8
0
 10
5210.0990590252149559
 20
309.4371713092494929
 30
0.0
 11
5210.1268978749139933
 21
309.4093324596494767
 31
0.0
  0
LINE
  5
D3CB
  8
0
 10
5210.1268978749139933
 20
309.4650101589494966
 30
0.0
 11
5210.1129784501154063
 21
309.4789295837495047
 31
0.0
  0
LINE
  5
D3CC
  8
0
 10
5210.0851396004145499
 20
309.5067684334495084
 30
0.0
 11
5210.0712201756150534
 21
309.5206878582495165
 31
0.0
  0
LINE
  5
D3CD
  8
0
 10
5210.0433813259151066
 20
309.5485267079495202
 30
0.0
 11
5210.0294619011147006
 21
309.5624461327495283
 31
0.0
  0
LINE
  5
D3CE
  8
0
 10
5210.0016230515147981
 20
309.5902849823496013
 30
0.0
 11
5209.8763482280137396
 21
309.7155598058495229
 31
0.0
  0
LINE
  5
D3CF
  8
0
 10
5210.1408172997153088
 20
309.5346072830495245
 30
0.0
 11
5209.9181065025150019
 21
309.7573180803494779
 31
0.0
  0
LINE
  5
D3D0
  8
0
 10
5210.2883632029152068
 20
310.3892599674495045
 30
0.0
 11
5210.3078503976148568
 21
310.3697727726495259
 31
0.0
  0
LINE
  5
D3D1
  8
0
 10
5211.0539310651147389
 20
309.6236921052495177
 30
0.0
 11
5210.8244296430148097
 21
309.8531935273495037
 31
0.0
  0
LINE
  5
D3D2
  8
0
 10
5203.9335880007147352
 20
309.2341866263495263
 30
0.0
 11
5203.9335880007147352
 21
309.0373362326495226
 31
0.0
  0
LINE
  5
D3D3
  8
0
 10
5203.9335880007147352
 20
309.5491472562495119
 30
0.0
 11
5203.9335880007147352
 21
311.5176511932494918
 31
0.0
  0
LINE
  5
D3D4
  8
0
 10
5204.9178399692145831
 20
309.2341866263495263
 30
0.0
 11
5204.9178399692145831
 21
309.0373362326495226
 31
0.0
  0
LINE
  5
D3D5
  8
0
 10
5204.9178399692145831
 20
309.5491472562495119
 30
0.0
 11
5204.9178399692145831
 21
311.5176511932494918
 31
0.0
  0
LINE
  5
D3D6
  8
0
 10
5210.6836748680152596
 20
310.0217871520495123
 30
0.0
 11
5210.6558360183153127
 21
310.0496260016494716
 31
0.0
  0
LINE
  5
D3D7
  8
0
 10
5210.6766820133143483
 20
310.7386043883494722
 30
0.0
 11
5210.7880374119149565
 21
310.6272489897494893
 31
0.0
  0
LINE
  5
D3D8
  8
0
 10
5210.8987550878136972
 20
310.7379666656494805
 30
0.0
 11
5210.787399689214908
 21
310.8493220642495203
 31
0.0
  0
LINE
  5
D3D9
  8
0
 10
5211.2822101355141058
 20
310.6760001188495153
 30
0.0
 11
5211.3378878348148646
 21
310.6203224195494954
 31
0.0
  0
LINE
  5
D3DA
  8
0
 10
5211.0038216390148591
 20
311.0657440139494838
 30
0.0
 11
5211.1151770376145578
 21
310.9543886153495009
 31
0.0
  0
LINE
  5
D3DB
  8
0
 10
5211.393565534114714
 20
310.6760001188495153
 30
0.0
 11
5211.4353238086150668
 21
310.6342418443495035
 31
0.0
  0
LINE
  5
D3DC
  8
0
 10
5211.1700195714147412
 20
311.1539931674495278
 30
0.0
 11
5211.2424005805150955
 21
311.0816121583495146
 31
0.0
  0
LINE
  5
D3DD
  8
0
 10
5210.891631074914585
 20
311.4323816639495135
 30
0.0
 11
5210.7524368266149395
 21
311.5715759121495125
 31
0.0
  0
LINE
  5
D3DE
  8
0
 10
5211.7972288541150192
 20
310.9404691905494929
 30
0.0
 11
5211.6719540306148701
 21
311.0657440139494838
 31
0.0
  0
LINE
  5
D3DF
  8
0
 10
5211.1519243191150963
 20
311.9710634047494864
 30
0.0
 11
5211.1380048943146903
 21
311.9849828295494945
 31
0.0
  0
LINE
  5
D3E0
  8
0
 10
5209.6444943974147463
 20
309.5364829959494841
 30
0.0
 11
5209.7071749545148123
 21
309.5624461327495283
 31
0.0
  0
LINE
  5
D3E1
  8
0
 10
5209.7050566717152833
 20
309.5189548451494943
 30
0.0
 11
5209.6444943974147463
 21
309.4938691297494984
 31
0.0
  0
LINE
  5
D3E2
  8
0
 10
5211.6293605907148958
 20
311.6133341866495243
 30
0.0
 11
5211.3509720941137857
 21
311.8917226832494975
 31
0.0
  0
LINE
  5
D3E3
  8
0
 10
5211.8242325382143463
 20
312.3649831273496034
 30
0.0
 11
5212.1026210348145469
 21
312.0865946307495165
 31
0.0
  0
LINE
  5
D3E4
  8
0
 10
5212.6343430631150113
 20
312.4735546409494873
 30
0.0
 11
5212.561962054014657
 21
312.5459356500495005
 31
0.0
  0
LINE
  5
D3E5
  8
0
 10
5212.2835735575135914
 20
312.8243241465494862
 30
0.0
 11
5212.1443793093139902
 21
312.9635183948494728
 31
0.0
  0
LINE
  5
D3E6
  8
0
 10
5212.6463137685150286
 20
312.8752692414494732
 30
0.0
 11
5212.7855080168137647
 21
312.7360749931494865
 31
0.0
  0
LINE
  5
D3E7
  8
0
 10
5213.189171336714935
 20
312.3324116732495099
 30
0.0
 11
5213.0638965133148304
 21
312.4576864966495009
 31
0.0
  0
LINE
  5
D3E8
  8
0
 10
5209.413045810213589
 20
309.5852662787494864
 30
0.0
 11
5209.4282734925136538
 21
309.5526104087495014
 31
0.0
  0
LINE
  5
D3E9
  8
0
 10
5209.7182002933259355
 20
309.1785864147988718
 30
0.0
 11
5209.6444943974147463
 21
309.3565281882495128
 31
0.0
  0
LINE
  5
D3EA
  8
0
 10
5209.6444943974147463
 20
309.4594071619495139
 30
0.0
 11
5209.7541549044617568
 21
309.1946632787494877
 31
0.0
  0
LINE
  5
D3EB
  8
0
 10
5207.7547306179149018
 20
309.1687453453495209
 30
0.0
 11
5207.7547306179149018
 21
309.1096902272494731
 31
0.0
  0
LINE
  5
D3EC
  8
0
 10
5207.7547306179149018
 20
309.5624461327495283
 30
0.0
 11
5207.7547306179149018
 21
309.7199264476495273
 31
0.0
  0
LINE
  5
D3ED
  8
0
 10
5207.833470775414753
 20
309.2341866263495263
 30
0.0
 11
5207.833470775414753
 21
309.1687453453495209
 31
0.0
  0
LINE
  5
D3EE
  8
0
 10
5208.0607974744152671
 20
309.7199264476495273
 30
0.0
 11
5208.0607974744152671
 21
309.5624461327495283
 31
0.0
  0
LINE
  5
D3EF
  8
0
 10
5208.2173759133147541
 20
309.7199264476495273
 30
0.0
 11
5208.2173759133147541
 21
309.5624461327495283
 31
0.0
  0
LINE
  5
D3F0
  8
0
 10
5218.8961355156152422
 20
321.9089759538495059
 30
0.0
 11
5218.9935714894154444
 21
322.0064119276495944
 31
0.0
  0
LINE
  5
D3F1
  8
0
 10
5219.239945308840106
 20
321.5651661606744938
 30
0.0
 11
5219.2260258840397
 21
321.5512467357744981
 31
0.0
  0
LINE
  5
D3F2
  8
0
 10
5219.8329128064397082
 20
320.9721986629745061
 30
0.0
 11
5219.8189933816402117
 21
320.958279238174498
 31
0.0
  0
LINE
  5
D3F3
  8
0
 10
5211.730972391915202
 20
312.5779503271494946
 30
0.0
 11
5211.1380048943146903
 21
311.9849828295494945
 31
0.0
  0
LINE
  5
D3F4
  8
0
 10
5210.7524368266149395
 20
311.5715759121495125
 30
0.0
 11
5212.1443793093139902
 21
312.9635183948494728
 31
0.0
  0
LINE
  5
D3F5
  8
0
 10
5220.3193603762147177
 20
319.6743113567495129
 30
0.0
 11
5220.4299434701151768
 21
319.7738808216495272
 31
0.0
  0
LINE
  5
D3F6
  8
0
 10
5220.4422670598150944
 20
319.7849770316494755
 30
0.0
 11
5220.5697895254152172
 21
319.8997987754494829
 31
0.0
  0
LINE
  5
D3F7
  8
0
 10
5220.64237997721375
 20
319.9121818453494939
 30
0.0
 11
5220.3339423866145808
 21
319.6344633913495272
 31
0.0
  0
LINE
  5
D3F8
  8
0
 10
5209.8176138159751645
 20
309.2472178610793208
 30
0.0
 11
5209.7050566717152833
 21
309.5189548451494943
 31
0.0
  0
LINE
  5
D3F9
  8
0
 10
5209.883625642514744
 20
309.1687453453495209
 30
0.0
 11
5209.9318959722149884
 21
309.0522104606495191
 31
0.0
  0
LINE
  5
D3FA
  8
0
 10
5209.9364797555153928
 20
309.054109125849493
 30
0.0
 11
5209.8882094258151483
 21
309.1706440105494949
 31
0.0
  0
LINE
  5
D3FB
  8
0
 10
5209.7277752553491155
 20
309.5669868331672774
 30
0.0
 11
5209.8439563684551104
 21
309.286544194170915
 31
0.0
  0
LINE
  5
D3FC
  8
0
 10
5209.2114935831150433
 20
309.5878836459494892
 30
0.0
 11
5209.2113676776152715
 21
309.5950967705495032
 31
0.0
  0
LINE
  5
D3FD
  8
0
 10
5208.7192975471161844
 20
309.2081154240494811
 30
0.0
 11
5208.7192975471161844
 21
309.2341866263495263
 31
0.0
  0
LINE
  5
D3FE
  8
0
 10
5209.0026602797152009
 20
308.9875179827906209
 30
0.0
 11
5209.0026602797152009
 21
308.6154476053495159
 31
0.0
  0
LINE
  5
D3FF
  8
0
 10
5209.1429658767146975
 20
308.5799707474495222
 30
0.0
 11
5209.1429658767146975
 21
308.6075735896495189
 31
0.0
  0
LINE
  5
D400
  8
0
 10
5209.5460692006154204
 20
309.1910961433148941
 30
0.0
 11
5209.5460692006154204
 21
309.2081154240494811
 31
0.0
  0
LINE
  5
D401
  8
0
 10
5209.5460692006154204
 20
309.2278004634495119
 30
0.0
 11
5209.5460692006154204
 21
309.2341866263495263
 31
0.0
  0
LINE
  5
D402
  8
0
 10
5209.605124318714843
 20
309.208744898949476
 30
0.0
 11
5209.605124318714843
 21
309.5745889835495177
 31
0.0
  0
LINE
  5
D403
  8
0
 10
5209.6444943974147463
 20
309.6171350539494824
 30
0.0
 11
5209.6444943974147463
 21
309.1661988285495113
 31
0.0
  0
LINE
  5
D404
  8
0
 10
5209.2113660541081117
 20
309.1881261975701136
 30
0.0
 11
5209.2114935831150433
 21
309.1954502365495046
 31
0.0
  0
LINE
  5
D405
  8
0
 10
5220.0181273671150848
 20
319.9506261476494728
 30
0.0
 11
5220.2956810647146995
 21
320.2588807578495107
 31
0.0
  0
LINE
  5
D406
  8
0
 10
5212.2835735575135914
 20
312.8243241465494862
 30
0.0
 11
5211.8242325382143463
 21
312.3649831273496034
 31
0.0
  0
LINE
  5
D407
  8
0
 10
5211.3509720941137857
 20
311.8917226832494975
 30
0.0
 11
5210.891631074914585
 21
311.4323816639495135
 31
0.0
  0
LINE
  5
D408
  8
0
 10
5219.8189933816147459
 20
320.2706596517494972
 30
0.0
 11
5219.2260258840151437
 21
319.6776921541494971
 31
0.0
  0
LINE
  5
D409
  8
0
 10
5218.8961355156152422
 20
319.3199629361495226
 30
0.0
 11
5220.1906420245150002
 21
320.6144694449495205
 31
0.0
  0
LINE
  5
D40A
  8
0
 10
5212.6463137685150286
 20
312.8752692414494732
 30
0.0
 11
5211.9801300963135873
 21
312.2090855692495097
 31
0.0
  0
LINE
  5
D40B
  8
0
 10
5218.9935714894154444
 20
319.222526962349491
 30
0.0
 11
5220.3855139720153602
 21
320.6144694449495205
 31
0.0
  0
LINE
  5
D40C
  8
0
 10
5220.0096895017150018
 20
320.1829672753494833
 30
0.0
 11
5220.3019974231137894
 21
320.4752751967495215
 31
0.0
  0
LINE
  5
D40D
  8
0
 10
5209.6480696609141887
 20
309.7768052750495258
 30
0.0
 11
5210.2605243532143504
 21
310.3892599674495045
 31
0.0
  0
LINE
  5
D40E
  8
0
 10
5219.0910074632147371
 20
319.1807686878494792
 30
0.0
 11
5220.0514477762144452
 21
320.1412090008495284
 31
0.0
  0
LINE
  5
D40F
  8
0
 10
5209.6580040727139931
 20
309.7199264476495273
 30
0.0
 11
5211.0038216390148591
 21
311.0657440139494838
 31
0.0
  0
LINE
  5
D410
  8
0
 10
5211.1700195714147412
 20
311.1539931674495278
 30
0.0
 11
5212.561962054014657
 21
312.5459356500495005
 31
0.0
  0
LINE
  5
D411
  8
0
 10
5219.9400923776147465
 20
319.9184982036495057
 30
0.0
 11
5219.5781873321147941
 21
319.5565931581494965
 31
0.0
  0
LINE
  5
D412
  8
0
 10
5212.578665363815162
 20
312.5292323402495072
 30
0.0
 11
5212.7855080168137647
 21
312.7360749931494865
 31
0.0
  0
LINE
  5
D413
  8
0
 10
5211.2117778459150941
 20
311.1122348929495161
 30
0.0
 11
5212.6037203285150099
 21
312.5041773755494887
 31
0.0
  0
LINE
  5
D414
  8
0
 10
5209.9181065025150019
 20
309.7573180803494779
 30
0.0
 11
5209.765604285509653
 21
309.6048158633444132
 31
0.0
  0
LINE
  5
D415
  8
0
 10
5209.7509667477161202
 20
309.5901783254494717
 30
0.0
 11
5209.723234554913688
 21
309.5624461327495283
 31
0.0
  0
LINE
  5
D416
  8
0
 10
5209.9181065025150019
 20
309.7573180803494779
 30
0.0
 11
5212.4236029713138123
 21
312.2628145490494944
 31
0.0
  0
LINE
  5
D417
  8
0
 10
5212.4236029713138123
 20
312.2628145490494944
 30
0.0
 11
5220.3298362727136919
 21
320.1690478505494752
 31
0.0
  0
LINE
  5
D418
  8
0
 10
5209.3964855110152712
 20
309.1989354923495057
 30
0.0
 11
5209.4282734925136538
 21
309.2307234738494799
 31
0.0
  0
LINE
  5
D419
  8
0
 10
5209.9737842018148513
 20
309.5624461327495283
 30
0.0
 11
5210.0433813259151066
 21
309.6320432568494994
 31
0.0
  0
LINE
  5
D41A
  8
0
 10
5209.8109532166754434
 20
309.3662085280100769
 30
0.0
 11
5209.8677738165688424
 21
309.4230065460179731
 31
0.0
  0
LINE
  5
D41B
  8
0
 10
5210.0712201756150534
 20
309.6042044072495969
 30
0.0
 11
5210.0016230515147981
 21
309.5346072830495245
 31
0.0
  0
LINE
  5
D41C
  8
0
 10
5209.8191079187499781
 20
309.3465243804847091
 30
0.0
 11
5209.8698919217440562
 21
309.3973083834795261
 31
0.0
  0
LINE
  5
D41D
  8
0
 10
5209.8884502147266176
 20
309.4158666764612917
 30
0.0
 11
5209.8930515379151984
 21
309.4204679996494747
 31
0.0
  0
LINE
  5
D41E
  8
0
 10
5210.0155424763152041
 20
309.5206878582495165
 30
0.0
 11
5210.0851396004145499
 21
309.5902849823496013
 31
0.0
  0
LINE
  5
D41F
  8
0
 10
5210.1129784501154063
 20
309.5624461327495283
 30
0.0
 11
5210.0433813259151066
 21
309.4928490086495003
 31
0.0
  0
LINE
  5
D420
  8
0
 10
5220.5525470700149526
 20
320.0020147526494725
 30
0.0
 11
5220.6639024686146513
 21
320.1133701512495122
 31
0.0
  0
LINE
  5
D421
  8
0
 10
5210.0573007508146475
 20
309.4789295837495047
 30
0.0
 11
5210.1268978749139933
 21
309.5485267079495202
 31
0.0
  0
LINE
  5
D422
  8
0
 10
5210.1408172997153088
 20
309.5346072830495245
 30
0.0
 11
5220.5525470699149082
 21
319.9463370533495095
 31
0.0
  0
LINE
  5
D423
  8
0
 10
5220.5803859196148551
 20
319.9741759029495256
 30
0.0
 11
5220.694483846363255
 21
320.0881135358498
 31
0.0
  0
LINE
  5
D424
  8
0
 10
5220.7132392567764327
 20
320.1070292401108759
 30
0.0
 11
5220.8030967168151619
 21
320.1968867001494914
 31
0.0
  0
LINE
  5
D425
  8
0
 10
5210.0851396004145499
 20
309.4510907341494885
 30
0.0
 11
5211.2961295603154213
 21
310.6620806940495072
 31
0.0
  0
LINE
  5
D426
  8
0
 10
5210.0990590252149559
 20
309.4371713092494929
 30
0.0
 11
5210.6836748680152596
 21
310.0217871520495123
 31
0.0
  0
LINE
  5
D427
  8
0
 10
5211.393565534114714
 20
310.6760001188495153
 30
0.0
 11
5209.8882094258151483
 21
309.1706440105494949
 31
0.0
  0
LINE
  5
D428
  8
0
 10
5209.9075386884151158
 20
309.1110141455495182
 30
0.0
 11
5209.9113360188148363
 21
309.1148114760495105
 31
0.0
  0
LINE
  5
D429
  8
0
 10
5213.189171336714935
 20
312.3324116732495099
 30
0.0
 11
5211.7972288541150192
 21
310.9404691905494929
 31
0.0
  0
LINE
  5
D42A
  8
0
 10
5210.1002460940153469
 20
308.6421672780494987
 30
0.0
 11
5211.05393156831542
 21
309.595852752349515
 31
0.0
  0
LINE
  5
D42B
  8
0
 10
5220.1684762511149529
 20
320.0587678404494909
 30
0.0
 11
5220.2023350357148956
 21
320.046444250649472
 31
0.0
  0
LINE
  5
D42C
  8
0
 10
5209.4282734925136538
 20
309.2307234738494799
 30
0.0
 11
5209.413045810213589
 21
309.1980676038494948
 31
0.0
  0
LINE
  5
D42D
  8
0
 10
5220.2835101516147915
 20
320.1865259299494824
 30
0.0
 11
5220.1684762511149529
 21
320.0587678404494909
 31
0.0
  0
LINE
  5
D42E
  8
0
 10
5220.1573800411151751
 20
320.046444250649472
 30
0.0
 11
5220.0572408476145938
 21
319.9352284092494756
 31
0.0
  0
LINE
  5
D42F
  8
0
 10
5218.8961355156152422
 20
319.3199629361495226
 30
0.0
 11
5218.9935714894154444
 21
319.222526962349491
 31
0.0
  0
LINE
  5
D430
  8
0
 10
5219.4111542342143366
 20
318.8049442175495187
 30
0.0
 11
5219.4529125087146895
 21
318.7631859430495069
 31
0.0
  0
LINE
  5
D431
  8
0
 10
5219.0910074632147371
 20
319.1807686878494792
 30
0.0
 11
5219.0214103390144373
 21
319.2503658119495071
 31
0.0
  0
LINE
  5
D432
  8
0
 10
5219.2399453088146402
 20
319.6637727293494891
 30
0.0
 11
5219.2260258840151437
 21
319.6776921541494971
 31
0.0
  0
LINE
  5
D433
  8
0
 10
5219.5781873321147941
 20
319.5565931581494965
 30
0.0
 11
5219.6477844562150494
 21
319.4869960340495254
 31
0.0
  0
LINE
  5
D434
  8
0
 10
5219.6756233059140868
 20
319.6540291319495282
 30
0.0
 11
5219.619945606615147
 21
319.7097068312494912
 31
0.0
  0
LINE
  5
D435
  8
0
 10
5219.8426564038136348
 20
319.8210622298494741
 30
0.0
 11
5219.786978704514695
 21
319.8767399291494939
 31
0.0
  0
LINE
  5
D436
  8
0
 10
5220.0096895017150018
 20
319.8489010795494778
 30
0.0
 11
5219.9400923776147465
 21
319.9184982036495057
 31
0.0
  0
LINE
  5
D437
  8
0
 10
5219.8329128064151519
 20
320.2567402269496029
 30
0.0
 11
5219.8189933816147459
 21
320.2706596517494972
 31
0.0
  0
LINE
  5
D438
  8
0
 10
5220.0096895017150018
 20
320.1829672753494833
 30
0.0
 11
5220.0514477762144452
 21
320.1412090008495284
 31
0.0
  0
LINE
  5
D439
  8
0
 10
5220.5707612855148909
 20
319.9281228377495268
 30
0.0
 11
5220.3118462548145544
 21
320.1870378684495222
 31
0.0
  0
LINE
  5
D43A
  8
0
 10
5220.3096004896151499
 20
320.2449613330495026
 30
0.0
 11
5220.628460552415163
 21
319.9261012701495019
 31
0.0
  0
LINE
  5
D43B
  8
0
 10
5219.2260258840397
 20
321.5512467357744981
 30
0.0
 11
5219.8189933816402117
 21
320.958279238174498
 31
0.0
  0
LINE
  5
D43C
  8
0
 10
5220.2741585734138425
 20
320.5031140463494808
 30
0.0
 11
5220.3019974231137894
 21
320.4752751967495215
 31
0.0
  0
LINE
  5
D43D
  8
0
 10
5220.6639024686146513
 20
320.1133701512495122
 30
0.0
 11
5220.6918195385997024
 21
320.0854529711190253
 31
0.0
  0
LINE
  5
D43E
  8
0
 10
5220.1906420245150002
 20
320.6144694449495205
 30
0.0
 11
5218.8961355156152422
 21
321.9089759538495059
 31
0.0
  0
LINE
  5
D43F
  8
0
 10
5220.8030967168151619
 20
320.1968867001494914
 30
0.0
 11
5220.8448549913146053
 21
320.155128425749524
 31
0.0
  0
LINE
  5
D440
  8
0
 10
5220.3855139720153602
 20
320.6144694449495205
 30
0.0
 11
5218.9935714894154444
 21
322.0064119276495944
 31
0.0
  0
LINE
  5
D441
  8
0
 10
5220.4299434701151768
 20
319.7738808216495272
 30
0.0
 11
5220.4299434701151768
 21
319.8188358162494751
 31
0.0
  0
LINE
  5
D442
  8
0
 10
5220.4299434701151768
 20
319.8188358162494751
 30
0.0
 11
5220.4422670598150944
 21
319.7849770316494755
 31
0.0
  0
ARC
  5
D443
  8
0
 10
5179.8435292989215668
 20
311.2605707489535121
 30
0.0
 40
1.278267716492292
 50
25.8516449483766095
 51
48.5316050174779576
  0
ARC
  5
D444
  8
0
 10
5179.7321739003145922
 20
311.3719261475495159
 30
0.0
 40
1.2782677165
 50
25.851644948400061
 51
64.1483550516189496
  0
CIRCLE
  5
D445
  8
0
 10
5180.2937287104150528
 20
311.9334809576495218
 30
0.0
 40
0.0984251969
  0
ARC
  5
D446
  8
0
 10
5182.3609837399162643
 20
309.3824334668587994
 30
0.0
 40
0.2756249371601093
 50
150.2999053425781995
 51
293.0579421847801882
  0
ARC
  5
D447
  8
0
 10
5182.3331026940149968
 20
309.3545900678496992
 30
0.0
 40
0.2755905512001242
 50
141.9897687822277987
 51
293.8120305936791965
  0
ARC
  5
D448
  8
0
 10
5181.3237662403753347
 20
310.5693769172665952
 30
0.0
 40
0.0393704323550486
 50
45.1478877438565931
 51
134.9996762366386918
  0
ARC
  5
D449
  8
0
 10
5182.0893345131153183
 20
310.3327471026494777
 30
0.0
 40
0.0196850394
 50
45.0000000783147129
 51
135.0000000000046043
  0
ARC
  5
D44A
  8
0
 10
5182.3677230096145649
 20
310.0543586061494921
 30
0.0
 40
0.0196850394
 50
315.0000000000046043
 51
44.9999999217129201
  0
ARC
  5
D44B
  8
0
 10
5182.3593844504830486
 20
310.2965777810279064
 30
0.0
 40
0.0196608014975942
 50
44.983335005283557
 51
98.1654144840641436
  0
ARC
  5
D44C
  8
0
 10
5182.582706172138387
 20
308.8807123264929828
 30
0.0
 40
0.2729566962421833
 50
98.9831342074331246
 51
130.3135297531941887
  0
ARC
  5
D44D
  8
0
 10
5182.5834740903846978
 20
308.8781672066389774
 30
0.0
 40
0.2755905555398929
 50
21.1879722639492414
 51
23.5401014684411614
  0
ARC
  5
D44E
  8
0
 10
5183.0974598400825926
 20
309.0774530501905133
 30
0.0
 40
0.2756772563334936
 50
201.1972799213419023
 51
310.7777836461423249
  0
ARC
  5
D44F
  8
0
 10
5182.5556352447156314
 20
308.8503283586500743
 30
0.0
 40
0.2755905512005807
 50
86.9097180746316269
 51
269.7025294854606727
  0
ARC
  5
D450
  8
0
 10
5182.6444506004781942
 20
308.9416276393101271
 30
0.0
 40
0.1482209399099359
 50
45.3052256571273517
 51
47.3619669122377971
  0
ARC
  5
D451
  8
0
 10
5182.5556352445537414
 20
308.85032835857902
 30
0.0
 40
0.2755905513751665
 50
21.187972256211939
 51
31.3176593292013905
  0
ARC
  5
D452
  8
0
 10
5183.0695563946146649
 20
309.0495409570493166
 30
0.0
 40
0.2755905511998101
 50
201.1879386093748963
 51
338.1765743126741768
  0
ARC
  5
D453
  8
0
 10
5183.1090613266151195
 20
309.3916669412495253
 30
0.0
 40
0.2451531521
 50
90.0
 51
270.000000000104194
  0
ARC
  5
D454
  8
0
 10
5183.1090613266151195
 20
309.3916669412495253
 30
0.0
 40
0.2254681127
 50
90.0
 51
270.0
  0
CIRCLE
  5
D455
  8
0
 10
5182.5556352447147219
 20
308.8503283586495058
 30
0.0
 40
0.1181102362
  0
ARC
  5
D456
  8
0
 10
5182.6170855888149163
 20
308.6468998813494977
 30
0.0
 40
0.1181102362
 50
224.9999996166156961
 51
270.0
  0
ARC
  5
D457
  8
0
 10
5183.0477612290160323
 20
309.2481149777494807
 30
0.0
 40
0.0590551181
 50
180.0
 51
273.0000000006838832
  0
ARC
  5
D458
  8
0
 10
5183.1681164447154515
 20
309.208744898949476
 30
0.0
 40
0.0196850394
 50
180.0
 51
273.0000000008926122
  0
ARC
  5
D459
  8
0
 10
5183.52238009971461
 20
309.1951066852495273
 30
0.0
 40
0.0196850394
 50
0.9999999992002345
 51
143.673352448786801
  0
ARC
  5
D45A
  8
0
 10
5183.5225060052143817
 20
309.1878935607495009
 30
0.0
 40
0.0196850394
 50
272.9999999999012061
 51
1.00000000090098
  0
ARC
  5
D45B
  8
0
 10
5183.0477612290160323
 20
309.2481149777494807
 30
0.0
 40
0.0196850394
 50
225.0367556781638996
 51
273.000000000214186
  0
ARC
  5
D45C
  8
0
 10
5183.6232808373151784
 20
308.5366636608495128
 30
0.0
 40
0.0078740157
 50
270.0
 51
359.9999999994984137
  0
ARC
  5
D45D
  8
0
 10
5182.6431151943706936
 20
309.6868085445407814
 30
0.0
 40
0.0730634846068695
 50
353.497326337434572
 51
46.4688866616371428
  0
ARC
  5
D45E
  8
0
 10
5183.5225057505758741
 20
309.5954397737600061
 30
0.0
 40
0.0196856000664562
 50
359.3244694787921958
 51
86.9993433667782199
  0
ARC
  5
D45F
  8
0
 10
5183.52238009971461
 20
309.5882271972495232
 30
0.0
 40
0.0196850394
 50
216.3266475515000025
 51
359.0000000007997869
  0
ARC
  5
D460
  8
0
 10
5183.1681164447154515
 20
309.5745889835495177
 30
0.0
 40
0.0196850394
 50
86.9999999988985167
 51
180.0
  0
ARC
  5
D461
  8
0
 10
5182.9718472302702139
 20
309.6841150016268784
 30
0.0
 40
0.0196608012952537
 50
351.8345849633751072
 51
45.0166651334541186
  0
ARC
  5
D462
  8
0
 10
5182.5767836177592471
 20
312.8218124326402858
 30
0.0
 40
4.2471309306009664
 50
269.6953947678362056
 51
294.6807790541494114
  0
ARC
  5
D463
  8
0
 10
5184.7804233164106336
 20
312.7454474088281131
 30
0.0
 40
4.1601049914236148
 50
211.3144531832969051
 51
222.1849909406539894
  0
ARC
  5
D464
  8
0
 10
5180.6653782099301679
 20
311.808214730776001
 30
0.0
 40
0.0228341177341149
 50
322.4130000118015005
 51
37.3541965136764773
  0
ARC
  5
D465
  8
0
 10
5189.1894935125146731
 20
309.0373362326495226
 30
0.0
 40
2.2637795276000001
 50
180.0
 51
270.0
  0
ARC
  5
D466
  8
0
 10
5189.1894935125146731
 20
309.0373362326495226
 30
0.0
 40
1.279527559099999
 50
180.0
 51
270.0
  0
ARC
  5
D467
  8
0
 10
5185.3458643329840925
 20
311.6712805770775958
 30
0.0
 40
4.2433537994863091
 50
195.5847126692137863
 51
225.2836687584533024
  0
ARC
  5
D468
  8
0
 10
5183.7402759914139097
 20
316.8101690922495095
 30
0.0
 40
7.8740157479999988
 50
262.6265658117811199
 51
272.815009056090787
  0
ARC
  5
D469
  8
0
 10
5187.5323588884148194
 20
315.2394369266494891
 30
0.0
 40
7.8740157479999988
 50
222.1849909439119983
 51
232.3734341881948069
  0
ARC
  5
D46A
  8
0
 10
5183.9226713960151756
 20
313.1007398830495276
 30
0.0
 40
4.1601049869000004
 50
272.8150090565080745
 51
283.6855438993869143
  0
ARC
  5
D46B
  8
0
 10
5175.2873755805630935
 20
322.2941728363309721
 30
0.0
 40
4.1601049860731996
 50
211.3144531733674114
 51
238.6855468287880058
  0
ARC
  5
D46C
  8
0
 10
5172.2017650691141171
 20
319.0972069262494983
 30
0.0
 40
1.2782677165
 50
25.851644948400061
 51
64.1483550516189496
  0
ARC
  5
D46D
  8
0
 10
5172.2017650691886956
 20
322.085519473274303
 30
0.0
 40
1.2782677165
 50
295.8516449483810788
 51
334.1483550515998786
  0
ARC
  5
D46E
  8
0
 10
5172.109106912515017
 20
320.0624250563495252
 30
0.0
 40
0.2451531521
 50
44.9999999999953886
 51
224.9999999999953957
  0
ARC
  5
D46F
  8
0
 10
5172.109106912515017
 20
320.0624250563495252
 30
0.0
 40
0.2254681127
 50
44.9999999999953886
 51
224.9999999999953957
  0
ARC
  5
D470
  8
0
 10
5172.544404931813915
 20
319.9138407183676236
 30
0.0
 40
0.0207566127698184
 50
300.6549720272145123
 51
40.5576055818928722
  0
ARC
  5
D471
  8
0
 10
5172.5402463825002997
 20
319.9097207509042278
 30
0.0
 40
0.0201492832393255
 50
171.339225179857209
 51
317.0225557303783148
  0
ARC
  5
D472
  8
0
 10
5172.280208687870072
 20
320.150008086718401
 30
0.0
 40
0.0196892143667995
 50
42.0051617579359231
 51
134.0648992038879044
  0
ARC
  5
D473
  8
0
 10
5172.0215239768649553
 20
319.8913196674819233
 30
0.0
 40
0.0196892144631859
 50
135.0051618770974073
 51
227.0648988625459879
  0
ARC
  5
D474
  8
0
 10
5172.2623783297149203
 20
319.6311754591495173
 30
0.0
 40
0.0196850394
 50
314.4937977886968952
 51
98.6733524482808946
  0
ARC
  5
D475
  8
0
 10
5172.2577952168749107
 20
319.6274978358146086
 30
0.0
 40
0.021099897778099
 50
229.2141942252428066
 51
330.5806289970968805
  0
ARC
  5
D476
  8
0
 10
5207.8812306660183822
 20
312.7963925036287947
 30
0.0
 40
4.1601049914246087
 50
317.8150090594714925
 51
328.6855468166975243
  0
ARC
  5
D477
  8
0
 10
5202.6540604416150018
 20
309.0373362326495226
 30
0.0
 40
2.2637795276000001
 50
270.0
 51
0.0
  0
ARC
  5
D478
  8
0
 10
5202.6540604416150018
 20
309.0373362326495226
 30
0.0
 40
1.279527559099999
 50
270.0
 51
0.0
  0
ARC
  5
D479
  8
0
 10
5212.2883513746137396
 20
311.4276038468494789
 30
0.0
 40
1.2782677165
 50
115.8516449483809936
 51
154.148355051599907
  0
ARC
  5
D47A
  8
0
 10
5204.4257139849150917
 20
311.5176511932494918
 30
0.0
 40
0.4921259843
 50
0.0
 51
180.0
  0
ARC
  5
D47B
  8
0
 10
5209.6444943974147463
 20
309.3916669412495253
 30
0.0
 40
0.2451531521
 50
270.0
 51
90.0000000001042082
  0
ARC
  5
D47C
  8
0
 10
5209.6444943974147463
 20
309.3916669412495253
 30
0.0
 40
0.2254681127
 50
270.0
 51
90.0
  0
ARC
  5
D47D
  8
0
 10
5210.0167295440151065
 20
308.7256838258495009
 30
0.0
 40
0.1181102362
 50
270.0
 51
315.0000003819840231
  0
CIRCLE
  5
D47E
  8
0
 10
5211.7267965645160075
 20
311.9891586569494848
 30
0.0
 40
0.0984251969
  0
ARC
  5
D47F
  8
0
 10
5209.8373738385143952
 20
309.476145698849507
 30
0.0
 40
0.0787401575
 50
315.0000001059917736
 51
44.999999797315823
  0
ARC
  5
D480
  8
0
 10
5209.8373738385143952
 20
309.476145698849507
 30
0.0
 40
0.0590551180999938
 50
323.2234987595319922
 51
45.0000000141217882
  0
ARC
  5
D481
  8
0
 10
5209.752546090814576
 20
309.3634791014496273
 30
0.0
 40
0.0590551181000478
 50
270.0000000193329015
 51
307.840675694571928
  0
ARC
  5
D482
  8
0
 10
5209.7522674847559756
 20
309.3648797486987974
 30
0.0
 40
0.0407716778631248
 50
270.3915236376532789
 51
314.6084763599878897
  0
ARC
  5
D483
  8
0
 10
5208.5421308047643834
 20
309.5427654257608197
 30
0.0
 40
0.0196807070376198
 50
89.9959593853149045
 51
161.0787456252251957
  0
ARC
  5
D484
  8
0
 10
5208.935834368065116
 20
309.5427654257608197
 30
0.0
 40
0.0196807070376261
 50
18.9212543747717206
 51
90.0040406146850813
  0
ARC
  5
D485
  8
0
 10
5209.2310497188136651
 20
309.1878935607495009
 30
0.0
 40
0.0196850394
 50
179.3228655532996072
 51
267.0000000003075229
  0
ARC
  5
D486
  8
0
 10
5209.2311756244143908
 20
309.1951066852495273
 30
0.0
 40
0.0196850394
 50
36.3266475514999883
 51
179.0000000007997869
  0
ARC
  5
D487
  8
0
 10
5209.5854392793144143
 20
309.208744898949476
 30
0.0
 40
0.0196850394
 50
266.9999999988984882
 51
0.0
  0
ARC
  5
D488
  8
0
 10
5209.5854392793144143
 20
309.5745889835495177
 30
0.0
 40
0.0196850394
 50
0.0
 51
93.0000000008926548
  0
ARC
  5
D489
  8
0
 10
5209.2311756244143908
 20
309.5882271973495108
 30
0.0
 40
0.0196850394
 50
180.9999999992002131
 51
323.6733524487867726
  0
ARC
  5
D48A
  8
0
 10
5209.2310497188136651
 20
309.5954403218494804
 30
0.0
 40
0.0196850394
 50
92.9999999999011635
 51
181.0000000009009966
  0
ARC
  5
D48B
  8
0
 10
5211.0400121434868197
 20
309.6097721771608917
 30
0.0
 40
0.0196850394276158
 50
315.0000000333192816
 51
45.0020714205605614
  0
ARC
  5
D48C
  8
0
 10
5210.2744437781138913
 20
310.3753405426494965
 30
0.0
 40
0.0196850394
 50
44.9999999999953886
 51
134.9999999994103916
  0
ARC
  5
D48D
  8
0
 10
5209.6619890857145947
 20
309.7628858502495177
 30
0.0
 40
0.0196850394
 50
135.0000000000046043
 51
224.9999999990166089
  0
ARC
  5
D48E
  8
0
 10
5205.1292950940151059
 20
315.2903820215494761
 30
0.0
 40
7.8740157479999988
 50
307.6265658118031752
 51
317.8150090560881154
  0
ARC
  5
D48F
  8
0
 10
5208.9213779910151061
 20
316.8611141871494965
 30
0.0
 40
7.8740157479999988
 50
267.184990943909213
 51
277.3734341882188801
  0
ARC
  5
D490
  8
0
 10
5217.2907618529397951
 20
322.3172790815590929
 30
0.0
 40
4.1601049861118629
 50
301.3144531713364813
 51
328.6855468265109153
  0
ARC
  5
D491
  8
0
 10
5208.7389825855680101
 20
313.1516849691108177
 30
0.0
 40
4.1601049781302848
 50
256.314453157454011
 51
267.1849909493352015
  0
ARC
  5
D492
  8
0
 10
5220.3763723643151025
 20
319.1203131714494816
 30
0.0
 40
1.2782677165
 50
115.8516449483809936
 51
154.148355051599907
  0
ARC
  5
D493
  8
0
 10
5220.3763723643396588
 20
322.1086257184745136
 30
0.0
 40
1.2782677165
 50
205.8516449484000077
 51
244.1483550516188927
  0
ARC
  5
D494
  8
0
 10
5220.4690305210151564
 20
320.0855313015495085
 30
0.0
 40
0.2451531521
 50
315.0000000000046043
 51
135.0000000000046043
  0
ARC
  5
D495
  8
0
 10
5220.4690305210151564
 20
320.0855313015495085
 30
0.0
 40
0.2254681127
 50
315.0000000000046043
 51
135.0000000000046043
  0
ARC
  5
D496
  8
0
 10
5220.3204461830328
 20
319.6502332822499852
 30
0.0
 40
0.0207566127698293
 50
210.6549720272170987
 51
310.5576055819740873
  0
ARC
  5
D497
  8
0
 10
5220.3163262155567281
 20
319.6543918315610995
 30
0.0
 40
0.0201492832287117
 50
81.3392254257449991
 51
227.0225557523066868
  0
ARC
  5
D498
  8
0
 10
5220.5566135513836343
 20
319.9144295261946809
 30
0.0
 40
0.0196892143667874
 50
312.0051617578973833
 51
44.0648992039133702
  0
ARC
  5
D499
  8
0
 10
5220.2979251321467018
 20
320.1731142371991723
 30
0.0
 40
0.0196892144631834
 50
45.0051618771964925
 51
137.0648988625563049
  0
ARC
  5
D49A
  8
0
 10
5220.0377809238143527
 20
319.932259884249504
 30
0.0
 40
0.0196850394
 50
224.4937977887983038
 51
8.6733524482962956
  0
ARC
  5
D49B
  8
0
 10
5220.0341033004797282
 20
319.9368429970895136
 30
0.0
 40
0.0210998977781693
 50
139.2141942254158096
 51
240.5806289969796978
  0
ARC
  5
D49C
  8
0
 10
5209.0108140722149983
 20
308.6157281306485061
 30
0.0
 40
0.0081586167077796
 50
181.9704424154076037
 51
268.1888725293653124
  0
LINE
  5
D49D
  8
0
 10
5211.7309723919233875
 20
312.5779503271327826
 30
0.0
 11
5211.7448918167610827
 21
312.5640309022954852
 31
0.0
  0
ENDSEC
  0
EOF
