  0
SECTION
  2
HEADER
  9
$ACADVER
  1
AC1009
  9
$INSBASE
 10
5089.7564550261540717
 20
283.960504494156396
 30
0.0
  9
$EXTMIN
 10
5065.2006687515040539
 20
283.9552181694671731
 30
0.0
  9
$EXTMAX
 10
5114.312241300704045
 20
370.5746777224568973
 30
0.0
  9
$LIMMIN
 10
0.0
 20
0.0
  9
$LIMMAX
 10
11.6929133858000007
 20
8.2677165353999982
  9
$ORTHOMODE
 70
     1
  9
$REGENMODE
 70
     1
  9
$FILLMODE
 70
     1
  9
$QTEXTMODE
 70
     0
  9
$MIRRTEXT
 70
     0
  9
$DRAGMODE
 70
     2
  9
$LTSCALE
 40
0.6431102362
  9
$OSMODE
 70
  4095
  9
$ATTMODE
 70
     1
  9
$TEXTSIZE
 40
0.2
  9
$TRACEWID
 40
0.05
  9
$TEXTSTYLE
  7
STANDARD
  9
$CLAYER
  8
0
  9
$CELTYPE
  6
BYLAYER
  9
$CECOLOR
 62
   256
  9
$DIMSCALE
 40
1.0
  9
$DIMASZ
 40
0.1875
  9
$DIMEXO
 40
0.0625
  9
$DIMDLI
 40
0.4443307087
  9
$DIMRND
 40
0.0
  9
$DIMDLE
 40
0.0
  9
$DIMEXE
 40
0.125
  9
$DIMTP
 40
0.01
  9
$DIMTM
 40
0.01
  9
$DIMTXT
 40
2.0
  9
$DIMCEN
 40
0.1052362205
  9
$DIMTSZ
 40
0.0
  9
$DIMTOL
 70
     1
  9
$DIMLIM
 70
     0
  9
$DIMTIH
 70
     1
  9
$DIMTOH
 70
     1
  9
$DIMSE1
 70
     0
  9
$DIMSE2
 70
     0
  9
$DIMTAD
 70
     0
  9
$DIMZIN
 70
     0
  9
$DIMBLK
  1

  9
$DIMASO
 70
     1
  9
$DIMSHO
 70
     1
  9
$DIMPOST
  1
\X
  9
$DIMAPOST
  1

  9
$DIMALT
 70
     1
  9
$DIMALTD
 70
     2
  9
$DIMALTF
 40
25.3999999999999986
  9
$DIMLFAC
 40
1.0
  9
$DIMTOFL
 70
     0
  9
$DIMTVP
 40
0.0
  9
$DIMTIX
 70
     0
  9
$DIMSOXD
 70
     0
  9
$DIMSAH
 70
     0
  9
$DIMBLK1
  1

  9
$DIMBLK2
  1

  9
$DIMSTYLE
  2
STANDARD
  9
$DIMCLRD
 70
     0
  9
$DIMCLRE
 70
     0
  9
$DIMCLRT
 70
     0
  9
$DIMTFAC
 40
1.0
  9
$DIMGAP
 40
0.09
  9
$LUNITS
 70
     2
  9
$LUPREC
 70
     4
  9
$SKETCHINC
 40
0.1
  9
$FILLETRAD
 40
0.0
  9
$AUNITS
 70
     0
  9
$AUPREC
 70
     0
  9
$MENU
  1
.
  9
$ELEVATION
 40
0.0
  9
$PELEVATION
 40
0.0
  9
$THICKNESS
 40
0.0
  9
$LIMCHECK
 70
     0
  9
$BLIPMODE
 70
     0
  9
$CHAMFERA
 40
0.0
  9
$CHAMFERB
 40
0.0
  9
$SKPOLY
 70
     0
  9
$TDCREATE
 40
2458060.468368056230247
  9
$TDUPDATE
 40
2459153.9006481477990746
  9
$TDINDWG
 40
0.347321875
  9
$TDUSRTIMER
 40
0.347321875
  9
$USRTIMER
 70
     1
  9
$ANGBASE
 50
0.0
  9
$ANGDIR
 70
     0
  9
$PDMODE
 70
     0
  9
$PDSIZE
 40
0.3125
  9
$PLINEWID
 40
0.0
  9
$COORDS
 70
     1
  9
$SPLFRAME
 70
     0
  9
$SPLINETYPE
 70
     6
  9
$SPLINESEGS
 70
     8
  9
$ATTDIA
 70
     1
  9
$ATTREQ
 70
     1
  9
$HANDLING
 70
     1
  9
$HANDSEED
  5
D293
  9
$SURFTAB1
 70
     6
  9
$SURFTAB2
 70
     6
  9
$SURFTYPE
 70
     6
  9
$SURFU
 70
     6
  9
$SURFV
 70
     6
  9
$UCSNAME
  2

  9
$UCSORG
 10
0.0
 20
0.0
 30
0.0
  9
$UCSXDIR
 10
1.0
 20
0.0
 30
0.0
  9
$UCSYDIR
 10
0.0
 20
1.0
 30
0.0
  9
$PUCSNAME
  2

  9
$PUCSORG
 10
0.0
 20
0.0
 30
0.0
  9
$PUCSXDIR
 10
1.0
 20
0.0
 30
0.0
  9
$PUCSYDIR
 10
0.0
 20
1.0
 30
0.0
  9
$USERI1
 70
     0
  9
$USERI2
 70
     0
  9
$USERI3
 70
     0
  9
$USERI4
 70
     0
  9
$USERI5
 70
     0
  9
$USERR1
 40
0.0
  9
$USERR2
 40
0.0
  9
$USERR3
 40
0.0
  9
$USERR4
 40
0.0
  9
$USERR5
 40
0.0
  9
$WORLDVIEW
 70
     1
  9
$SHADEDGE
 70
     3
  9
$SHADEDIF
 70
    70
  9
$TILEMODE
 70
     1
  9
$MAXACTVP
 70
    64
  9
$PLIMCHECK
 70
     0
  9
$PEXTMIN
 10
1.0000000000000000E+20
 20
1.0000000000000000E+20
 30
1.0000000000000000E+20
  9
$PEXTMAX
 10
-1.0000000000000000E+20
 20
-1.0000000000000000E+20
 30
-1.0000000000000000E+20
  9
$PLIMMIN
 10
0.0
 20
0.0
  9
$PLIMMAX
 10
12.0
 20
9.0
  9
$UNITMODE
 70
     0
  9
$VISRETAIN
 70
     1
  9
$PLINEGEN
 70
     0
  9
$PSLTSCALE
 70
     1
  0
ENDSEC
  0
SECTION
  2
TABLES
  0
TABLE
  2
VPORT
 70
     1
  0
VPORT
  2
*ACTIVE
 70
     0
 10
0.0
 20
0.0
 11
1.0
 21
1.0
 12
0.0
 22
0.0
 13
0.0
 23
0.0
 14
1.0
 24
1.0
 15
0.0
 25
0.0
 16
0.0
 26
0.0
 36
282.1387779361147068
 17
5089.75634765625
 27
327.2649473415694956
 37
0.0
 40
99.5747648331148127
 41
2.1186252771618621
 42
50.0
 43
0.0
 44
0.0
 50
0.0
 51
0.0
 71
     0
 72
   100
 73
     1
 74
     1
 75
     0
 76
     0
 77
     0
 78
     0
  0
ENDTAB
  0
TABLE
  2
LTYPE
 70
     2
  0
LTYPE
  2
CONTINUOUS
 70
     0
  3
Solid line
 72
    65
 73
     0
 40
0.0
  0
LTYPE
  2
PHANTOM2
 70
     0
  3
___ _ _ ___ _ _ ___ _ _ ___ _ _
 72
    65
 73
     6
 40
1.25
 49
0.625
 49
-0.125
 49
0.125
 49
-0.125
 49
0.125
 49
-0.125
  0
ENDTAB
  0
TABLE
  2
LAYER
 70
     2
  0
LAYER
  2
0
 70
     0
 62
   255
  6
CONTINUOUS
  0
LAYER
  2
DEFPOINTS
 70
     0
 62
     7
  6
CONTINUOUS
  0
ENDTAB
  0
TABLE
  2
STYLE
 70
     1
  0
STYLE
  2
STANDARD
 70
     0
 40
0.0
 41
0.8
 50
0.0
 71
     0
 42
0.2
  3
txt
  4

  0
ENDTAB
  0
TABLE
  2
VIEW
 70
     0
  0
ENDTAB
  0
TABLE
  2
UCS
 70
     0
  0
ENDTAB
  0
TABLE
  2
APPID
 70
     9
  0
APPID
  2
ACAD
 70
     0
  0
APPID
  2
ACAD_MLEADERVER
 70
     0
  0
APPID
  2
ACAD_EXEMPT_FROM_CAD_STANDARDS
 70
     0
  0
APPID
  2
ACAD_NAV_VCDISPLAY
 70
     0
  0
APPID
  2
ACAECLAYERSTANDARD
 70
     0
  0
APPID
  2
ACCMTRANSPARENCY
 70
     0
  0
APPID
  2
ACAD_DSTYLE_DIMJAG
 70
     0
  0
APPID
  2
ACAD_DSTYLE_DIMTALN
 70
     0
  0
APPID
  2
ACDBATTR
 70
     0
  0
ENDTAB
  0
TABLE
  2
DIMSTYLE
 70
     1
  0
DIMSTYLE
  2
STANDARD
 70
     0
  3

  4

  5

  6

  7

 40
1.0
 41
0.1875
 42
0.0625
 43
0.38
 44
0.125
 45
0.0
 46
0.0
 47
0.01
 48
0.01
140
0.15625
141
0.09
142
0.0
143
25.3999999999999986
144
1.0
145
0.0
146
1.0
147
0.09
 71
     1
 72
     0
 73
     1
 74
     1
 75
     0
 76
     0
 77
     0
 78
     4
170
     0
171
     2
172
     0
173
     0
174
     0
175
     0
176
     0
177
     0
178
     0
  0
ENDTAB
  0
ENDSEC
  0
SECTION
  2
BLOCKS
  0
BLOCK
  8
0
  2
$MODEL_SPACE
 70
     0
 10
0.0
 20
0.0
 30
0.0
  3
$MODEL_SPACE
  1

  0
ENDBLK
  5
21
  8
0
  0
BLOCK
 67
     1
  8
0
  2
$PAPER_SPACE
 70
     0
 10
0.0
 20
0.0
 30
0.0
  3
$PAPER_SPACE
  1

  0
ENDBLK
  5
1D
 67
     1
  8
0
  0
ENDSEC
  0
SECTION
  2
ENTITIES
  0
ATTDEF
  5
3930
  8
DEFPOINTS
 10
5089.7508922064616854
 20
283.9585515028005034
 30
0.0
 40
0.001
  1
K-97717T-L
  3

  2
MODELNUMBER
 70
     0
1001
ACDBATTR
1070
     0
1070
     1
  0
ATTDEF
  5
3931
  8
DEFPOINTS
 10
5089.7508922064616854
 20
283.9568848361338951
 30
0.0
 40
0.001
  1
TRILGOY
  3

  2
TRADENAME
 70
     0
1001
ACDBATTR
1070
     0
1070
     1
  0
ATTDEF
  5
3932
  8
DEFPOINTS
 10
5089.7508922064616854
 20
283.9552181694671731
 30
0.0
 40
0.001
  1
SHOWER DOOR
  3

  2
PRODUCT
 70
     0
1001
ACDBATTR
1070
     0
1070
     1
  0
LINE
  5
D05C
  8
0
 10
5065.3313400698043552
 20
283.960504494156396
 30
0.0
 11
5114.1815699825046977
 21
283.960504494156396
 31
0.0
  0
LINE
  5
D05D
  8
0
 10
5102.6103521861041372
 20
284.0077485886565114
 30
0.0
 11
5077.0985411625042616
 21
284.0077485886565114
 31
0.0
  0
LINE
  5
D05E
  8
0
 10
5075.0415042593049293
 20
284.2360950453564783
 30
0.0
 11
5074.7238089557049534
 21
284.2360950453564783
 31
0.0
  0
LINE
  5
D05F
  8
0
 10
5077.0985411625042616
 20
284.3148352027565124
 30
0.0
 11
5102.6103521861041372
 21
284.3148352027565124
 31
0.0
  0
LINE
  5
D060
  8
0
 10
5102.2828640738052854
 20
284.3542052815564034
 30
0.0
 11
5102.4700465891037311
 21
284.3542052815564034
 31
0.0
  0
LINE
  5
D061
  8
0
 10
5077.0906671467037086
 20
284.3935759583740719
 30
0.0
 11
5075.0492651694303277
 21
284.3935745478672743
 31
0.0
  0
LINE
  5
D062
  8
0
 10
5102.2828640738052854
 20
284.8187722107564923
 30
0.0
 11
5074.7238089557049534
 21
284.8187722107564923
 31
0.0
  0
LINE
  5
D063
  8
0
 10
5103.0482570745052726
 20
284.8660163051565064
 30
0.0
 11
5103.9799351459041645
 21
284.8660163051565064
 31
0.0
  0
LINE
  5
D064
  8
0
 10
5074.7238089557049534
 20
285.3581422894565094
 30
0.0
 11
5101.7723900952041731
 21
285.3581422894565094
 31
0.0
  0
LINE
  5
D065
  8
0
 10
5074.7517823783045969
 20
294.4132603996565081
 30
0.0
 11
5078.1768446558044161
 21
294.4132603996565081
 31
0.0
  0
LINE
  5
D066
  8
0
 10
5066.3072298830047657
 20
294.7872761476564847
 30
0.0
 11
5065.2006687515040539
 21
294.7872761476564847
 31
0.0
  0
LINE
  5
D067
  8
0
 10
5076.3658210339035577
 20
295.0786147303564917
 30
0.0
 11
5075.7752698526046515
 21
295.0786147303564917
 31
0.0
  0
LINE
  5
D068
  8
0
 10
5075.6404510685051719
 20
295.1219218169565011
 30
0.0
 11
5076.3264504523049254
 21
295.1219218169565011
 31
0.0
  0
LINE
  5
D069
  8
0
 10
5076.3264508406036839
 20
296.4605044941565097
 30
0.0
 11
5075.6404510685051719
 21
296.4605044941565097
 31
0.0
  0
LINE
  5
D06A
  8
0
 10
5075.7752698526046515
 20
296.5038115807565191
 30
0.0
 11
5076.3658210339035577
 21
296.5038115807565191
 31
0.0
  0
LINE
  5
D06B
  8
0
 10
5066.3072298830047657
 20
296.7557800846565215
 30
0.0
 11
5065.2006687515040539
 21
296.7557800846565215
 31
0.0
  0
LINE
  5
D06C
  8
0
 10
5078.1768446558044161
 20
297.1691659114565027
 30
0.0
 11
5074.7517823783045969
 21
297.1691659114565027
 31
0.0
  0
LINE
  5
D06D
  8
0
 10
5065.2006687515040539
 20
294.7872761476564847
 30
0.0
 11
5065.2006687515040539
 21
296.7557800846565215
 31
0.0
  0
LINE
  5
D06E
  8
0
 10
5065.3313400698043552
 20
370.5746777224564994
 30
0.0
 11
5065.3313400698043552
 21
359.7479060689565245
 31
0.0
  0
LINE
  5
D06F
  8
0
 10
5065.3313400698043552
 20
357.7794021319564877
 30
0.0
 11
5065.3313400698043552
 21
328.2518430768064945
 31
0.0
  0
LINE
  5
D070
  8
0
 10
5065.3313400698043552
 20
326.2833391398065146
 30
0.0
 11
5065.3313400698043552
 21
296.7557800846565215
 31
0.0
  0
LINE
  5
D071
  8
0
 10
5065.3313400698043552
 20
294.7872761476564847
 30
0.0
 11
5065.3313400698043552
 21
283.9605044941565097
 31
0.0
  0
LINE
  5
D072
  8
0
 10
5065.7494496785047886
 20
370.5746777224564994
 30
0.0
 11
5065.7494496785047886
 21
359.7479060689565245
 31
0.0
  0
LINE
  5
D073
  8
0
 10
5065.7494496785047886
 20
357.7794021319564877
 30
0.0
 11
5065.7494496785047886
 21
328.2518430768064945
 31
0.0
  0
LINE
  5
D074
  8
0
 10
5065.7494496785047886
 20
326.2833391398065146
 30
0.0
 11
5065.7494496785047886
 21
296.7557800846565215
 31
0.0
  0
LINE
  5
D075
  8
0
 10
5065.7494496785047886
 20
294.7872761476564847
 30
0.0
 11
5065.7494496785047886
 21
283.9605044941565097
 31
0.0
  0
LINE
  5
D076
  8
0
 10
5074.4292474115036384
 20
285.4663631357565237
 30
0.0
 11
5074.4292474115036384
 21
283.960504494156396
 31
0.0
  0
LINE
  5
D077
  8
0
 10
5074.7238089557049534
 20
285.3581422894565094
 30
0.0
 11
5074.7238089557049534
 21
284.2360950453564783
 31
0.0
  0
LINE
  5
D078
  8
0
 10
5074.7517823783045969
 20
294.4132603996565081
 30
0.0
 11
5074.7517823783045969
 21
297.1691659114565027
 31
0.0
  0
LINE
  5
D079
  8
0
 10
5075.0415042593049293
 20
284.3857013445564803
 30
0.0
 11
5075.0415042593049293
 21
283.9605044941565097
 31
0.0
  0
LINE
  5
D07A
  8
0
 10
5075.6404510687043512
 20
297.1691659114565027
 30
0.0
 11
5075.6404510686043068
 21
296.4605044943564849
 31
0.0
  0
LINE
  5
D07B
  8
0
 10
5075.6404510686043068
 20
295.1219218167565259
 30
0.0
 11
5075.6404510687043512
 21
294.4132603996565081
 31
0.0
  0
LINE
  5
D07C
  8
0
 10
5075.7752698526046515
 20
297.1691659114565027
 30
0.0
 11
5075.7752698526046515
 21
296.4605044941565097
 31
0.0
  0
LINE
  5
D07D
  8
0
 10
5075.7752698526046515
 20
295.1219218169565011
 30
0.0
 11
5075.7752698526046515
 21
294.4132603996565081
 31
0.0
  0
LINE
  5
D07E
  8
0
 10
5075.786801081703743
 20
285.3581422894565094
 30
0.0
 11
5075.786801081703743
 21
294.4132603996565081
 31
0.0
  0
LINE
  5
D07F
  8
0
 10
5075.786801081703743
 20
297.1691659114565027
 30
0.0
 11
5075.786801081703743
 21
345.5549926831565131
 31
0.0
  0
LINE
  5
D080
  8
0
 10
5075.786801081703743
 20
348.3108981949565077
 30
0.0
 11
5075.786801081703743
 21
358.7636541004565061
 31
0.0
  0
LINE
  5
D081
  8
0
 10
5075.9603841424050188
 20
285.3581422894565094
 30
0.0
 11
5075.9603841424050188
 21
294.4132603996565081
 31
0.0
  0
LINE
  5
D082
  8
0
 10
5075.9603841424050188
 20
297.1691659114565027
 30
0.0
 11
5075.9603841424050188
 21
345.5549926831565131
 31
0.0
  0
LINE
  5
D083
  8
0
 10
5075.9603841424050188
 20
348.3108981949565077
 30
0.0
 11
5075.9603841424050188
 21
362.8975123681565265
 31
0.0
  0
LINE
  5
D084
  8
0
 10
5075.9603841424050188
 20
364.8660163051565064
 30
0.0
 11
5075.9603841424050188
 21
370.5746777224564994
 31
0.0
  0
LINE
  5
D085
  8
0
 10
5076.0009553492036503
 20
283.9605044941565097
 30
0.0
 11
5076.0009553481040712
 21
284.2518430324565202
 31
0.0
  0
LINE
  5
D086
  8
0
 10
5076.1830949397035511
 20
358.7636541004565061
 30
0.0
 11
5076.1830949397035511
 21
362.8975123681565265
 31
0.0
  0
LINE
  5
D087
  8
0
 10
5076.1830949397035511
 20
364.8660163051565064
 30
0.0
 11
5076.1830949397035511
 21
370.5746777224564994
 31
0.0
  0
LINE
  5
D088
  8
0
 10
5076.1925605363048817
 20
364.8660163051565064
 30
0.0
 11
5076.1925605363048817
 21
362.8975123681565265
 31
0.0
  0
LINE
  5
D089
  8
0
 10
5076.3264509550035655
 20
295.0786147303564917
 30
0.0
 11
5076.3264509550035655
 21
296.5038115807565191
 31
0.0
  0
LINE
  5
D08A
  8
0
 10
5076.3312944839035481
 20
370.5746777224564994
 30
0.0
 11
5076.3312944839035481
 21
364.8660163051565064
 31
0.0
  0
LINE
  5
D08B
  8
0
 10
5076.3312944839035481
 20
362.8975123681565265
 30
0.0
 11
5076.3312944839035481
 21
359.0786147303564917
 31
0.0
  0
LINE
  5
D08C
  8
0
 10
5076.3658210337043784
 20
295.078614729856497
 30
0.0
 11
5076.3658210337043784
 21
296.5038115812565138
 31
0.0
  0
LINE
  5
D08D
  8
0
 10
5076.4560924203042305
 20
284.3935753602564773
 30
0.0
 11
5076.4560924203042305
 21
284.8187722107564923
 31
0.0
  0
LINE
  5
D08E
  8
0
 10
5076.4560924203042305
 20
285.3581422894565094
 30
0.0
 11
5076.4560924203042305
 21
294.4132603996565081
 31
0.0
  0
LINE
  5
D08F
  8
0
 10
5076.4560924203042305
 20
297.1691659114565027
 30
0.0
 11
5076.4560924203042305
 21
345.5549926831565131
 31
0.0
  0
LINE
  5
D090
  8
0
 10
5076.4560924203042305
 20
348.3108981949565077
 30
0.0
 11
5076.4560924203042305
 21
358.7636541004565061
 31
0.0
  0
LINE
  5
D091
  8
0
 10
5076.8884219285037034
 20
284.3935753602564773
 30
0.0
 11
5076.8884219285037034
 21
284.8187722107564923
 31
0.0
  0
LINE
  5
D092
  8
0
 10
5076.8884219285037034
 20
285.3581422894565094
 30
0.0
 11
5076.8884219285037034
 21
294.4132603996565081
 31
0.0
  0
LINE
  5
D093
  8
0
 10
5076.8884219285037034
 20
297.1691659114565027
 30
0.0
 11
5076.8884219285037034
 21
345.5549926831565131
 31
0.0
  0
LINE
  5
D094
  8
0
 10
5076.8884219285037034
 20
348.3108981949565077
 30
0.0
 11
5076.8884219285037034
 21
358.7636541004565061
 31
0.0
  0
LINE
  5
D095
  8
0
 10
5076.8884219285037034
 20
297.1691659114565027
 30
0.0
 11
5076.8884219285037034
 21
345.5549926831565131
 31
0.0
  0
LINE
  5
D096
  8
0
 10
5076.8884219285037034
 20
348.3108981949565077
 30
0.0
 11
5076.8884219285037034
 21
358.7636541004565061
 31
0.0
  0
LINE
  5
D097
  8
0
 10
5077.0095743559040784
 20
370.5746777224564994
 30
0.0
 11
5077.0095743559040784
 21
364.8660163051565064
 31
0.0
  0
LINE
  5
D098
  8
0
 10
5077.0095743559040784
 20
362.8975123681565265
 30
0.0
 11
5077.0095743559040784
 21
359.0786147303564917
 31
0.0
  0
LINE
  5
D099
  8
0
 10
5077.0985411625042616
 20
284.3856978309564738
 30
0.0
 11
5077.0985411625042616
 21
283.9605044941565097
 31
0.0
  0
LINE
  5
D09A
  8
0
 10
5078.1768446558044161
 20
297.1691659114565027
 30
0.0
 11
5078.1768446558044161
 21
294.4132603996565081
 31
0.0
  0
LINE
  5
D09B
  8
0
 10
5097.8931002943054409
 20
321.322709218556497
 30
0.0
 11
5080.8852262786040228
 21
321.322709218556497
 31
0.0
  0
LINE
  5
D09C
  8
0
 10
5097.8931002943054409
 20
322.3069611870565154
 30
0.0
 11
5080.8852262786040228
 21
322.3069611870565154
 31
0.0
  0
LINE
  5
D09D
  8
0
 10
5101.7723900952041731
 20
285.3581422894565094
 30
0.0
 11
5101.7723900952041731
 21
358.7636541004565061
 31
0.0
  0
LINE
  5
D09E
  8
0
 10
5102.2828640738052854
 20
284.3148352027565124
 30
0.0
 11
5102.2828640738052854
 21
284.8187722107564923
 31
0.0
  0
LINE
  5
D09F
  8
0
 10
5102.6103521861041372
 20
284.3148352027565124
 30
0.0
 11
5102.6103521861041372
 21
284.0077485886565114
 31
0.0
  0
LINE
  5
D0A0
  8
0
 10
5102.6787520510042668
 20
359.0786147303564917
 30
0.0
 11
5102.6787520510042668
 21
362.8975123681565265
 31
0.0
  0
LINE
  5
D0A1
  8
0
 10
5102.6787520510042668
 20
364.8660163051565064
 30
0.0
 11
5102.6787520510042668
 21
370.5746777224564994
 31
0.0
  0
LINE
  5
D0A2
  8
0
 10
5102.731417149405388
 20
284.3935753602564773
 30
0.0
 11
5102.731417149405388
 21
358.7636541004565061
 31
0.0
  0
LINE
  5
D0A3
  8
0
 10
5102.8769099892051599
 20
284.3935753602564773
 30
0.0
 11
5102.8769099892051599
 21
358.7636541004565061
 31
0.0
  0
LINE
  5
D0A4
  8
0
 10
5103.0482570745052726
 20
358.7636541004565061
 30
0.0
 11
5103.0482570745052726
 21
284.8660163051565064
 31
0.0
  0
LINE
  5
D0A5
  8
0
 10
5103.2290523968040361
 20
358.7636541004565061
 30
0.0
 11
5103.2290523968040361
 21
284.8660163051565064
 31
0.0
  0
LINE
  5
D0A6
  8
0
 10
5103.3570338589042876
 20
370.5746777224564994
 30
0.0
 11
5103.3570338589042876
 21
364.8660163051565064
 31
0.0
  0
LINE
  5
D0A7
  8
0
 10
5103.3570338589042876
 20
362.8975123681565265
 30
0.0
 11
5103.3570338589042876
 21
359.0786147303564917
 31
0.0
  0
LINE
  5
D0A8
  8
0
 10
5103.374545236603808
 20
358.7636541004565061
 30
0.0
 11
5103.374545236603808
 21
284.8660163051565064
 31
0.0
  0
LINE
  5
D0A9
  8
0
 10
5103.3854928119053511
 20
284.3935753602564773
 30
0.0
 11
5103.3854928119053511
 21
284.8660163051565064
 31
0.0
  0
LINE
  5
D0AA
  8
0
 10
5103.3854928119053511
 20
358.7636541004565061
 30
0.0
 11
5103.3854928119053511
 21
362.8975123681565265
 31
0.0
  0
LINE
  5
D0AB
  8
0
 10
5103.3854928119053511
 20
364.8660163051565064
 30
0.0
 11
5103.3854928119053511
 21
370.5746777224564994
 31
0.0
  0
LINE
  5
D0AC
  8
0
 10
5103.4038660649048325
 20
362.8975123681565265
 30
0.0
 11
5103.4038660649048325
 21
364.8660163051565064
 31
0.0
  0
LINE
  5
D0AD
  8
0
 10
5103.6082036091047485
 20
284.3935753602564773
 30
0.0
 11
5103.6082036091047485
 21
284.8660163051565064
 31
0.0
  0
LINE
  5
D0AE
  8
0
 10
5103.6082036091047485
 20
358.7636541004565061
 30
0.0
 11
5103.6082036091047485
 21
362.8975123681565265
 31
0.0
  0
LINE
  5
D0AF
  8
0
 10
5103.7392535556036819
 20
358.7636541004565061
 30
0.0
 11
5103.7392535556036819
 21
284.8660163051565064
 31
0.0
  0
LINE
  5
D0B0
  8
0
 10
5103.9799350148041412
 20
358.7636541004565061
 30
0.0
 11
5103.9799350148041412
 21
284.8660163051565064
 31
0.0
  0
LINE
  5
D0B1
  8
0
 10
5105.5569230848050211
 20
370.5746777224564994
 30
0.0
 11
5105.5569230848050211
 21
369.3148352027565124
 31
0.0
  0
LINE
  5
D0B2
  8
0
 10
5106.1137000779053778
 20
369.3148352027565124
 30
0.0
 11
5106.1137000779053778
 21
370.5746777224564994
 31
0.0
  0
LINE
  5
D0B3
  8
0
 10
5113.7634603737042198
 20
370.5746777224564994
 30
0.0
 11
5113.7634603737042198
 21
359.7479060689565245
 31
0.0
  0
LINE
  5
D0B4
  8
0
 10
5113.7634603737042198
 20
357.7794021319564877
 30
0.0
 11
5113.7634603737042198
 21
328.2518430768565167
 31
0.0
  0
LINE
  5
D0B5
  8
0
 10
5113.7634603737042198
 20
326.28333913985648
 30
0.0
 11
5113.7634603737042198
 21
296.7557800846565215
 31
0.0
  0
LINE
  5
D0B6
  8
0
 10
5113.7634603737042198
 20
294.7872761476564847
 30
0.0
 11
5113.7634603737042198
 21
283.9605044941565097
 31
0.0
  0
LINE
  5
D0B7
  8
0
 10
5114.1815699825046977
 20
370.5746777224564994
 30
0.0
 11
5114.1815699825046977
 21
359.7479060689565245
 31
0.0
  0
LINE
  5
D0B8
  8
0
 10
5114.1815699825046977
 20
357.7794021319564877
 30
0.0
 11
5114.1815699825046977
 21
328.2518430768565167
 31
0.0
  0
LINE
  5
D0B9
  8
0
 10
5114.1815699825046977
 20
326.28333913985648
 30
0.0
 11
5114.1815699825046977
 21
296.7557800846565215
 31
0.0
  0
LINE
  5
D0BA
  8
0
 10
5114.1815699825046977
 20
294.7872761476564847
 30
0.0
 11
5114.1815699825046977
 21
283.960504494156396
 31
0.0
  0
LINE
  5
D0BB
  8
0
 10
5103.9799350148041412
 20
358.7636541004565061
 30
0.0
 11
5103.0482570745052726
 21
358.7636541004565061
 31
0.0
  0
LINE
  5
D0BC
  8
0
 10
5102.8769099892051599
 20
358.7636541004565061
 30
0.0
 11
5075.786801081703743
 21
358.7636541004565061
 31
0.0
  0
LINE
  5
D0BD
  8
0
 10
5076.3312944839035481
 20
359.0786147303564917
 30
0.0
 11
5103.3570338589042876
 21
359.0786147303564917
 31
0.0
  0
LINE
  5
D0BE
  8
0
 10
5074.9036890161041811
 20
362.8975123681565265
 30
0.0
 11
5078.0049465260053694
 21
362.8975123681565265
 31
0.0
  0
LINE
  5
D0BF
  8
0
 10
5078.0049465260053694
 20
364.8660163051565064
 30
0.0
 11
5074.9036890161041811
 21
364.8660163051565064
 31
0.0
  0
LINE
  5
D0C0
  8
0
 10
5103.3570338589042876
 20
370.5746777224564994
 30
0.0
 11
5076.3312944839035481
 21
370.5746777224564994
 31
0.0
  0
LINE
  5
D0C1
  8
0
 10
5076.1830949397035511
 20
370.5746777224564994
 30
0.0
 11
5065.3313400698043552
 21
370.5746777224564994
 31
0.0
  0
LINE
  5
D0C2
  8
0
 10
5103.3854928119053511
 20
370.5746777224564994
 30
0.0
 11
5114.1815699825046977
 21
370.5746777224564994
 31
0.0
  0
ARC
  5
D0C3
  8
0
 10
5080.8852262786040228
 20
321.8148352027565124
 30
0.0
 40
0.4921259843
 50
90.0
 51
270.0
  0
ARC
  5
D0C4
  8
0
 10
5077.0906661255603467
 20
284.3857009215847143
 30
0.0
 40
0.0078750368556878
 50
0.003077382566565
 51
89.9925705443562833
  0
ARC
  5
D0C5
  8
0
 10
5076.8782466818038301
 20
363.881764336656488
 30
0.0
 40
1.4960629920999999
 50
318.860489585090022
 51
41.1395104149100419
  0
ARC
  5
D0C6
  8
0
 10
5097.8931002943054409
 20
321.8148352027565124
 30
0.0
 40
0.4921259843
 50
270.0
 51
90.0
  0
CIRCLE
  5
D0C7
  8
0
 10
5097.8931002943054409
 20
328.822709218556497
 30
0.0
 40
0.2559055118
  0
ARC
  5
D0C8
  8
0
 10
5066.296324913960234
 20
296.6223985696636873
 30
0.0
 40
0.1338265552558415
 50
24.6588568286142404
 51
85.3260231203578599
  0
ARC
  5
D0C9
  8
0
 10
5064.6268279105734109
 20
295.7715281161565031
 30
0.0
 40
2.0075415981311031
 50
333.1504465819635925
 51
26.8495534180363506
  0
ARC
  5
D0CA
  8
0
 10
5066.2967846641322467
 20
294.9200012557143964
 30
0.0
 40
0.1331354832728534
 50
274.4997967815629067
 51
335.5153232694553935
  0
LINE
  5
D0CB
  8
0
 10
5066.3072298830047657
 20
326.2833391398065146
 30
0.0
 11
5065.2006687515040539
 21
326.2833391398065146
 31
0.0
  0
LINE
  5
D0CC
  8
0
 10
5066.3072298830047657
 20
328.2518430768064945
 30
0.0
 11
5065.2006687515040539
 21
328.2518430768064945
 31
0.0
  0
LINE
  5
D0CD
  8
0
 10
5065.2006687515040539
 20
326.2833391398065146
 30
0.0
 11
5065.2006687515040539
 21
328.2518430768064945
 31
0.0
  0
ARC
  5
D0CE
  8
0
 10
5066.296324913960234
 20
328.1184615618137173
 30
0.0
 40
0.1338265552558415
 50
24.6588568286142404
 51
85.3260231203578599
  0
ARC
  5
D0CF
  8
0
 10
5064.6268279105734109
 20
327.2675911083064761
 30
0.0
 40
2.0075415981311031
 50
333.1504465819635925
 51
26.8495534180363506
  0
ARC
  5
D0D0
  8
0
 10
5066.2967846641322467
 20
326.4160642478644263
 30
0.0
 40
0.1331354832728534
 50
274.4997967815629067
 51
335.5153232694553935
  0
LINE
  5
D0D1
  8
0
 10
5066.3072298830047657
 20
357.7794021319564877
 30
0.0
 11
5065.2006687515040539
 21
357.7794021319564877
 31
0.0
  0
LINE
  5
D0D2
  8
0
 10
5066.3072298830047657
 20
359.7479060689565245
 30
0.0
 11
5065.2006687515040539
 21
359.7479060689565245
 31
0.0
  0
LINE
  5
D0D3
  8
0
 10
5065.2006687515040539
 20
357.7794021319564877
 30
0.0
 11
5065.2006687515040539
 21
359.7479060689565245
 31
0.0
  0
ARC
  5
D0D4
  8
0
 10
5066.296324913960234
 20
359.6145245539636903
 30
0.0
 40
0.1338265552558415
 50
24.6588568286142404
 51
85.3260231203578599
  0
ARC
  5
D0D5
  8
0
 10
5064.6268279105734109
 20
358.7636541004565061
 30
0.0
 40
2.0075415981311031
 50
333.1504465819635925
 51
26.8495534180363506
  0
ARC
  5
D0D6
  8
0
 10
5066.2967846641322467
 20
357.9121272400143994
 30
0.0
 40
0.1331354832728534
 50
274.4997967815629067
 51
335.5153232694553935
  0
ARC
  5
D0D7
  8
0
 10
5075.0493782750054379
 20
284.3857013445564803
 30
0.0
 40
0.0078740157
 50
90.0
 51
180.0
  0
ARC
  5
D0D8
  8
0
 10
5078.7602219916716422
 20
284.9454885031283879
 30
0.0
 40
5.8482198353032793
 50
174.8901516316099958
 51
189.6962338226159943
  0
ARC
  5
D0D9
  8
0
 10
5073.1906541422340524
 20
285.4459442764368191
 30
0.0
 40
0.2562247185434026
 50
140.7360962929298864
 51
175.4291829672793881
  0
ARC
  5
D0DA
  8
0
 10
5073.7376900400031445
 20
284.9061124139593062
 30
0.0
 40
1.023933731854074
 50
92.581886034365624
 51
136.7182805854482979
  0
ARC
  5
D0DB
  8
0
 10
5073.6790611632413857
 20
285.1694901410135117
 30
0.0
 40
0.7596194832671924
 50
36.6514471303009017
 51
89.0568515002188263
  0
ARC
  5
D0DC
  8
0
 10
5073.7062289361847434
 20
285.0469539599687891
 30
0.0
 40
0.8821746395331596
 50
40.7619621502952327
 51
90.9524597142480502
  0
ARC
  5
D0DD
  8
0
 10
5074.1995477810378361
 20
285.4738125707772838
 30
0.0
 40
0.2298203957848307
 50
358.1424800776428015
 51
40.4582423542144909
  0
ARC
  5
D0DE
  8
0
 10
5074.1105469770973286
 20
285.4958937877208882
 30
0.0
 40
0.2186432575021913
 50
352.2377271477312775
 51
35.5260772455597618
  0
ARC
  5
D0DF
  8
0
 10
5080.1525739346361661
 20
284.9455048996425717
 30
0.0
 40
5.8486262081523384
 50
174.8906688855317952
 51
189.6957165610996867
  0
ARC
  5
D0E0
  8
0
 10
5076.1290531555578127
 20
284.2691194784322875
 30
0.0
 40
0.1292575813361739
 50
105.6662450355352973
 51
187.6810668300115026
  0
LINE
  5
D0E1
  8
0
 10
5074.7239435286046501
 20
345.5549926831565131
 30
0.0
 11
5078.1490058061035597
 21
345.5549926831565131
 31
0.0
  0
LINE
  5
D0E2
  8
0
 10
5076.3379821842036108
 20
346.2203470138564967
 30
0.0
 11
5075.7474310029047047
 21
346.2203470138564967
 31
0.0
  0
LINE
  5
D0E3
  8
0
 10
5075.6126122188043155
 20
346.2636541004565061
 30
0.0
 11
5076.298611602604069
 21
346.2636541004565061
 31
0.0
  0
LINE
  5
D0E4
  8
0
 10
5076.298611990903737
 20
347.6022367776565147
 30
0.0
 11
5075.6126122188043155
 21
347.6022367776565147
 31
0.0
  0
LINE
  5
D0E5
  8
0
 10
5075.7474310029047047
 20
347.6455438642565241
 30
0.0
 11
5076.3379821842036108
 21
347.6455438642565241
 31
0.0
  0
LINE
  5
D0E6
  8
0
 10
5078.1490058061035597
 20
348.3108981949565077
 30
0.0
 11
5074.7239435286046501
 21
348.3108981949565077
 31
0.0
  0
LINE
  5
D0E7
  8
0
 10
5074.7239435286046501
 20
345.5549926831565131
 30
0.0
 11
5074.7239435286046501
 21
348.3108981949565077
 31
0.0
  0
LINE
  5
D0E8
  8
0
 10
5075.6126122190044043
 20
348.3108981949565077
 30
0.0
 11
5075.6126122189043599
 21
347.6022367778564899
 31
0.0
  0
LINE
  5
D0E9
  8
0
 10
5075.6126122189043599
 20
346.2636541002564741
 30
0.0
 11
5075.6126122190044043
 21
345.5549926831565131
 31
0.0
  0
LINE
  5
D0EA
  8
0
 10
5075.7474310029047047
 20
348.3108981949565077
 30
0.0
 11
5075.7474310029047047
 21
347.6022367776565147
 31
0.0
  0
LINE
  5
D0EB
  8
0
 10
5075.7474310029047047
 20
346.2636541004565061
 30
0.0
 11
5075.7474310029047047
 21
345.5549926831565131
 31
0.0
  0
LINE
  5
D0EC
  8
0
 10
5076.2986121053036186
 20
346.2203470138564967
 30
0.0
 11
5076.2986121053036186
 21
347.6455438642565241
 31
0.0
  0
LINE
  5
D0ED
  8
0
 10
5076.3379821840044315
 20
346.220347013356502
 30
0.0
 11
5076.3379821840044315
 21
347.6455438647565188
 31
0.0
  0
LINE
  5
D0EE
  8
0
 10
5078.1490058061035597
 20
348.3108981949565077
 30
0.0
 11
5078.1490058061035597
 21
345.5549926831565131
 31
0.0
  0
ARC
  5
D0EF
  8
0
 10
5077.1055579765052244
 20
363.881764336656488
 30
0.0
 40
2.4118413829002541
 50
155.914997905988514
 51
204.085002094011486
  0
LINE
  5
D0F0
  8
0
 10
5102.4779206049051936
 20
284.3935759583740719
 30
0.0
 11
5104.4238160115974097
 21
284.3935746138574814
 31
0.0
  0
LINE
  5
D0F1
  8
0
 10
5104.5270834923048824
 20
284.2519864136809815
 30
0.0
 11
5104.5270834923048824
 21
283.9605044941565097
 31
0.0
  0
LINE
  5
D0F2
  8
0
 10
5103.5676324024052519
 20
283.9605044941565097
 30
0.0
 11
5103.567632403504831
 21
284.2518430324565202
 31
0.0
  0
LINE
  5
D0F3
  8
0
 10
5102.4700465891037311
 20
284.3856978309564738
 30
0.0
 11
5102.4700465891037311
 21
284.3148352027565124
 31
0.0
  0
LINE
  5
D0F4
  8
0
 10
5102.4700465891037311
 20
284.0077485886565114
 30
0.0
 11
5102.4700465891037311
 21
283.9605044941565097
 31
0.0
  0
ARC
  5
D0F5
  8
0
 10
5102.477921626047646
 20
284.3857009215847143
 30
0.0
 40
0.0078750368556878
 50
90.0074294556437167
 51
179.9969226174333983
  0
ARC
  5
D0F6
  8
0
 10
5103.43953459605018
 20
284.2691194784322875
 30
0.0
 40
0.1292575813361739
 50
352.3189331699884974
 51
74.3337549644646458
  0
ARC
  5
D0F7
  8
0
 10
5104.2491622415263919
 20
284.2249180223213898
 30
0.0
 40
0.2792363146954953
 50
5.5628289004054619
 51
25.4499794594358484
  0
ARC
  5
D0F8
  8
0
 10
5104.4098318745045617
 20
284.2852856002500062
 30
0.0
 40
0.109188216206297
 50
33.0992341605415632
 51
82.6417079748444792
  0
LINE
  5
D0F9
  8
0
 10
5104.6927375851537363
 20
362.8975123681565265
 30
0.0
 11
5101.5914800752552765
 21
362.8975123681565265
 31
0.0
  0
LINE
  5
D0FA
  8
0
 10
5101.5914800752552765
 20
364.8660163051565064
 30
0.0
 11
5104.6927375851537363
 21
364.8660163051565064
 31
0.0
  0
ARC
  5
D0FB
  8
0
 10
5102.7181799194540872
 20
363.881764336656488
 30
0.0
 40
1.4960629920999999
 50
138.8604895850899084
 51
221.1395104149100064
  0
ARC
  5
D0FC
  8
0
 10
5102.4908686247554215
 20
363.881764336656488
 30
0.0
 40
2.4118413829002541
 50
335.914997905988514
 51
24.0850020940114788
  0
ARC
  5
D0FD
  8
0
 10
5066.1975770512472081
 20
294.9422269191380792
 30
0.0
 40
0.1551366605720228
 50
272.8051154286239921
 51
330.0702060343700737
  0
ARC
  5
D0FE
  8
0
 10
5064.8846488587096246
 20
295.7715281161565031
 30
0.0
 40
1.707925437812325
 50
327.9350129007602277
 51
32.064987099239751
  0
ARC
  5
D0FF
  8
0
 10
5066.1983997785837346
 20
296.6021751668741899
 30
0.0
 40
0.1537540141160823
 50
29.6481185326825916
 51
87.4765600042938445
  0
ARC
  5
D100
  8
0
 10
5066.1975770512472081
 20
326.4382899112881091
 30
0.0
 40
0.1551366605720228
 50
272.8051154286239921
 51
330.0702060343700737
  0
ARC
  5
D101
  8
0
 10
5064.8846488587096246
 20
327.2675911083064761
 30
0.0
 40
1.707925437812325
 50
327.9350129007602277
 51
32.064987099239751
  0
ARC
  5
D102
  8
0
 10
5066.1983997785837346
 20
328.0982381590242767
 30
0.0
 40
0.1537540141160823
 50
29.6481185326825916
 51
87.4765600042938445
  0
ARC
  5
D103
  8
0
 10
5066.1975770512472081
 20
357.9343529034380822
 30
0.0
 40
0.1551366605720228
 50
272.8051154286239921
 51
330.0702060343700737
  0
ARC
  5
D104
  8
0
 10
5064.8846488587096246
 20
358.7636541004565061
 30
0.0
 40
1.707925437812325
 50
327.9350129007602277
 51
32.064987099239751
  0
ARC
  5
D105
  8
0
 10
5066.1983997785837346
 20
359.5943011511743066
 30
0.0
 40
0.1537540141160823
 50
29.6481185326825916
 51
87.4765600042938445
  0
LINE
  5
D106
  8
0
 10
5074.3178920129048493
 20
369.0688190808564855
 30
0.0
 11
5074.3178920129048493
 21
370.5746777224564994
 31
0.0
  0
ARC
  5
D107
  8
0
 10
5078.6488665930719435
 20
369.5896937134846212
 30
0.0
 40
5.8482198353032793
 50
170.3037661773824141
 51
185.1098483683915958
  0
ARC
  5
D108
  8
0
 10
5073.0792987436352632
 20
369.08923794017619
 30
0.0
 40
0.2562247185434026
 50
184.5708170327206119
 51
219.2639037070701136
  0
ARC
  5
D109
  8
0
 10
5073.6263346414034459
 20
369.6290698026535892
 30
0.0
 40
1.023933731854074
 50
223.2817194145515884
 51
267.4181139656344044
  0
ARC
  5
D10A
  8
0
 10
5073.5677057646407775
 20
369.3656920755993838
 30
0.0
 40
0.7596194832671924
 50
270.9431484997812163
 51
323.3485528696991196
  0
ARC
  5
D10B
  8
0
 10
5073.5948735375841352
 20
369.48822825664422
 30
0.0
 40
0.8821746395331596
 50
269.047540285751893
 51
319.2380378497048241
  0
ARC
  5
D10C
  8
0
 10
5074.0881923824381374
 20
369.0613696458356117
 30
0.0
 40
0.2298203957848307
 50
319.5417576457854807
 51
1.857519922357131
  0
ARC
  5
D10D
  8
0
 10
5073.9991915784967205
 20
369.0392884288921209
 30
0.0
 40
0.2186432575021913
 50
324.4739227544401956
 51
7.7622728522687243
  0
ARC
  5
D10E
  8
0
 10
5080.0412185360346484
 20
369.5896773169703238
 30
0.0
 40
5.8486262081523384
 50
170.304283438898608
 51
185.1093311144682048
  0
LINE
  5
D10F
  8
0
 10
5105.1393403400043098
 20
285.4663631357565237
 30
0.0
 11
5105.1393403400043098
 21
283.960504494156396
 31
0.0
  0
ARC
  5
D110
  8
0
 10
5100.8083657598363061
 20
284.9454885031283879
 30
0.0
 40
5.8482198353032793
 50
350.303766177384091
 51
5.1098483683899714
  0
ARC
  5
D111
  8
0
 10
5106.3779336092738959
 20
285.4459442764368191
 30
0.0
 40
0.2562247185434026
 50
4.5708170327206368
 51
39.2639037070700994
  0
ARC
  5
D112
  8
0
 10
5105.8308977115057132
 20
284.9061124139593062
 30
0.0
 40
1.023933731854074
 50
43.2817194145516524
 51
87.4181139656343618
  0
ARC
  5
D113
  8
0
 10
5105.8895265882665626
 20
285.1694901410135117
 30
0.0
 40
0.7596194832671924
 50
90.9431484997811737
 51
143.3485528696990912
  0
ARC
  5
D114
  8
0
 10
5105.8623588153241144
 20
285.0469539599687891
 30
0.0
 40
0.8821746395331596
 50
89.047540285751964
 51
139.2380378497047104
  0
ARC
  5
D115
  8
0
 10
5105.3690399704710217
 20
285.4738125707772838
 30
0.0
 40
0.2298203957848307
 50
139.5417576457855091
 51
181.8575199223554932
  0
ARC
  5
D116
  8
0
 10
5105.4580407744106196
 20
285.4958937877208882
 30
0.0
 40
0.2186432575021913
 50
144.4739227544401956
 51
187.7622728522686941
  0
ARC
  5
D117
  8
0
 10
5099.4160138168736012
 20
284.9455048996425717
 30
0.0
 40
5.8486262081523384
 50
350.3042834389001996
 51
5.1093311144681852
  0
ARC
  5
D118
  8
0
 10
5106.0285851322751114
 20
369.303587810398426
 30
0.0
 40
0.4717961327297798
 50
178.6339668257865014
 51
218.6880149858965865
  0
ARC
  5
D119
  8
0
 10
5105.8491411261220492
 20
369.1655223987590944
 30
0.0
 40
0.2454666711180254
 50
219.7146906933008097
 51
263.433550486398417
  0
ARC
  5
D11A
  8
0
 10
5105.8286905042623403
 20
369.153323500529325
 30
0.0
 40
0.2317827709404532
 50
268.1160692245704809
 51
319.0887066921031874
  0
ARC
  5
D11B
  8
0
 10
5105.637546788572763
 20
369.3058684656305104
 30
0.0
 40
0.4762377109343984
 50
320.2793860036254046
 51
1.0788447473905469
  0
LINE
  5
D11C
  8
0
 10
5105.8909892807041615
 20
369.3148352027565124
 30
0.0
 11
5105.8909892807041615
 21
370.5746777224564994
 31
0.0
  0
ARC
  5
D11D
  8
0
 10
5105.6059797070620334
 20
369.153323500529325
 30
0.0
 40
0.2317827709404532
 50
300.7339150700547066
 51
319.0887066921031874
  0
ARC
  5
D11E
  8
0
 10
5105.4148359913715467
 20
369.3058684656305104
 30
0.0
 40
0.4762377109343984
 50
320.2793860036254046
 51
1.0788447473905469
  0
LINE
  5
D11F
  8
0
 10
5113.2056801692051522
 20
357.7794021319564877
 30
0.0
 11
5114.312241300704045
 21
357.7794021319564877
 31
0.0
  0
LINE
  5
D120
  8
0
 10
5113.2056801692051522
 20
359.7479060689565245
 30
0.0
 11
5114.312241300704045
 21
359.7479060689565245
 31
0.0
  0
LINE
  5
D121
  8
0
 10
5114.312241300704045
 20
357.7794021319564877
 30
0.0
 11
5114.312241300704045
 21
359.7479060689565245
 31
0.0
  0
ARC
  5
D122
  8
0
 10
5113.216585138249684
 20
359.6145245539636903
 30
0.0
 40
0.1338265552558415
 50
94.673976879642268
 51
155.3411431713857098
  0
ARC
  5
D123
  8
0
 10
5114.886082141634688
 20
358.7636541004565061
 30
0.0
 40
2.0075415981311031
 50
153.1504465819637062
 51
206.8495534180362938
  0
ARC
  5
D124
  8
0
 10
5113.2161253880776712
 20
357.9121272400143994
 30
0.0
 40
0.1331354832728534
 50
204.4846767305446065
 51
265.5002032184372069
  0
ARC
  5
D125
  8
0
 10
5113.3153330009608908
 20
357.9343529034380822
 30
0.0
 40
0.1551366605720228
 50
209.9297939656298979
 51
267.1948845713238825
  0
ARC
  5
D126
  8
0
 10
5114.6282611934993838
 20
358.7636541004565061
 30
0.0
 40
1.707925437812325
 50
147.9350129007601993
 51
212.064987099239687
  0
ARC
  5
D127
  8
0
 10
5113.3145102736252738
 20
359.5943011511743066
 30
0.0
 40
0.1537540141160823
 50
92.5234399957061413
 51
150.351881467317412
  0
LINE
  5
D128
  8
0
 10
5113.2056801692051522
 20
326.28333913985648
 30
0.0
 11
5114.312241300704045
 21
326.28333913985648
 31
0.0
  0
LINE
  5
D129
  8
0
 10
5113.2056801692051522
 20
328.2518430768565167
 30
0.0
 11
5114.312241300704045
 21
328.2518430768565167
 31
0.0
  0
LINE
  5
D12A
  8
0
 10
5114.312241300704045
 20
326.28333913985648
 30
0.0
 11
5114.312241300704045
 21
328.2518430768565167
 31
0.0
  0
ARC
  5
D12B
  8
0
 10
5113.216585138249684
 20
328.1184615618636826
 30
0.0
 40
0.1338265552558415
 50
94.673976879642268
 51
155.3411431713857098
  0
ARC
  5
D12C
  8
0
 10
5114.886082141634688
 20
327.2675911083564984
 30
0.0
 40
2.0075415981311031
 50
153.1504465819637062
 51
206.8495534180362938
  0
ARC
  5
D12D
  8
0
 10
5113.2161253880776712
 20
326.4160642479143917
 30
0.0
 40
0.1331354832728534
 50
204.4846767305446065
 51
265.5002032184372069
  0
ARC
  5
D12E
  8
0
 10
5113.3153330009608908
 20
326.4382899113380745
 30
0.0
 40
0.1551366605720228
 50
209.9297939656298979
 51
267.1948845713238825
  0
ARC
  5
D12F
  8
0
 10
5114.6282611934993838
 20
327.2675911083564984
 30
0.0
 40
1.707925437812325
 50
147.9350129007601993
 51
212.064987099239687
  0
ARC
  5
D130
  8
0
 10
5113.3145102736252738
 20
328.0982381590741852
 30
0.0
 40
0.1537540141160823
 50
92.5234399957061413
 51
150.351881467317412
  0
LINE
  5
D131
  8
0
 10
5113.2056801692051522
 20
294.7872761476564847
 30
0.0
 11
5114.312241300704045
 21
294.7872761476564847
 31
0.0
  0
LINE
  5
D132
  8
0
 10
5113.2056801692051522
 20
296.7557800846565215
 30
0.0
 11
5114.312241300704045
 21
296.7557800846565215
 31
0.0
  0
LINE
  5
D133
  8
0
 10
5114.312241300704045
 20
294.7872761476564847
 30
0.0
 11
5114.312241300704045
 21
296.7557800846565215
 31
0.0
  0
ARC
  5
D134
  8
0
 10
5113.216585138249684
 20
296.6223985696636873
 30
0.0
 40
0.1338265552558415
 50
94.6739768796421259
 51
155.3411431713857098
  0
ARC
  5
D135
  8
0
 10
5114.886082141634688
 20
295.7715281161565031
 30
0.0
 40
2.0075415981311031
 50
153.1504465819637062
 51
206.8495534180362938
  0
ARC
  5
D136
  8
0
 10
5113.2161253880776712
 20
294.9200012557143964
 30
0.0
 40
0.1331354832728534
 50
204.4846767305446065
 51
265.5002032184372069
  0
ARC
  5
D137
  8
0
 10
5113.3153330009608908
 20
294.9422269191380792
 30
0.0
 40
0.1551366605720228
 50
209.9297939656298979
 51
267.1948845713238825
  0
ARC
  5
D138
  8
0
 10
5114.6282611934993838
 20
295.7715281161565031
 30
0.0
 40
1.707925437812325
 50
147.9350129007601993
 51
212.064987099239687
  0
ARC
  5
D139
  8
0
 10
5113.3145102736252738
 20
296.6021751668741899
 30
0.0
 40
0.1537540141160823
 50
92.5234399957061413
 51
150.351881467317412
  0
ENDSEC
  0
EOF
