  0
SECTION
  2
HEADER
  9
$ACADVER
  1
AC1009
  9
$INSBASE
 10
3991.6112794533778469
 20
60.9324735921155494
 30
0.0
  9
$EXTMIN
 10
3985.0523825470882002
 20
38.0715244131321526
 30
-0.0015258207003583
  9
$EXTMAX
 10
3998.168527797779916
 20
94.0139120478194172
 30
0.0000000349246037
  9
$LIMMIN
 10
0.0
 20
0.0
  9
$LIMMAX
 10
11.6929133858000007
 20
8.2677165353999982
  9
$ORTHOMODE
 70
     0
  9
$REGENMODE
 70
     1
  9
$FILLMODE
 70
     1
  9
$QTEXTMODE
 70
     0
  9
$MIRRTEXT
 70
     0
  9
$DRAGMODE
 70
     2
  9
$LTSCALE
 40
0.6431102362
  9
$OSMODE
 70
  4095
  9
$ATTMODE
 70
     1
  9
$TEXTSIZE
 40
0.2
  9
$TRACEWID
 40
0.05
  9
$TEXTSTYLE
  7
STANDARD
  9
$CLAYER
  8
0
  9
$CELTYPE
  6
BYLAYER
  9
$CECOLOR
 62
   256
  9
$DIMSCALE
 40
1.0
  9
$DIMASZ
 40
0.1875
  9
$DIMEXO
 40
0.0625
  9
$DIMDLI
 40
0.4443307087
  9
$DIMRND
 40
0.0
  9
$DIMDLE
 40
0.0
  9
$DIMEXE
 40
0.125
  9
$DIMTP
 40
0.01
  9
$DIMTM
 40
0.01
  9
$DIMTXT
 40
2.0
  9
$DIMCEN
 40
0.1052362205
  9
$DIMTSZ
 40
0.0
  9
$DIMTOL
 70
     1
  9
$DIMLIM
 70
     0
  9
$DIMTIH
 70
     1
  9
$DIMTOH
 70
     1
  9
$DIMSE1
 70
     0
  9
$DIMSE2
 70
     0
  9
$DIMTAD
 70
     0
  9
$DIMZIN
 70
     0
  9
$DIMBLK
  1

  9
$DIMASO
 70
     1
  9
$DIMSHO
 70
     1
  9
$DIMPOST
  1
\X
  9
$DIMAPOST
  1

  9
$DIMALT
 70
     1
  9
$DIMALTD
 70
     2
  9
$DIMALTF
 40
25.3999999999999986
  9
$DIMLFAC
 40
1.0
  9
$DIMTOFL
 70
     0
  9
$DIMTVP
 40
0.0
  9
$DIMTIX
 70
     0
  9
$DIMSOXD
 70
     0
  9
$DIMSAH
 70
     0
  9
$DIMBLK1
  1

  9
$DIMBLK2
  1

  9
$DIMSTYLE
  2
STANDARD
  9
$DIMCLRD
 70
     0
  9
$DIMCLRE
 70
     0
  9
$DIMCLRT
 70
     0
  9
$DIMTFAC
 40
1.0
  9
$DIMGAP
 40
0.09
  9
$LUNITS
 70
     2
  9
$LUPREC
 70
     4
  9
$SKETCHINC
 40
0.1
  9
$FILLETRAD
 40
0.0
  9
$AUNITS
 70
     0
  9
$AUPREC
 70
     0
  9
$MENU
  1
.
  9
$ELEVATION
 40
0.0
  9
$PELEVATION
 40
0.0
  9
$THICKNESS
 40
0.0
  9
$LIMCHECK
 70
     0
  9
$BLIPMODE
 70
     0
  9
$CHAMFERA
 40
0.0
  9
$CHAMFERB
 40
0.0
  9
$SKPOLY
 70
     0
  9
$TDCREATE
 40
2458060.468368056230247
  9
$TDUPDATE
 40
2460243.6076388889923692
  9
$TDINDWG
 40
0.4239190972
  9
$TDUSRTIMER
 40
0.4239190972
  9
$USRTIMER
 70
     1
  9
$ANGBASE
 50
0.0
  9
$ANGDIR
 70
     0
  9
$PDMODE
 70
     0
  9
$PDSIZE
 40
0.3125
  9
$PLINEWID
 40
0.0
  9
$COORDS
 70
     1
  9
$SPLFRAME
 70
     0
  9
$SPLINETYPE
 70
     6
  9
$SPLINESEGS
 70
     8
  9
$ATTDIA
 70
     1
  9
$ATTREQ
 70
     1
  9
$HANDLING
 70
     1
  9
$HANDSEED
  5
9777
  9
$SURFTAB1
 70
     6
  9
$SURFTAB2
 70
     6
  9
$SURFTYPE
 70
     6
  9
$SURFU
 70
     6
  9
$SURFV
 70
     6
  9
$UCSNAME
  2

  9
$UCSORG
 10
0.0
 20
0.0
 30
0.0
  9
$UCSXDIR
 10
1.0
 20
0.0
 30
0.0
  9
$UCSYDIR
 10
0.0
 20
1.0
 30
0.0
  9
$PUCSNAME
  2

  9
$PUCSORG
 10
0.0
 20
0.0
 30
0.0
  9
$PUCSXDIR
 10
1.0
 20
0.0
 30
0.0
  9
$PUCSYDIR
 10
0.0
 20
1.0
 30
0.0
  9
$USERI1
 70
     0
  9
$USERI2
 70
     0
  9
$USERI3
 70
     0
  9
$USERI4
 70
     0
  9
$USERI5
 70
     0
  9
$USERR1
 40
0.0
  9
$USERR2
 40
0.0
  9
$USERR3
 40
0.0
  9
$USERR4
 40
0.0
  9
$USERR5
 40
0.0
  9
$WORLDVIEW
 70
     1
  9
$SHADEDGE
 70
     3
  9
$SHADEDIF
 70
    70
  9
$TILEMODE
 70
     1
  9
$MAXACTVP
 70
    64
  9
$PLIMCHECK
 70
     0
  9
$PEXTMIN
 10
1.0000000000000000E+20
 20
1.0000000000000000E+20
 30
1.0000000000000000E+20
  9
$PEXTMAX
 10
-1.0000000000000000E+20
 20
-1.0000000000000000E+20
 30
-1.0000000000000000E+20
  9
$PLIMMIN
 10
0.0
 20
0.0
  9
$PLIMMAX
 10
12.0
 20
9.0
  9
$UNITMODE
 70
     0
  9
$VISRETAIN
 70
     1
  9
$PLINEGEN
 70
     0
  9
$PSLTSCALE
 70
     1
  0
ENDSEC
  0
SECTION
  2
TABLES
  0
TABLE
  2
VPORT
 70
     1
  0
VPORT
  2
*ACTIVE
 70
     0
 10
0.0
 20
0.0
 11
1.0
 21
1.0
 12
199.2525450161838023
 22
-54.1379382026296767
 13
0.0
 23
0.0
 14
1.0
 24
1.0
 15
0.0
 25
0.0
 16
0.0
 26
0.0
 36
5.1040778033513332
 17
3792.35791015625
 27
120.1806564331053977
 37
0.0
 40
56.3834577080225188
 41
2.498684210526315
 42
50.0
 43
0.0
 44
0.0
 50
0.0
 51
0.0
 71
     0
 72
   100
 73
     1
 74
     1
 75
     0
 76
     0
 77
     0
 78
     0
  0
ENDTAB
  0
TABLE
  2
LTYPE
 70
     3
  0
LTYPE
  2
CONTINUOUS
 70
     0
  3
Solid line
 72
    65
 73
     0
 40
0.0
  0
LTYPE
  2
PHANTOM2
 70
     0
  3
___ _ _ ___ _ _ ___ _ _ ___ _ _
 72
    65
 73
     6
 40
1.25
 49
0.625
 49
-0.125
 49
0.125
 49
-0.125
 49
0.125
 49
-0.125
  0
ENDTAB
  0
TABLE
  2
LAYER
 70
     2
  0
LAYER
  2
0
 70
     0
 62
   255
  6
CONTINUOUS
  0
LAYER
  2
DEFPOINTS
 70
     0
 62
     7
  6
CONTINUOUS
  0
ENDTAB
  0
TABLE
  2
STYLE
 70
     1
  0
STYLE
  2
STANDARD
 70
     0
 40
0.0
 41
0.8
 50
0.0
 71
     0
 42
0.2
  3
txt
  4

  0
ENDTAB
  0
TABLE
  2
VIEW
 70
     0
  0
ENDTAB
  0
TABLE
  2
UCS
 70
     0
  0
ENDTAB
  0
TABLE
  2
APPID
 70
     9
  0
APPID
  2
ACAD
 70
     0
  0
APPID
  2
ACAD_MLEADERVER
 70
     0
  0
APPID
  2
ACAD_EXEMPT_FROM_CAD_STANDARDS
 70
     0
  0
APPID
  2
ACAD_NAV_VCDISPLAY
 70
     0
  0
APPID
  2
ACAECLAYERSTANDARD
 70
     0
  0
APPID
  2
ACCMTRANSPARENCY
 70
     0
  0
APPID
  2
ACAD_DSTYLE_DIMJAG
 70
     0
  0
APPID
  2
ACAD_DSTYLE_DIMTALN
 70
     0
  0
APPID
  2
ACDBATTR
 70
     0
  0
ENDTAB
  0
TABLE
  2
DIMSTYLE
 70
     2
  0
DIMSTYLE
  2
STANDARD
 70
     0
  3

  4

  5

  6

  7

 40
1.0
 41
0.1875
 42
0.0625
 43
0.38
 44
0.125
 45
0.0
 46
0.0
 47
0.01
 48
0.01
140
0.15625
141
0.09
142
0.0
143
25.3999999999999986
144
1.0
145
0.0
146
1.0
147
0.09
 71
     1
 72
     0
 73
     1
 74
     1
 75
     0
 76
     0
 77
     0
 78
     4
170
     0
171
     2
172
     0
173
     0
174
     0
175
     0
176
     0
177
     0
178
     0
  0
ENDTAB
  0
ENDSEC
  0
SECTION
  2
BLOCKS
  0
BLOCK
  8
0
  2
$MODEL_SPACE
 70
     0
 10
0.0
 20
0.0
 30
0.0
  3
$MODEL_SPACE
  1

  0
ENDBLK
  5
21
  8
0
  0
BLOCK
 67
     1
  8
0
  2
$PAPER_SPACE
 70
     0
 10
0.0
 20
0.0
 30
0.0
  3
$PAPER_SPACE
  1

  0
ENDBLK
  5
1D
 67
     1
  8
0
  0
BLOCK
  8
0
  2
_FILLED
 70
     0
 10
0.0
 20
0.0
 30
0.0
  3
_FILLED
  1

  0
SOLID
  5
69B4
  8
0
  6
BYBLOCK
 62
     0
 10
0.0
 20
0.0
 30
0.0
 11
-1.0
 21
0.1666666667
 31
0.0
 12
-1.0
 22
-0.1666666667
 32
0.0
 13
-1.0
 23
-0.1666666667
 33
0.0
  0
ENDBLK
  5
69B5
  8
0
  6
BYBLOCK
 62
     0
  0
BLOCK
  8
0
  2
A$CDFAF6206
 70
     0
 10
0.0
 20
0.0
 30
0.0
  3
A$CDFAF6206
  1

  0
LINE
  5
6A0E
  8
0
 10
7.4646650085734834
 20
10.9287685970688493
 30
0.0
 11
7.4646650085734896
 21
10.8905784766688498
 31
0.0
  0
ARC
  5
6A0F
  8
0
 10
7.7269027075262349
 20
10.8926811525838598
 30
0.0
 40
0.2622461286616791
 50
180.4593995232625048
 51
217.0214027758331099
  0
LINE
  5
6A10
  8
0
 10
9.767814609867095
 20
10.9287685970688493
 30
0.0
 11
9.767814609867095
 21
10.8905433757650094
 31
0.0
  0
ARC
  5
6A11
  8
0
 10
9.5068669568548287
 20
10.8922438613003703
 30
0.0
 40
0.2609531936261092
 50
322.8847083717149076
 51
359.6266329125650145
  0
LINE
  5
6A12
  8
0
 10
7.517522606271406
 20
10.7347792678688396
 30
0.0
 11
9.7149570120691777
 21
10.7347792678688396
 31
0.0
  0
LINE
  5
6A13
  8
0
 10
7.4646650085734834
 20
10.9287685970688493
 30
0.0
 11
9.7678146123202936
 21
10.9287685970688493
 31
0.0
  0
ARC
  5
6A14
  8
0
 10
4.0826771419203629
 20
8.527951346868889
 30
0.0
 40
4.0826771653999172
 50
13.3117747050523896
 51
32.7200330051415591
  0
ARC
  5
6A15
  8
0
 10
4.0826771460567306
 20
8.5279513475907933
 30
0.0
 40
4.0826771612084691
 50
359.6656501984817851
 51
13.3117747085593798
  0
ARC
  5
6A16
  8
0
 10
13.1498041284835097
 20
8.5279508235212234
 30
0.0
 40
4.0826788382043553
 50
147.2799733478981068
 51
166.6882233021349862
  0
ARC
  5
6A17
  8
0
 10
13.1498064934207992
 20
8.5279506557033251
 30
0.0
 40
4.0826811782395342
 50
166.688228652086309
 51
180.3343397625230011
  0
LINE
  5
6A18
  8
0
 10
8.1652847935202928
 20
8.504127000268852
 30
0.0
 11
9.0671948248202892
 21
8.5041270002687881
 31
0.0
  0
LINE
  5
6A19
  8
0
 10
8.1652847935202786
 20
8.5041270002667204
 30
0.0
 11
8.1652847935202928
 21
8.3607006934688481
 31
0.0
  0
ARC
  5
6A1A
  8
0
 10
5.6196779630382627
 20
8.3631022096452732
 30
0.0
 40
2.545607963272567
 50
342.0511668832173768
 51
359.945947387132378
  0
LINE
  5
6A1B
  8
0
 10
9.0671948248202892
 20
8.5041270002687881
 30
0.0
 11
9.0671948248202892
 21
8.2885990108688503
 31
0.0
  0
ARC
  5
6A1C
  8
0
 10
9.4521885297801163
 20
7.9614488056228501
 30
0.0
 40
0.5052201595850959
 50
139.6436242991769916
 51
174.6757930071850069
  0
ARC
  5
6A1D
  8
0
 10
9.9238413395551746
 20
8.1492417579399508
 30
0.0
 40
0.9848265662939324
 50
188.2263441834095943
 51
209.5593615864376034
  0
ARC
  5
6A1E
  8
0
 10
8.0788764238271256
 20
7.5665710856463297
 30
0.0
 40
0.0393715937169877
 50
162.1669117288323037
 51
227.2023190037006088
  0
ARC
  5
6A1F
  8
0
 10
8.7223682141740682
 20
8.2079667397440517
 30
0.0
 40
0.947895137885075
 50
225.0018610752970858
 51
261.4598823366255829
  0
ARC
  5
6A20
  8
0
 10
8.6645157662702701
 20
8.1695128573935332
 30
0.0
 40
0.9027466462812931
 50
264.7303071214498118
 51
281.8608311947915013
  0
ARC
  5
6A21
  8
0
 10
8.6645157662698935
 20
8.1695128573999671
 30
0.0
 40
0.9027466462876658
 50
299.1741886792128753
 51
299.1743179154552195
  0
ARC
  5
6A22
  8
0
 10
9.0843330931590316
 20
7.4150554710086141
 30
0.0
 40
0.0393703053609601
 50
251.9700352025496954
 51
252.4698971938937859
  0
ARC
  5
6A23
  8
0
 10
9.0843330931590316
 20
7.4150554710086141
 30
0.0
 40
0.0393703053609601
 50
297.2453716727138726
 51
6.8376113572703074
  0
LINE
  5
6A24
  8
0
 10
9.0671948248202892
 20
7.663402160468852
 30
0.0
 11
9.1234233799329516
 21
7.419742732911689
 31
0.0
  0
ARC
  5
6A25
  8
0
 10
8.8843741880892395
 20
9.8961379890094676
 30
0.0
 40
2.5255097382132701
 50
263.792800240752797
 51
274.9514951129821156
  0
ARC
  5
6A26
  8
0
 10
8.8258167405968848
 20
9.2763025889666508
 30
0.0
 40
1.9029970832759311
 50
246.0108363320686067
 51
263.5276935074397215
  0
ARC
  5
6A27
  8
0
 10
8.607491361665744
 20
8.3225444804829642
 30
0.0
 40
1.064510137163637
 50
283.1717405874071005
 51
297.7022170607311864
  0
LINE
  5
6A28
  8
0
 10
9.0671948248202892
 20
8.2885990108688503
 30
0.0
 11
26.2014378595979593
 21
8.2885990108689942
 31
0.0
  0
LINE
  5
6A29
  8
0
 10
26.2014378595979913
 20
7.6634021604689053
 30
0.0
 11
9.0671948248202892
 21
7.6634021604688618
 31
0.0
  0
LINE
  5
6A2A
  8
0
 10
27.8039676758446994
 20
10.9287685970690802
 30
0.0
 11
27.8039676758446888
 21
10.8905784766690807
 31
0.0
  0
ARC
  5
6A2B
  8
0
 10
27.5417299768919399
 20
10.8926811525840801
 30
0.0
 40
0.2622461286616791
 50
322.9785972241680838
 51
359.5406004767386889
  0
LINE
  5
6A2C
  8
0
 10
25.5008180745510913
 20
10.9287685970690305
 30
0.0
 11
25.5008180745510913
 21
10.8905433757651799
 31
0.0
  0
ARC
  5
6A2D
  8
0
 10
25.7617657275633505
 20
10.8922438613005497
 30
0.0
 40
0.2609531936261092
 50
180.3733670874362929
 51
217.1152916282862861
  0
LINE
  5
6A2E
  8
0
 10
27.7511100781467803
 20
10.7347792678690706
 30
0.0
 11
25.5536756723490015
 21
10.7347792678690208
 31
0.0
  0
LINE
  5
6A2F
  8
0
 10
27.8039676758446888
 20
10.9287685970686006
 30
0.0
 11
25.5008180745510806
 21
10.9287685970686006
 31
0.0
  0
ARC
  5
6A30
  8
0
 10
31.1859555424978616
 20
8.5279513468691981
 30
0.0
 40
4.0826771653999172
 50
147.2799669948597057
 51
166.6882252949490066
  0
ARC
  5
6A31
  8
0
 10
31.185955538361501
 20
8.5279513475911024
 30
0.0
 40
4.0826771612084691
 50
166.6882252914419098
 51
180.3343498015194086
  0
ARC
  5
6A32
  8
0
 10
22.1188285559344706
 20
8.5279508235212251
 30
0.0
 40
4.0826788382046102
 50
13.3117766978667795
 51
32.7200266521023977
  0
ARC
  5
6A33
  8
0
 10
22.1188261909974315
 20
8.5279506557034264
 30
0.0
 40
4.0826811782395342
 50
359.665660237478221
 51
13.31177134791497
  0
LINE
  5
6A34
  8
0
 10
27.1033478908979397
 20
8.5041270002690652
 30
0.0
 11
26.2014378595979416
 21
8.5041270002689835
 31
0.0
  0
LINE
  5
6A35
  8
0
 10
27.1033478908979504
 20
8.5041270002669354
 30
0.0
 11
27.1033478908979397
 21
8.3607006934690649
 31
0.0
  0
ARC
  5
6A36
  8
0
 10
29.6489547213799689
 20
8.3631022096455467
 30
0.0
 40
2.545607963272567
 50
180.0540526128687873
 51
197.9488331167837032
  0
LINE
  5
6A37
  8
0
 10
26.2014378595979416
 20
8.5041270002689835
 30
0.0
 11
26.2014378595979487
 21
8.2885990108690457
 31
0.0
  0
ARC
  5
6A38
  8
0
 10
25.8164441546381305
 20
7.9614488056230366
 30
0.0
 40
0.5052201595850959
 50
5.324206992816312
 51
40.3563757008241879
  0
ARC
  5
6A39
  8
0
 10
25.3447913448601803
 20
8.149241757940846
 30
0.0
 40
0.9848265662968968
 50
330.4406384136033807
 51
351.7736558165743759
  0
ARC
  5
6A3A
  8
0
 10
27.1897562605911212
 20
7.5665710856465473
 30
0.0
 40
0.0393715937169877
 50
312.7976809963004143
 51
17.8330882711689185
  0
ARC
  5
6A3B
  8
0
 10
26.5462644702441715
 20
8.2079667397442542
 30
0.0
 40
0.947895137885075
 50
278.5401176633754972
 51
314.9981389247041079
  0
ARC
  5
6A3C
  8
0
 10
26.6041169181479695
 20
8.1695128573937392
 30
0.0
 40
0.9027466462812931
 50
258.139168805210204
 51
275.2696928785518935
  0
ARC
  5
6A3D
  8
0
 10
26.6041169181483497
 20
8.1695128574001732
 30
0.0
 40
0.9027466462876658
 50
240.8256820845460027
 51
240.8258113207880058
  0
ARC
  5
6A3E
  8
0
 10
26.1842995912592293
 20
7.4150554710088086
 30
0.0
 40
0.0393703053609601
 50
287.5301028061073794
 51
288.0299647974517825
  0
ARC
  5
6A3F
  8
0
 10
26.1842995912592293
 20
7.4150554710088086
 30
0.0
 40
0.0393703053609601
 50
173.1623886427310026
 51
242.7546283272870085
  0
LINE
  5
6A40
  8
0
 10
26.2014378595981192
 20
7.6634021604690448
 30
0.0
 11
26.1452093044853093
 21
7.4197427329118826
 31
0.0
  0
ARC
  5
6A41
  8
0
 10
26.384258496328961
 20
9.8961379890096666
 30
0.0
 40
2.5255097382132701
 50
265.0485048870193054
 51
276.2071997592482262
  0
ARC
  5
6A42
  8
0
 10
26.4428159438213299
 20
9.2763025889668516
 30
0.0
 40
1.9029970832759311
 50
276.4723064925619838
 51
293.9891636679327007
  0
ARC
  5
6A43
  8
0
 10
26.6611413227524885
 20
8.3225444804831703
 30
0.0
 40
1.064510137163637
 50
242.2977829392704052
 51
256.8282594125943774
  0
LINE
  5
6A44
  8
0
 62
     4
 10
17.9031473532159602
 20
10.9287685970686006
 30
0.0
 11
24.6329820359843588
 21
20.0952817181593808
 31
0.0
  0
LINE
  5
6A45
  8
0
 62
     4
 10
17.9031473532159602
 20
-0.0000000300842942
 30
0.0
 11
22.3963351323106608
 21
4.993614497796286
 31
0.0
  0
ENDBLK
  5
6A49
  8
0
  0
ENDSEC
  0
SECTION
  2
ENTITIES
  0
ATTDEF
  5
3930
  8
DEFPOINTS
 10
3991.6075843260960028
 20
60.9364594954662024
 30
0.0
 40
0.001
  1
K-97821T-B9
  3

  2
MODELNUMBER
 70
     0
1001
ACDBATTR
1070
     0
1070
     1
  0
ATTDEF
  5
3931
  8
DEFPOINTS
 10
3991.6075843260960028
 20
60.9347928287995373
 30
0.0
 40
0.001
  1
ALEO
  3

  2
TRADENAME
 70
     0
1001
ACDBATTR
1070
     0
1070
     1
  0
ATTDEF
  5
3932
  8
DEFPOINTS
 10
3991.6075843260960028
 20
60.9331261621328721
 30
0.0
 40
0.001
  1
SHOWER COLUMN
  3

  2
PRODUCT
 70
     0
1001
ACDBATTR
1070
     0
1070
     1
  0
LINE
  5
8E3D
  8
0
 10
3990.9813731541771631
 20
75.8835616907231696
 30
0.0
 11
3991.9724923237258736
 21
75.8835616907231838
 31
0.0
  0
ARC
  5
8E3E
  8
0
 10
3990.9813731541771631
 20
75.9032616907231699
 30
0.0
 40
0.0197
 50
180.0
 51
270.0
  0
LINE
  5
8E3F
  8
0
 10
3990.9616731541777881
 20
77.1040767381564791
 30
0.0
 11
3990.9616731541777881
 21
75.9032616907231699
 31
0.0
  0
ARC
  5
8E40
  8
0
 10
3990.9813731541771631
 20
77.1040767381564791
 30
0.0
 40
0.0197
 50
90.0
 51
180.0
  0
LINE
  5
8E41
  8
0
 10
3991.0207432329780204
 20
77.6749002734231766
 30
0.0
 11
3992.2018156738768084
 21
77.6749002734231766
 31
0.0
  0
LINE
  5
8E42
  8
0
 10
3991.0207432329780204
 20
77.2415026963260942
 30
0.0
 11
3992.2018156738768084
 21
77.2415026963260942
 31
0.0
  0
LINE
  5
8E43
  8
0
 10
3990.9813731541771631
 20
77.1237767381564794
 30
0.0
 11
3992.2411857525780761
 21
77.1237767381564794
 31
0.0
  0
LINE
  5
8E44
  8
0
 10
3991.0600983510771584
 20
77.2415026964609268
 30
0.0
 11
3991.0600983510771584
 21
77.1237767381564794
 31
0.0
  0
LINE
  5
8E45
  8
0
 10
3992.1624605557772156
 20
77.1237767381564794
 30
0.0
 11
3992.1624605557772156
 21
77.2415026964609268
 31
0.0
  0
LINE
  5
8E46
  8
0
 10
3991.0010432329781906
 20
77.2612026963260377
 30
0.0
 11
3991.0010432329781906
 21
77.655200273388445
 31
0.0
  0
LINE
  5
8E47
  8
0
 10
3992.2215156738770929
 20
77.655200273388445
 30
0.0
 11
3992.2215156738770929
 21
77.2612026963260377
 31
0.0
  0
ARC
  5
8E48
  8
0
 10
3991.0207432329780204
 20
77.2612026963260377
 30
0.0
 40
0.0197
 50
180.0000000000096918
 51
269.9999999999478746
  0
ARC
  5
8E49
  8
0
 10
3991.0207432330371375
 20
77.655200273363775
 30
0.0
 40
0.0197000000594514
 50
90.0000001729537473
 51
179.9999999283973011
  0
ARC
  5
8E4A
  8
0
 10
3992.201815673818146
 20
77.655200273363775
 30
0.0
 40
0.0197000000594514
 50
0.0000000716385083
 51
89.9999998270983355
  0
ARC
  5
8E4B
  8
0
 10
3992.2018156738768084
 20
77.2612026963260377
 30
0.0
 40
0.0197
 50
269.9999999999478746
 51
359.9999999999902229
  0
LINE
  5
8E4C
  8
0
 10
3992.2608857526238353
 20
76.0548771879982723
 30
0.0
 11
3992.2608857525779058
 21
77.1040767381572749
 31
0.0
  0
ARC
  5
8E4D
  8
0
 10
3992.2411857525780761
 20
77.1040767381564791
 30
0.0
 40
0.0197
 50
0.0000000023775282
 51
90.0
  0
LINE
  5
8E4E
  8
0
 10
3991.2175786659781807
 20
88.2134435805232044
 30
0.0
 11
3991.2175786659781807
 21
77.6749002734231766
 31
0.0
  0
LINE
  5
8E4F
  8
0
 10
3992.004980240777968
 20
88.2134435805232044
 30
0.0
 11
3992.004980240777968
 21
77.6749002734231766
 31
0.0
  0
LINE
  5
8E50
  8
0
 10
3991.1191533878918563
 20
46.4920767244349165
 30
0.0
 11
3991.1191534690769913
 21
66.6587703880734637
 31
0.0
  0
LINE
  5
8E51
  8
0
 10
3991.1191534690769913
 20
68.3290851435510547
 30
0.0
 11
3991.1191534690769913
 21
75.8835616907231696
 31
0.0
  0
LINE
  5
8E52
  8
0
 10
3992.1034053563907946
 20
46.4920767243187569
 30
0.0
 11
3992.1034054375768392
 21
66.6586777576006
 31
0.0
  0
LINE
  5
8E53
  8
0
 10
3992.1034054375768392
 20
68.329081422449832
 30
0.0
 11
3992.1034054375768392
 21
72.42180300914805
 31
0.0
  0
LINE
  5
8E54
  8
0
 10
3989.7608857525779058
 20
68.2614994860231832
 30
0.0
 11
3989.7608857525779058
 21
66.7260819419232405
 31
0.0
  0
ARC
  5
8E55
  8
0
 10
3989.7805857525781903
 20
68.2614994860231832
 30
0.0
 40
0.0197
 50
90.0
 51
180.0
  0
LINE
  5
8E56
  8
0
 10
3990.3435554199782018
 20
68.4473810676231835
 30
0.0
 11
3990.296775246164998
 21
68.2716141801419099
 31
0.0
  0
LINE
  5
8E57
  8
0
 10
3990.8880042703240179
 20
68.2744087503555761
 30
0.0
 11
3990.9321787752051023
 21
68.4425483812341042
 31
0.0
  0
LINE
  5
8E58
  8
0
 10
3991.028602287978174
 20
68.320569564723229
 30
0.0
 11
3991.028602287978174
 21
68.2811994860231835
 31
0.0
  0
LINE
  5
8E59
  8
0
 10
3991.028602287978174
 20
66.7063963364231824
 30
0.0
 11
3991.0286022020800374
 21
66.6670262575588737
 31
0.0
  0
LINE
  5
8E5A
  8
0
 10
3992.1939567236831863
 20
66.6670262575507024
 30
0.0
 11
3992.1939566186779302
 21
66.7063963364231824
 31
0.0
  0
LINE
  5
8E5B
  8
0
 10
3992.1939566186779302
 20
68.2811994860232403
 30
0.0
 11
3992.1939566186779302
 21
68.320569564723229
 31
0.0
  0
LINE
  5
8E5C
  8
0
 10
3992.4380511068770829
 20
66.7063963364231824
 30
0.0
 11
3992.4380511068770829
 21
68.2811994860232403
 31
0.0
  0
LINE
  5
8E5D
  8
0
 10
3992.4812794533781926
 20
68.2811994860232403
 30
0.0
 11
3992.4812794533781926
 21
66.7063963364231824
 31
0.0
  0
LINE
  5
8E5E
  8
0
 10
3992.1742712872778611
 20
66.6473412183231915
 30
0.0
 11
3992.1270257323781152
 21
66.6473412183231915
 31
0.0
  0
LINE
  5
8E5F
  8
0
 10
3991.095533175177934
 20
66.6473412183231915
 30
0.0
 11
3991.0482876194778328
 21
66.6473412183231915
 31
0.0
  0
LINE
  5
8E60
  8
0
 10
3993.363169217127961
 20
66.7065553535673814
 30
0.0
 11
3992.4812794533781926
 21
66.7063963364231824
 31
0.0
  0
LINE
  5
8E61
  8
0
 10
3992.4380511068770829
 20
66.7063963364231824
 30
0.0
 11
3992.1939566186779302
 21
66.7063963364231824
 31
0.0
  0
LINE
  5
8E62
  8
0
 10
3991.028602287978174
 20
66.7063963364231824
 30
0.0
 11
3989.7805707919769702
 21
66.7063963364231824
 31
0.0
  0
LINE
  5
8E63
  8
0
 10
3991.107476034478168
 20
68.3363205331231995
 30
0.0
 11
3991.1059392157781076
 21
68.3372776063231697
 31
0.0
  0
LINE
  5
8E64
  8
0
 10
3992.4380511068770829
 20
68.2811994860232403
 30
0.0
 11
3992.1939566186779302
 21
68.2811994860232403
 31
0.0
  0
LINE
  5
8E65
  8
0
 10
3991.028602287978174
 20
68.2811994860231835
 30
0.0
 11
3990.9065550438781429
 21
68.2811994860232403
 31
0.0
  0
LINE
  5
8E66
  8
0
 10
3990.2687299527779032
 20
68.2811994860232403
 30
0.0
 11
3989.7805857525781903
 21
68.2811994860232403
 31
0.0
  0
LINE
  5
8E67
  8
0
 10
3992.1742712871778167
 20
68.3402546041232029
 30
0.0
 11
3992.1270257314781702
 21
68.3402546041232029
 31
0.0
  0
LINE
  5
8E68
  8
0
 10
3991.095533174277989
 20
68.3402546041232029
 30
0.0
 11
3991.0482876194778328
 21
68.3402546041232029
 31
0.0
  0
LINE
  5
8E69
  8
0
 10
3990.9125647793780445
 20
68.4623018482232339
 30
0.0
 11
3990.3626559279778121
 21
68.4623018482232339
 31
0.0
  0
ARC
  5
8E6A
  8
0
 10
3973.444128650824041
 20
67.503443872210724
 30
0.0
 40
20.6457673347370694
 50
359.6675384877559054
 51
1.7017164928677031
  0
ARC
  5
8E6B
  8
0
 10
3992.1744418115799817
 20
68.3207397995528538
 30
0.0
 40
0.0195155495948701
 50
359.5002005493961974
 51
90.5006496380373164
  0
ARC
  5
8E6C
  8
0
 10
3991.0482951059561856
 20
66.6670341223464504
 30
0.0
 40
0.019692905446315
 50
180.0228823088854142
 51
269.9782183683182097
  0
ARC
  5
8E6D
  8
0
 10
3991.048294972678832
 20
68.3205619193101086
 30
0.0
 40
0.019692686185875
 50
90.0213941071104244
 51
179.9777557055039097
  0
ARC
  5
8E6E
  8
0
 10
3992.1742649365692159
 20
66.667033005569948
 30
0.0
 40
0.0196917882708542
 50
270.0184782015119254
 51
359.9803657734727267
  0
ARC
  5
8E6F
  8
0
 10
3989.7805707919828819
 20
66.7260813757370954
 30
0.0
 40
0.0196850394138788
 50
179.9983520442083034
 51
269.9999999832725734
  0
ARC
  5
8E70
  8
0
 10
3993.6708615871361872
 20
78.5245395830396831
 30
0.0
 40
11.81683398161152
 50
270.7341849046795801
 51
271.8726830465919875
  0
ARC
  5
8E71
  8
0
 10
3990.5876424983280231
 20
69.1684729570184231
 30
0.0
 40
0.9428464477533351
 50
250.230049584099504
 51
289.769950415900496
  0
ARC
  5
8E72
  8
0
 10
3990.362753383521067
 20
68.4424911554648645
 30
0.0
 40
0.0198109324654052
 50
90.2818551770188833
 51
165.710053721321998
  0
ARC
  5
8E73
  8
0
 10
3990.911638324147134
 20
68.441767446113289
 30
0.0
 40
0.0205552910294577
 50
2.1773010810035549
 51
87.4167253080906761
  0
ARC
  5
8E74
  8
0
 10
3992.1272894841367815
 20
66.6679387210303105
 30
0.0
 40
0.0205991913133042
 50
238.8037209814036999
 51
269.2663655898824118
  0
ARC
  5
8E75
  8
0
 10
3991.0952694186330518
 20
66.6679387338912335
 30
0.0
 40
0.0205992042343559
 50
270.7336472616526066
 51
301.196265012893889
  0
ARC
  5
8E76
  8
0
 10
3991.8273286206172088
 20
65.5370428733308756
 30
0.0
 40
1.326568755318531
 50
108.2166994898025933
 51
122.9427657170064947
  0
ARC
  5
8E77
  8
0
 10
3991.3253985330020441
 20
65.4142279870339109
 30
0.0
 40
1.4676341420909
 50
57.3766989269720398
 51
67.1705387684071837
  0
ARC
  5
8E78
  8
0
 10
3991.6142687467499854
 20
66.1526649069905091
 30
0.0
 40
0.6752690961265977
 50
65.4508533771593761
 51
107.3740509861253969
  0
ARC
  5
8E79
  8
0
 10
3992.0898364441600279
 20
65.1974419765405457
 30
0.0
 40
1.8447658915039069
 50
115.519161786889299
 51
125.118378687433605
  0
ARC
  5
8E7A
  8
0
 10
3991.0993190759531899
 20
65.1465764655183932
 30
0.0
 40
1.905588984963335
 50
54.9399058828629094
 51
63.2204543824423268
  0
ARC
  5
8E7B
  8
0
 10
3991.6125807674848147
 20
66.2391940644676822
 30
0.0
 40
0.6997338106028512
 50
60.4291431544535911
 51
90.1059713646673117
  0
ARC
  5
8E7C
  8
0
 10
3991.6136699896492246
 20
66.2389123295784827
 30
0.0
 40
0.7000184061758531
 50
90.1950803009262074
 51
117.0717516822140993
  0
ARC
  5
8E7D
  8
0
 10
3985.6526193893691925
 20
59.1010557866987369
 30
0.0
 40
10.6384317672472903
 50
58.2119211380358479
 51
59.646338527772599
  0
ARC
  5
8E7E
  8
0
 10
4011.1992427016339207
 20
36.3106902893968027
 30
0.0
 40
37.1929342400756511
 50
120.7299186375677067
 51
121.1519214634159027
  0
ARC
  5
8E7F
  8
0
 10
3991.6807158364340467
 20
68.9627539489015646
 30
0.0
 40
0.9222489051167313
 50
242.6296832467699005
 51
257.4595015863168896
  0
ARC
  5
8E80
  8
0
 10
3991.5156642083629777
 20
69.0235081439701901
 30
0.0
 40
0.9881851047418559
 50
286.4115463618041986
 51
296.6562693098402974
  0
ARC
  5
8E81
  8
0
 10
3991.611953825773071
 20
68.6871618380838811
 30
0.0
 40
0.6383429267478848
 50
258.1131558279644196
 51
286.6505730029551273
  0
ARC
  5
8E82
  8
0
 10
3991.0952694224070001
 20
68.3196571012602192
 30
0.0
 40
0.0205991914705302
 50
58.8037205589285676
 51
89.2663652856901848
  0
ARC
  5
8E83
  8
0
 10
3992.1272880187889314
 20
68.319662225182384
 30
0.0
 40
0.0205940492637517
 50
90.7297429506284203
 51
121.200170633015901
  0
ARC
  5
8E84
  8
0
 10
3992.0470324331049596
 20
69.8396606945780434
 30
0.0
 40
1.7727938027998831
 50
237.9954719487186026
 51
243.6489972729038129
  0
ARC
  5
8E85
  8
0
 10
3991.1428852462040595
 20
69.8924253734840306
 30
0.0
 40
1.834841504673234
 50
298.2235835426894255
 51
302.0521759363426781
  0
ARC
  5
8E86
  8
0
 10
3991.6843204683359545
 20
69.0986382175373421
 30
0.0
 40
0.947781122984039
 50
243.4136087229643124
 51
256.4232709796177119
  0
ARC
  5
8E87
  8
0
 10
3991.4919287975772022
 20
69.2211142316009784
 30
0.0
 40
1.078321594820411
 50
285.7932177040563033
 51
298.7510394338116271
  0
ARC
  5
8E88
  8
0
 10
3991.611734240322221
 20
68.8050979563833209
 30
0.0
 40
0.6454061127108643
 50
256.5697599588556272
 51
285.6105913023317839
  0
ARC
  5
8E89
  8
0
 10
3994.0550404053860802
 20
66.7320776589638456
 30
0.0
 40
0.0181689623922502
 50
276.2549306105875075
 51
311.0706378388459825
  0
ARC
  5
8E8A
  8
0
 10
3994.0455044408818139
 20
66.7409362852152128
 30
0.0
 40
0.0311426168343931
 50
313.5903859127703868
 51
358.280722147185088
  0
ARC
  5
8E8B
  8
0
 10
3980.1481190510107808
 20
67.3555387027439849
 30
0.0
 40
13.9421084276290195
 50
357.4695988938307778
 51
0.5654961634050735
  0
ARC
  5
8E8C
  8
0
 10
3992.0216889576458925
 20
69.789977177661541
 30
0.0
 40
1.7735218821582019
 50
235.9475394648744953
 51
246.1611218083407948
  0
ARC
  5
8E8D
  8
0
 10
3991.6492013507199772
 20
68.952915911764677
 30
0.0
 40
0.8573304767496781
 50
246.3213356492692867
 51
259.2091899155245756
  0
ARC
  5
8E8E
  8
0
 10
3991.2009335787101918
 20
69.789977177661541
 30
0.0
 40
1.7735218821582019
 50
293.8388781916593189
 51
304.0499794945449139
  0
ARC
  5
8E8F
  8
0
 10
3991.5734211856361071
 20
68.952915911764677
 30
0.0
 40
0.8573304767496781
 50
280.7908100844754244
 51
293.6786643507306849
  0
ARC
  5
8E90
  8
0
 10
3991.6113112681778148
 20
68.7599152855158593
 30
0.0
 40
0.6606495925927091
 50
259.3033558307824933
 51
280.6966441692175067
  0
ARC
  5
8E91
  8
0
 10
3992.0216889576458925
 20
65.1976186447848534
 30
0.0
 40
1.7735218821582019
 50
113.8388781916592052
 51
124.0524638835996996
  0
ARC
  5
8E92
  8
0
 10
3991.6492013507199772
 20
66.0346799106817031
 30
0.0
 40
0.8573304767496781
 50
100.790810084475396
 51
113.6786643507306991
  0
ARC
  5
8E93
  8
0
 10
3991.2009335787101918
 20
65.1976186447848534
 30
0.0
 40
1.7735218821582019
 50
55.9500164156295128
 51
66.1611218083407238
  0
ARC
  5
8E94
  8
0
 10
3991.5734211856361071
 20
66.0346799106817031
 30
0.0
 40
0.8573304767496781
 50
66.3213356492692867
 51
79.209189915524604
  0
ARC
  5
8E95
  8
0
 10
3991.6113112681778148
 20
66.227680536930535
 30
0.0
 40
0.6606495925927091
 50
79.3033558307824791
 51
100.6966441692175067
  0
LINE
  5
8E96
  8
0
 10
3993.9142355400781526
 20
68.0106841541584402
 30
0.0
 11
3994.0570199581961788
 21
67.9689017583231987
 31
0.0
  0
LINE
  5
8E97
  8
0
 10
3994.0570199581961788
 20
67.9689017583231987
 30
0.0
 11
3994.0570199577778112
 21
66.7140168570231538
 31
0.0
  0
ARC
  5
8E98
  8
0
 10
3993.6226608404567742
 20
68.3005744964771964
 30
0.0
 40
0.4111595992180106
 50
269.4401071700903003
 51
315.1659709316064095
  0
ARC
  5
8E99
  8
0
 10
3993.6239084766798442
 20
68.4309395485315406
 30
0.0
 40
0.5415306192608998
 50
215.9680522820916053
 51
269.4428926438168901
  0
ARC
  5
8E9A
  8
0
 10
3993.4873824144769969
 20
73.976055989316194
 30
0.0
 40
2.4136676734021609
 50
91.4300920918444291
 51
120.5760353934721962
  0
ARC
  5
8E9B
  8
0
 10
3993.1308747017478709
 20
74.2605127979942949
 30
0.0
 40
1.9940254366228201
 50
115.9091407634218029
 51
182.7280869563101078
  0
ARC
  5
8E9C
  8
0
 10
3993.1447812110791347
 20
74.1363028146545844
 30
0.0
 40
2.0058860781546288
 50
179.1629893662477002
 51
238.7039743833634873
  0
ARC
  5
8E9D
  8
0
 10
3969.1561322024308538
 20
43.694228366876267
 30
0.0
 40
36.7675249881712176
 50
50.3542005758122997
 51
51.3837212339970577
  0
ARC
  5
8E9E
  8
0
 10
3991.9322835402540477
 20
71.1493898913343514
 30
0.0
 40
1.0950535540491551
 50
21.8756562851743688
 51
51.4128817618774718
  0
ARC
  5
8E9F
  8
0
 10
3992.0809165140731238
 20
71.2233478316713331
 30
0.0
 40
0.9296611689740297
 50
1.58721292751163
 51
21.0588422784723583
  0
ARC
  5
8EA0
  8
0
 10
1678.4540331530899948
 20
14.6681811032796308
 30
0.0
 40
2315.2476642536189502
 50
1.323619933477687
 51
1.4003558116867589
  0
ARC
  5
8EA1
  8
0
 10
3993.6714972651448079
 20
71.6961301674444655
 30
0.0
 40
3.6160411725339991
 50
260.9922359328696189
 51
269.1597722204696765
  0
ARC
  5
8EA2
  8
0
 10
3993.1093166671957988
 20
68.1497718937804109
 30
0.0
 40
0.0254
 50
181.3404901848697932
 51
260.9922359328696189
  0
ARC
  5
8EA3
  8
0
 10
3993.6937725358839089
 20
71.787070486135633
 30
0.0
 40
0.7118909310061742
 50
201.179739948922105
 51
240.3703018833593887
  0
ARC
  5
8EA4
  8
0
 10
3993.6193121347841952
 20
71.6560670507000737
 30
0.0
 40
0.5612050024803898
 50
240.3658867938592039
 51
269.8439350144718105
  0
ARC
  5
8EA5
  8
0
 10
3991.9438991828737926
 20
71.1117105522178434
 30
0.0
 40
1.1637880270483849
 50
21.0576534690282884
 51
52.8424354234241278
  0
ARC
  5
8EA6
  8
0
 10
3999.9892329502981738
 20
81.7273633089307054
 30
0.0
 40
12.1561023208619297
 50
228.6384019369108103
 51
232.842435423424007
  0
ARC
  5
8EA7
  8
0
 10
3993.0794844030119748
 20
74.0894187639275401
 30
0.0
 40
1.862575417757544
 50
185.5695806724706074
 51
232.9157172566407041
  0
ARC
  5
8EA8
  8
0
 10
3992.9242679984790811
 20
74.0169335966252788
 30
0.0
 40
1.702014125489006
 50
141.8533822217004001
 51
183.647756701482308
  0
ARC
  5
8EA9
  8
0
 10
3993.387959940680048
 20
73.6547697635241434
 30
0.0
 40
2.290377084417611
 50
112.057888091626296
 51
141.8932543066364929
  0
ARC
  5
8EAA
  8
0
 10
3993.6102564158368295
 20
73.165529811612771
 30
0.0
 40
2.827376895197236
 50
89.8474661641559749
 51
112.5096876902948964
  0
ARC
  5
8EAB
  8
0
 10
3993.6017852911281807
 20
73.23900660724928
 30
0.0
 40
2.8519181337222692
 50
89.6785901306135855
 51
124.0436060122063964
  0
ARC
  5
8EAC
  8
0
 10
3993.1216534989080174
 20
73.9496639923814314
 30
0.0
 40
1.9942699209074479
 50
124.0436060122063964
 51
173.78378486250989
  0
ARC
  5
8EAD
  8
0
 10
3993.3952641844380196
 20
75.5402472705354739
 30
0.0
 40
0.0220238406618899
 50
82.725038174922048
 51
281.2287278120618907
  0
ARC
  5
8EAE
  8
0
 10
3993.3989351001550858
 20
75.5403739788551434
 30
0.0
 40
0.0217377389120819
 50
271.6283436917360063
 51
92.3254222952474777
  0
LINE
  5
8EAF
  8
0
 10
3993.3329744500379093
 20
75.5756443801734576
 30
0.0
 11
3993.3330078199378477
 21
75.5494991382734611
 31
0.0
  0
ARC
  5
8EB0
  8
0
 10
3993.3940178347261281
 20
75.5522400762532129
 30
0.0
 40
0.0610715534888087
 50
182.572342423313188
 51
246.3308897016675871
  0
ARC
  5
8EB1
  8
0
 10
3993.3963966600599633
 20
75.5576671394433532
 30
0.0
 40
0.0669970766585589
 50
246.3308897016675871
 51
332.4315603757950726
  0
ARC
  5
8EB2
  8
0
 10
3993.416841426764222
 20
75.5469932091009468
 30
0.0
 40
0.0439336581229258
 50
332.4315603757950726
 51
358.8488007310261878
  0
LINE
  5
8EB3
  8
0
 10
3993.4607662172379605
 20
75.5461105438734535
 30
0.0
 11
3993.4609272604561738
 21
75.5737521296605905
 31
0.0
  0
ARC
  5
8EB4
  8
0
 10
3993.3942220780259049
 20
75.5749952591613123
 30
0.0
 40
0.0612510676823524
 50
87.0072128386655379
 51
179.3927846156589965
  0
ARC
  5
8EB5
  8
0
 10
3993.3939126583759389
 20
75.5690769252614132
 30
0.0
 40
0.067177484531506
 50
3.990714892411857
 51
87.0072128386655379
  0
ARC
  5
8EB6
  8
0
 10
3993.6177827375367997
 20
70.1856287850740159
 30
0.0
 40
4.2580726628993988
 50
90.1383396389592804
 51
94.6318899422178532
  0
ARC
  5
8EB7
  8
0
 10
3993.3196995768548732
 20
73.8648364729130549
 30
0.0
 40
0.5668096296089759
 50
94.6318899422178532
 51
132.5221610261496892
  0
ARC
  5
8EB8
  8
0
 10
3993.1904804153368787
 20
74.0057449852107538
 30
0.0
 40
0.3756217624696922
 50
132.5221610261496892
 51
173.402472354982109
  0
ARC
  5
8EB9
  8
0
 10
3994.3761546623891263
 20
73.8686096415621591
 30
0.0
 40
1.5692002151068629
 50
173.402472354982109
 51
186.6096591042318948
  0
ARC
  5
8EBA
  8
0
 10
3993.3058797141529794
 20
73.7939594887205317
 30
0.0
 40
0.4998577894107502
 50
192.2398390942884134
 51
266.3230359061441845
  0
ARC
  5
8EBB
  8
0
 10
3993.6178002051510703
 20
76.2217150343275307
 30
0.0
 40
2.94672974474451
 50
263.2964802588920747
 51
269.7997571086470998
  0
ARC
  5
8EBC
  8
0
 10
3993.5972206763372014
 20
70.1856287850740159
 30
0.0
 40
4.2580726628993988
 50
85.3681100577821468
 51
89.8616603610407338
  0
ARC
  5
8EBD
  8
0
 10
3993.895303837020947
 20
73.8648364729130549
 30
0.0
 40
0.5668096296089759
 50
47.4778389738498987
 51
85.3681100577821468
  0
ARC
  5
8EBE
  8
0
 10
3994.024522998539851
 20
74.0057449852107538
 30
0.0
 40
0.3756217624696922
 50
6.5975276450179168
 51
47.4778389738498987
  0
ARC
  5
8EBF
  8
0
 10
3992.838848751488058
 20
73.8686096415621591
 30
0.0
 40
1.5692002151068629
 50
353.3903408957664283
 51
6.5975276450179168
  0
ARC
  5
8EC0
  8
0
 10
3993.9091236997219312
 20
73.7939594887205317
 30
0.0
 40
0.4998577894107502
 50
273.6769640938558155
 51
347.7601609057114729
  0
ARC
  5
8EC1
  8
0
 10
3993.5972032087238404
 20
76.2217150343275307
 30
0.0
 40
2.94672974474451
 50
270.2002428913527865
 51
276.7035197411079253
  0
ARC
  5
8EC2
  8
0
 10
3993.141981176373065
 20
73.6778025639253542
 30
0.0
 40
0.053340073914535
 50
86.5436946793946333
 51
198.4023246923713941
  0
ARC
  5
8EC3
  8
0
 10
3993.1403223358011019
 20
73.6772506663594982
 30
0.0
 40
0.051591833952649
 50
198.4023246923713941
 51
275.4215915704173199
  0
ARC
  5
8EC4
  8
0
 10
3993.1466472872430131
 20
73.6822475342989378
 30
0.0
 40
0.0563765618802766
 50
268.525813511788499
 51
343.790375536273018
  0
ARC
  5
8EC5
  8
0
 10
3993.1477349928159128
 20
73.6770253234797536
 30
0.0
 40
0.0540798839809999
 50
348.7878264914709803
 51
92.6900029226422788
  0
ARC
  5
8EC6
  8
0
 10
3993.1437266686821204
 20
73.6885825411277438
 30
0.0
 40
0.087455636302521
 50
211.7766659779182987
 51
270.9632640099114838
  0
ARC
  5
8EC7
  8
0
 10
3993.1353920063320402
 20
73.6834195295722907
 30
0.0
 40
0.0776513879982672
 50
169.6510366562785919
 51
211.7766659779182987
  0
ARC
  5
8EC8
  8
0
 10
3993.143406450558814
 20
73.6734147489931388
 30
0.0
 40
0.0877360013887729
 50
95.5539989263954368
 51
164.1555240633734059
  0
ARC
  5
8EC9
  8
0
 10
3993.1465287348742095
 20
73.6885385803219037
 30
0.0
 40
0.087409462993095
 50
269.1269752902226173
 51
331.0644360775921768
  0
ARC
  5
8ECA
  8
0
 10
3993.1698845331989105
 20
73.6786378719882009
 30
0.0
 40
0.0622349069558286
 50
328.6374736489843826
 51
6.9540997524238568
  0
ARC
  5
8ECB
  8
0
 10
3993.1520311334497819
 20
73.6795570763699033
 30
0.0
 40
0.0799048281514303
 50
4.7493232466000279
 51
64.1234310398365324
  0
ARC
  5
8ECC
  8
0
 10
3993.1452171593091407
 20
73.6682611641768403
 30
0.0
 40
0.0930497691628509
 50
63.3839751870512416
 51
96.3566142337626133
  0
ARC
  5
8ECD
  8
0
 10
3993.6152685077668139
 20
71.5085216542165085
 30
0.0
 40
0.3587648811798778
 50
89.5983453021568437
 51
117.4424421806099019
  0
ARC
  5
8ECE
  8
0
 10
3993.6134285326079407
 20
71.6954308964896541
 30
0.0
 40
0.2854016372740877
 50
195.3807565159777084
 51
270.8743149379636748
  0
ARC
  5
8ECF
  8
0
 10
3993.5315639106797789
 20
71.6467438872518301
 30
0.0
 40
0.1978037493041516
 50
114.3749440754646969
 51
170.3638048051952865
  0
ARC
  5
8ED0
  8
0
 10
3993.5153843693760791
 20
71.6548195044039744
 30
0.0
 40
0.1805771345647331
 50
172.0308904085052859
 51
191.2039001636119906
  0
ARC
  5
8ED1
  8
0
 10
3993.1398855455099692
 20
72.1007626205094425
 30
0.0
 40
0.2337983887487051
 50
106.6063643087029931
 51
154.8221185996814881
  0
ARC
  5
8ED2
  8
0
 10
3993.1802489330598291
 20
71.9654212412712013
 30
0.0
 40
0.3750304388951984
 50
50.5215427569633633
 51
106.6063643087029931
  0
ARC
  5
8ED3
  8
0
 10
3993.3014660057001493
 20
72.1125820078026436
 30
0.0
 40
0.1843740204199287
 50
355.3221099329491039
 51
50.5215427569633633
  0
ARC
  5
8ED4
  8
0
 10
3993.3209445308521026
 20
72.1046437837436542
 30
0.0
 40
0.1644346093184204
 50
308.634711437156227
 51
357.5259271491459003
  0
ARC
  5
8ED5
  8
0
 10
3993.2347722676690864
 20
72.1958045949538132
 30
0.0
 40
0.289632733632529
 50
259.176011703316874
 51
310.6917689289898021
  0
ARC
  5
8ED6
  8
0
 10
3993.2342490314540555
 20
72.2579616017362696
 30
0.0
 40
0.3507973690653712
 50
218.583439087737105
 51
261.1668431250777758
  0
ARC
  5
8ED7
  8
0
 10
3993.0946264354997766
 20
72.1493521850209731
 30
0.0
 40
0.1739332294707225
 50
162.992380494326909
 51
219.3002861020156899
  0
ARC
  5
8ED8
  8
0
 10
3994.095681453765792
 20
72.1007626205094425
 30
0.0
 40
0.2337983887487051
 50
25.1778814003190803
 51
73.3936356912970211
  0
ARC
  5
8ED9
  8
0
 10
3994.055318066215932
 20
71.9654212412712013
 30
0.0
 40
0.3750304388951984
 50
73.3936356912970211
 51
129.4784572430367007
  0
ARC
  5
8EDA
  8
0
 10
3993.9341009935751572
 20
72.1125820078026436
 30
0.0
 40
0.1843740204199287
 50
129.4784572430367007
 51
184.6778900670491907
  0
ARC
  5
8EDB
  8
0
 10
3993.9146224684232038
 20
72.1046437837436542
 30
0.0
 40
0.1644346093184204
 50
182.4740728508523944
 51
231.3652885628438014
  0
ARC
  5
8EDC
  8
0
 10
3994.00079473160622
 20
72.1958045949538132
 30
0.0
 40
0.289632733632529
 50
229.3082310710101979
 51
280.823988296683126
  0
ARC
  5
8EDD
  8
0
 10
3994.0013179678207962
 20
72.2579616017362696
 30
0.0
 40
0.3507973690653712
 50
278.8331568749222242
 51
321.4165609122629235
  0
ARC
  5
8EDE
  8
0
 10
3994.1409405637759846
 20
72.1493521850209731
 30
0.0
 40
0.1739332294707225
 50
320.6997138979842816
 51
17.0076195056731301
  0
ARC
  5
8EDF
  8
0
 10
3993.6202984915089473
 20
71.5085216542165085
 30
0.0
 40
0.3587648811798865
 50
62.5575578193901478
 51
90.4016546978431563
  0
ARC
  5
8EE0
  8
0
 10
3993.6221384666678205
 20
71.6954308964896541
 30
0.0
 40
0.2854016372740877
 50
269.1256850620363252
 51
344.6192434840198189
  0
ARC
  5
8EE1
  8
0
 10
3993.7040030885959823
 20
71.6467438872518301
 30
0.0
 40
0.1978037493041516
 50
9.6361951948046922
 51
65.6250559245352463
  0
ARC
  5
8EE2
  8
0
 10
3993.7201826299001368
 20
71.6548195044039744
 30
0.0
 40
0.1805771345647331
 50
348.7960998363878957
 51
7.969109591494659
  0
ARC
  5
8EE3
  8
0
 10
3993.3463679896140093
 20
75.13691596304119
 30
0.0
 40
0.0220238406618899
 50
82.725038174922048
 51
281.2287278120618907
  0
ARC
  5
8EE4
  8
0
 10
3993.350038905330166
 20
75.1370426713609163
 30
0.0
 40
0.0217377389120819
 50
271.6283436917360063
 51
92.3254222952474777
  0
LINE
  5
8EE5
  8
0
 10
3993.284078255213899
 20
75.1723130726791737
 30
0.0
 11
3993.2841116251152016
 21
75.146167830779234
 31
0.0
  0
ARC
  5
8EE6
  8
0
 10
3993.3451216399030272
 20
75.1489087687589858
 30
0.0
 40
0.0610715534888087
 50
182.572342423313188
 51
246.3308897016675871
  0
ARC
  5
8EE7
  8
0
 10
3993.347500465235953
 20
75.1543358319491404
 30
0.0
 40
0.0669970766585589
 50
246.3308897016675871
 51
332.4315603757950726
  0
ARC
  5
8EE8
  8
0
 10
3993.3679452319411212
 20
75.1436619016066629
 30
0.0
 40
0.0439336581229258
 50
332.4315603757950726
 51
358.8488007310261878
  0
LINE
  5
8EE9
  8
0
 10
3993.4118700224139502
 20
75.1427792363792264
 30
0.0
 11
3993.4120310656307993
 21
75.1704208221663635
 31
0.0
  0
ARC
  5
8EEA
  8
0
 10
3993.3453258832018946
 20
75.1716639516670853
 30
0.0
 40
0.0612510676823524
 50
87.0072128386655379
 51
179.3927846156589965
  0
ARC
  5
8EEB
  8
0
 10
3993.3450164635528381
 20
75.1657456177671861
 30
0.0
 40
0.067177484531506
 50
3.990714892411857
 51
87.0072128386655379
  0
ARC
  5
8EEC
  8
0
 10
3993.4619226612558123
 20
74.7515896334239756
 30
0.0
 40
0.0220238406618899
 50
82.725038174922048
 51
281.2287278120618907
  0
ARC
  5
8EED
  8
0
 10
3993.4655935769728785
 20
74.7517163417437018
 30
0.0
 40
0.0217377389120819
 50
271.6283436917360063
 51
92.3254222952474777
  0
LINE
  5
8EEE
  8
0
 10
3993.3996329268561567
 20
74.7869867430619593
 30
0.0
 11
3993.3996662967570046
 21
74.7608415011620195
 31
0.0
  0
ARC
  5
8EEF
  8
0
 10
3993.4606763115461945
 20
74.7635824391417714
 30
0.0
 40
0.0610715534888087
 50
182.572342423313188
 51
246.3308897016675871
  0
ARC
  5
8EF0
  8
0
 10
3993.4630551368791203
 20
74.7690095023319259
 30
0.0
 40
0.0669970766585589
 50
246.3308897016675871
 51
332.4315603757950726
  0
ARC
  5
8EF1
  8
0
 10
3993.4834999035829242
 20
74.7583355719894485
 30
0.0
 40
0.0439336581229258
 50
332.4315603757950726
 51
358.8488007310261878
  0
LINE
  5
8EF2
  8
0
 10
3993.5274246940571174
 20
74.7574529067620119
 30
0.0
 11
3993.5275857372739665
 21
74.7850944925491348
 31
0.0
  0
ARC
  5
8EF3
  8
0
 10
3993.4608805548450619
 20
74.7863376220498708
 30
0.0
 40
0.0612510676823524
 50
87.0072128386655379
 51
179.3927846156589965
  0
ARC
  5
8EF4
  8
0
 10
3993.4605711351950958
 20
74.7804192881499716
 30
0.0
 40
0.067177484531506
 50
3.990714892411857
 51
87.0072128386655379
  0
ARC
  5
8EF5
  8
0
 10
3992.8438077797300139
 20
74.9836307297490947
 30
0.0
 40
0.0220238406618899
 50
82.725038174922048
 51
281.2287278120618907
  0
ARC
  5
8EF6
  8
0
 10
3992.8474786954470801
 20
74.9837574380688352
 30
0.0
 40
0.0217377389120819
 50
271.6283436917360063
 51
92.3254222952474777
  0
LINE
  5
8EF7
  8
0
 10
3992.7815180453321773
 20
75.0190278393870926
 30
0.0
 11
3992.7815514152321157
 21
74.9928825974871529
 31
0.0
  0
ARC
  5
8EF8
  8
0
 10
3992.8425614300199413
 20
74.9956235354669047
 30
0.0
 40
0.0610715534888087
 50
182.572342423313188
 51
246.3308897016675871
  0
ARC
  5
8EF9
  8
0
 10
3992.8449402553528671
 20
75.0010505986570593
 30
0.0
 40
0.0669970766585589
 50
246.3308897016675871
 51
332.4315603757950726
  0
ARC
  5
8EFA
  8
0
 10
3992.8653850220580352
 20
74.9903766683145818
 30
0.0
 40
0.0439336581229258
 50
332.4315603757950726
 51
358.8488007310261878
  0
LINE
  5
8EFB
  8
0
 10
3992.9093098125308643
 20
74.9894940030871453
 30
0.0
 11
3992.9094708557490776
 21
75.0171355888742823
 31
0.0
  0
ARC
  5
8EFC
  8
0
 10
3992.8427656733188087
 20
75.0183787183750042
 30
0.0
 40
0.0612510676823524
 50
87.0072128386655379
 51
179.3927846156589965
  0
ARC
  5
8EFD
  8
0
 10
3992.8424562536702069
 20
75.012460384475105
 30
0.0
 40
0.067177484531506
 50
3.990714892411857
 51
87.0072128386655379
  0
ARC
  5
8EFE
  8
0
 10
3992.74486475165304
 20
74.409529042384122
 30
0.0
 40
0.0220238406618899
 50
82.725038174922048
 51
281.2287278120618907
  0
ARC
  5
8EFF
  8
0
 10
3992.7485356673701062
 20
74.4096557507038483
 30
0.0
 40
0.0217377389120819
 50
271.6283436917360063
 51
92.3254222952474777
  0
LINE
  5
8F00
  8
0
 10
3992.6825750172552034
 20
74.4449261520221057
 30
0.0
 11
3992.6826083871551418
 21
74.418780910122166
 31
0.0
  0
ARC
  5
8F01
  8
0
 10
3992.7436184019429675
 20
74.4215218481019178
 30
0.0
 40
0.0610715534888087
 50
182.572342423313188
 51
246.3308897016675871
  0
ARC
  5
8F02
  8
0
 10
3992.7459972272758932
 20
74.4269489112920724
 30
0.0
 40
0.0669970766585589
 50
246.3308897016675871
 51
332.4315603757950726
  0
ARC
  5
8F03
  8
0
 10
3992.7664419939810614
 20
74.4162749809495949
 30
0.0
 40
0.0439336581229258
 50
332.4315603757950726
 51
358.8488007310261878
  0
LINE
  5
8F04
  8
0
 10
3992.8103667844538904
 20
74.4153923157221584
 30
0.0
 11
3992.8105278276711942
 21
74.4430339015092954
 31
0.0
  0
ARC
  5
8F05
  8
0
 10
3992.7438226452409253
 20
74.4442770310100173
 30
0.0
 40
0.0612510676823524
 50
87.0072128386655379
 51
179.3927846156589965
  0
ARC
  5
8F06
  8
0
 10
3992.7435132255927783
 20
74.4383586971101181
 30
0.0
 40
0.067177484531506
 50
3.990714892411857
 51
87.0072128386655379
  0
ARC
  5
8F07
  8
0
 10
3992.5966533155210527
 20
74.1835441173537902
 30
0.0
 40
0.0220238406618899
 50
82.725038174922048
 51
281.2287278120618907
  0
ARC
  5
8F08
  8
0
 10
3992.600324231238119
 20
74.1836708256734596
 30
0.0
 40
0.0217377389120819
 50
271.6283436917360063
 51
92.3254222952474777
  0
LINE
  5
8F09
  8
0
 10
3992.5343635811209424
 20
74.2189412269917739
 30
0.0
 11
3992.5343969510208808
 21
74.1927959850917631
 31
0.0
  0
ARC
  5
8F0A
  8
0
 10
3992.5954069658100707
 20
74.1955369230715291
 30
0.0
 40
0.0610715534888087
 50
182.572342423313188
 51
246.3308897016675871
  0
ARC
  5
8F0B
  8
0
 10
3992.597785791143906
 20
74.2009639862616837
 30
0.0
 40
0.0669970766585589
 50
246.3308897016675871
 51
332.4315603757950726
  0
ARC
  5
8F0C
  8
0
 10
3992.6182305578468004
 20
74.1902900559192631
 30
0.0
 40
0.0439336581229258
 50
332.4315603757950726
 51
358.8488007310261878
  0
LINE
  5
8F0D
  8
0
 10
3992.6621553483219031
 20
74.1894073906917697
 30
0.0
 11
3992.662316391539207
 21
74.2170489764789068
 31
0.0
  0
ARC
  5
8F0E
  8
0
 10
3992.5956112091098476
 20
74.2182921059796143
 30
0.0
 40
0.0612510676823524
 50
87.0072128386655379
 51
179.3927846156589965
  0
ARC
  5
8F0F
  8
0
 10
3992.5953017894589721
 20
74.2123737720797152
 30
0.0
 40
0.067177484531506
 50
3.990714892411857
 51
87.0072128386655379
  0
ARC
  5
8F10
  8
0
 10
3992.5909434692539435
 20
73.4933259256696942
 30
0.0
 40
0.0220238406618899
 50
82.725038174922048
 51
281.2287278120618907
  0
ARC
  5
8F11
  8
0
 10
3992.5946143849719192
 20
73.4934526339894205
 30
0.0
 40
0.0217377389120819
 50
271.6283436917360063
 51
92.3254222952474777
  0
LINE
  5
8F12
  8
0
 10
3992.5286537348538332
 20
73.5287230353076779
 30
0.0
 11
3992.5286871047542263
 21
73.5025777934077382
 31
0.0
  0
ARC
  5
8F13
  8
0
 10
3992.5896971195429614
 20
73.5053187313874901
 30
0.0
 40
0.0610715534888087
 50
182.572342423313188
 51
246.3308897016675871
  0
ARC
  5
8F14
  8
0
 10
3992.5920759448767967
 20
73.5107457945776446
 30
0.0
 40
0.0669970766585589
 50
246.3308897016675871
 51
332.4315603757950726
  0
ARC
  5
8F15
  8
0
 10
3992.6125207115810554
 20
73.5000718642351671
 30
0.0
 40
0.0439336581229258
 50
332.4315603757950726
 51
358.8488007310261878
  0
LINE
  5
8F16
  8
0
 10
3992.6564455020547939
 20
73.4991891990077306
 30
0.0
 11
3992.6566065452730072
 21
73.5268307847948535
 31
0.0
  0
ARC
  5
8F17
  8
0
 10
3992.5899013628431931
 20
73.5280739142955895
 30
0.0
 40
0.0612510676823524
 50
87.0072128386655379
 51
179.3927846156589965
  0
ARC
  5
8F18
  8
0
 10
3992.5895919431932271
 20
73.5221555803956903
 30
0.0
 40
0.067177484531506
 50
3.990714892411857
 51
87.0072128386655379
  0
ARC
  5
8F19
  8
0
 10
3992.7453577975338703
 20
73.2684266329034131
 30
0.0
 40
0.0220238406618899
 50
82.725038174922048
 51
281.2287278120618907
  0
ARC
  5
8F1A
  8
0
 10
3992.7490287132500271
 20
73.2685533412231251
 30
0.0
 40
0.0217377389120819
 50
271.6283436917360063
 51
92.3254222952474777
  0
LINE
  5
8F1B
  8
0
 10
3992.6830680631342148
 20
73.3038237425413968
 30
0.0
 11
3992.6831014330341532
 21
73.277678500641457
 31
0.0
  0
ARC
  5
8F1C
  8
0
 10
3992.7441114478228883
 20
73.2804194386212089
 30
0.0
 40
0.0610715534888087
 50
182.572342423313188
 51
246.3308897016675871
  0
ARC
  5
8F1D
  8
0
 10
3992.7464902731558141
 20
73.2858465018113634
 30
0.0
 40
0.0669970766585589
 50
246.3308897016675871
 51
332.4315603757950726
  0
ARC
  5
8F1E
  8
0
 10
3992.7669350398609822
 20
73.275172571468886
 30
0.0
 40
0.0439336581229258
 50
332.4315603757950726
 51
358.8488007310261878
  0
LINE
  5
8F1F
  8
0
 10
3992.8108598303338113
 20
73.2742899062414494
 30
0.0
 11
3992.8110208735511151
 21
73.3019314920285865
 31
0.0
  0
ARC
  5
8F20
  8
0
 10
3992.7443156911222104
 20
73.3031746215293083
 30
0.0
 40
0.0612510676823524
 50
87.0072128386655379
 51
179.3927846156589965
  0
ARC
  5
8F21
  8
0
 10
3992.7440062714731539
 20
73.2972562876294091
 30
0.0
 40
0.067177484531506
 50
3.990714892411857
 51
87.0072128386655379
  0
ARC
  5
8F22
  8
0
 10
3993.4643487744701815
 20
72.9121445089761551
 30
0.0
 40
0.0220238406618899
 50
82.725038174922048
 51
281.2287278120618907
  0
ARC
  5
8F23
  8
0
 10
3993.468019690186793
 20
72.9122712172958813
 30
0.0
 40
0.0217377389120819
 50
271.6283436917360063
 51
92.3254222952474777
  0
LINE
  5
8F24
  8
0
 10
3993.4020590400700712
 20
72.9475416186141388
 30
0.0
 11
3993.4020924099700096
 21
72.9213963767141991
 31
0.0
  0
ARC
  5
8F25
  8
0
 10
3993.4631024247591995
 20
72.9241373146939509
 30
0.0
 40
0.0610715534888087
 50
182.572342423313188
 51
246.3308897016675871
  0
ARC
  5
8F26
  8
0
 10
3993.4654812500921253
 20
72.9295643778841054
 30
0.0
 40
0.0669970766585589
 50
246.3308897016675871
 51
332.4315603757950726
  0
ARC
  5
8F27
  8
0
 10
3993.4859260167959292
 20
72.918890447541628
 30
0.0
 40
0.0439336581229258
 50
332.4315603757950726
 51
358.8488007310261878
  0
LINE
  5
8F28
  8
0
 10
3993.5298508072701225
 20
72.9180077823141914
 30
0.0
 11
3993.530011850487881
 21
72.9456493681013143
 31
0.0
  0
ARC
  5
8F29
  8
0
 10
3993.4633066680580669
 20
72.9468924976020503
 30
0.0
 40
0.0612510676823524
 50
87.0072128386655379
 51
179.3927846156589965
  0
ARC
  5
8F2A
  8
0
 10
3993.4629972484090104
 20
72.9409741637021511
 30
0.0
 40
0.067177484531506
 50
3.990714892411857
 51
87.0072128386655379
  0
ARC
  5
8F2B
  8
0
 10
3993.3478880627958461
 20
72.5808984467929008
 30
0.0
 40
0.0220238406618899
 50
82.725038174922048
 51
281.2287278120618907
  0
ARC
  5
8F2C
  8
0
 10
3993.3515589785138218
 20
72.5810251551126271
 30
0.0
 40
0.0217377389120819
 50
271.6283436917360063
 51
92.3254222952474777
  0
LINE
  5
8F2D
  8
0
 10
3993.2855983283980095
 20
72.6162955564308845
 30
0.0
 11
3993.2856316982979479
 21
72.5901503145309448
 31
0.0
  0
ARC
  5
8F2E
  8
0
 10
3993.3466417130871378
 20
72.5928912525106966
 30
0.0
 40
0.0610715534888087
 50
182.572342423313188
 51
246.3308897016675871
  0
ARC
  5
8F2F
  8
0
 10
3993.3490205384200635
 20
72.5983183157008511
 30
0.0
 40
0.0669970766585589
 50
246.3308897016675871
 51
332.4315603757950726
  0
ARC
  5
8F30
  8
0
 10
3993.3694653051238674
 20
72.5876443853583737
 30
0.0
 40
0.0439336581229258
 50
332.4315603757950726
 51
358.8488007310261878
  0
LINE
  5
8F31
  8
0
 10
3993.4133900955971512
 20
72.586761720130923
 30
0.0
 11
3993.4135511388140003
 21
72.6144033059180742
 31
0.0
  0
ARC
  5
8F32
  8
0
 10
3993.3468459563860051
 20
72.615646435418796
 30
0.0
 40
0.0612510676823524
 50
87.0072128386655379
 51
179.3927846156589965
  0
ARC
  5
8F33
  8
0
 10
3993.3465365367360391
 20
72.6097281015188969
 30
0.0
 40
0.067177484531506
 50
3.990714892411857
 51
87.0072128386655379
  0
ARC
  5
8F34
  8
0
 10
3992.8446528712847794
 20
72.7458171531739453
 30
0.0
 40
0.0220238406618899
 50
82.725038174922048
 51
281.2287278120618907
  0
ARC
  5
8F35
  8
0
 10
3992.8483237870018456
 20
72.7459438614936857
 30
0.0
 40
0.0217377389120819
 50
271.6283436917360063
 51
92.3254222952474777
  0
LINE
  5
8F36
  8
0
 10
3992.7823631368851238
 20
72.7812142628119432
 30
0.0
 11
3992.7823965067850622
 21
72.7550690209120035
 31
0.0
  0
ARC
  5
8F37
  8
0
 10
3992.8434065215737974
 20
72.7578099588917553
 30
0.0
 40
0.0610715534888087
 50
182.572342423313188
 51
246.3308897016675871
  0
ARC
  5
8F38
  8
0
 10
3992.8457853469071779
 20
72.7632370220819098
 30
0.0
 40
0.0669970766585589
 50
246.3308897016675871
 51
332.4315603757950726
  0
ARC
  5
8F39
  8
0
 10
3992.8662301136109818
 20
72.7525630917394324
 30
0.0
 40
0.0439336581229258
 50
332.4315603757950726
 51
358.8488007310261878
  0
LINE
  5
8F3A
  8
0
 10
3992.9101549040851751
 20
72.7516804265119958
 30
0.0
 11
3992.9103159473029336
 21
72.7793220122991329
 31
0.0
  0
ARC
  5
8F3B
  8
0
 10
3992.8436107648731195
 20
72.7805651417998547
 30
0.0
 40
0.0612510676823524
 50
87.0072128386655379
 51
179.3927846156589965
  0
ARC
  5
8F3C
  8
0
 10
3992.843301345224063
 20
72.7746468078999555
 30
0.0
 40
0.067177484531506
 50
3.990714892411857
 51
87.0072128386655379
  0
ARC
  5
8F3D
  8
0
 10
3992.5647647343248536
 20
72.5169260517853331
 30
0.0
 40
0.0220238406618899
 50
82.725038174922048
 51
281.2287278120618907
  0
ARC
  5
8F3E
  8
0
 10
3992.5684356500419199
 20
72.5170527601050594
 30
0.0
 40
0.0217377389120819
 50
271.6283436917360063
 51
92.3254222952474777
  0
LINE
  5
8F3F
  8
0
 10
3992.5024749999261076
 20
72.5523231614233168
 30
0.0
 11
3992.502508369826046
 21
72.5261779195233771
 31
0.0
  0
ARC
  5
8F40
  8
0
 10
3992.5635183846147811
 20
72.5289188575031289
 30
0.0
 40
0.0610715534888087
 50
182.572342423313188
 51
246.3308897016675871
  0
ARC
  5
8F41
  8
0
 10
3992.5658972099481616
 20
72.5343459206932835
 30
0.0
 40
0.0669970766585589
 50
246.3308897016675871
 51
332.4315603757950726
  0
ARC
  5
8F42
  8
0
 10
3992.5863419766519655
 20
72.523671990350806
 30
0.0
 40
0.0439336581229258
 50
332.4315603757950726
 51
358.8488007310261878
  0
LINE
  5
8F43
  8
0
 10
3992.6302667671261588
 20
72.5227893251233695
 30
0.0
 11
3992.6304278103430079
 21
72.5504309109105066
 31
0.0
  0
ARC
  5
8F44
  8
0
 10
3992.5637226279131937
 20
72.5516740404112284
 30
0.0
 40
0.0612510676823524
 50
87.0072128386655379
 51
179.3927846156589965
  0
ARC
  5
8F45
  8
0
 10
3992.5634132082650467
 20
72.5457557065113292
 30
0.0
 40
0.067177484531506
 50
3.990714892411857
 51
87.0072128386655379
  0
ARC
  5
8F46
  8
0
 10
3992.4343677442770968
 20
73.0461230230865226
 30
0.0
 40
0.0220238406618899
 50
82.725038174922048
 51
281.2287278120618907
  0
ARC
  5
8F47
  8
0
 10
3992.438038659994163
 20
73.0462497314062489
 30
0.0
 40
0.0217377389120819
 50
271.6283436917360063
 51
92.3254222952474777
  0
LINE
  5
8F48
  8
0
 10
3992.3720780098769865
 20
73.0815201327245063
 30
0.0
 11
3992.3721113797769249
 21
73.0553748908245666
 31
0.0
  0
ARC
  5
8F49
  8
0
 10
3992.4331213945652053
 20
73.0581158288043184
 30
0.0
 40
0.0610715534888087
 50
182.572342423313188
 51
246.3308897016675871
  0
ARC
  5
8F4A
  8
0
 10
3992.4355002198990405
 20
73.0635428919944729
 30
0.0
 40
0.0669970766585589
 50
246.3308897016675871
 51
332.4315603757950726
  0
ARC
  5
8F4B
  8
0
 10
3992.4559449866028444
 20
73.0528689616519955
 30
0.0
 40
0.0439336581229258
 50
332.4315603757950726
 51
358.8488007310261878
  0
LINE
  5
8F4C
  8
0
 10
3992.4998697770770377
 20
73.051986296424559
 30
0.0
 11
3992.5000308202938868
 21
73.079627882211696
 31
0.0
  0
ARC
  5
8F4D
  8
0
 10
3992.4333256378649821
 20
73.0808710117124178
 30
0.0
 40
0.0612510676823524
 50
87.0072128386655379
 51
179.3927846156589965
  0
ARC
  5
8F4E
  8
0
 10
3992.4330162182159256
 20
73.0749526778125187
 30
0.0
 40
0.067177484531506
 50
3.990714892411857
 51
87.0072128386655379
  0
ARC
  5
8F4F
  8
0
 10
3992.2215202018010132
 20
72.7604732056740318
 30
0.0
 40
0.0220238406618899
 50
82.725038174922048
 51
281.2287278120618907
  0
ARC
  5
8F50
  8
0
 10
3992.2251911175180794
 20
72.7605999139937438
 30
0.0
 40
0.0217377389120819
 50
271.6283436917360063
 51
92.3254222952474777
  0
LINE
  5
8F51
  8
0
 10
3992.1592304674009029
 20
72.7958703153120155
 30
0.0
 11
3992.1592638373008413
 21
72.7697250734120757
 31
0.0
  0
ARC
  5
8F52
  8
0
 10
3992.2202738520891216
 20
72.7724660113918134
 30
0.0
 40
0.0610715534888087
 50
182.572342423313188
 51
246.3308897016675871
  0
ARC
  5
8F53
  8
0
 10
3992.2226526774229569
 20
72.7778930745819821
 30
0.0
 40
0.0669970766585589
 50
246.3308897016675871
 51
332.4315603757950726
  0
ARC
  5
8F54
  8
0
 10
3992.2430974441272156
 20
72.7672191442395047
 30
0.0
 40
0.0439336581229258
 50
332.4315603757950726
 51
358.8488007310261878
  0
LINE
  5
8F55
  8
0
 10
3992.2870222346009541
 20
72.7663364790120539
 30
0.0
 11
3992.2871832778191674
 21
72.7939780647992052
 31
0.0
  0
ARC
  5
8F56
  8
0
 10
3992.2204780953888985
 20
72.795221194299927
 30
0.0
 40
0.0612510676823524
 50
87.0072128386655379
 51
179.3927846156589965
  0
ARC
  5
8F57
  8
0
 10
3992.220168675739842
 20
72.7893028604000278
 30
0.0
 40
0.067177484531506
 50
3.990714892411857
 51
87.0072128386655379
  0
ARC
  5
8F58
  8
0
 10
3991.9457001481900988
 20
73.0510960401575744
 30
0.0
 40
0.0220238406618899
 50
82.725038174922048
 51
281.2287278120618907
  0
ARC
  5
8F59
  8
0
 10
3991.9493710639071651
 20
73.0512227484773007
 30
0.0
 40
0.0217377389120819
 50
271.6283436917360063
 51
92.3254222952474777
  0
LINE
  5
8F5A
  8
0
 10
3991.8834104137899885
 20
73.0864931497955581
 30
0.0
 11
3991.8834437836899269
 21
73.0603479078956184
 31
0.0
  0
ARC
  5
8F5B
  8
0
 10
3991.9444537984791168
 20
73.0630888458753702
 30
0.0
 40
0.0610715534888087
 50
182.572342423313188
 51
246.3308897016675871
  0
ARC
  5
8F5C
  8
0
 10
3991.9468326238120426
 20
73.0685159090655247
 30
0.0
 40
0.0669970766585589
 50
246.3308897016675871
 51
332.4315603757950726
  0
ARC
  5
8F5D
  8
0
 10
3991.9672773905158465
 20
73.0578419787230473
 30
0.0
 40
0.0439336581229258
 50
332.4315603757950726
 51
358.8488007310261878
  0
LINE
  5
8F5E
  8
0
 10
3992.0112021809909493
 20
73.0569593134956108
 30
0.0
 11
3992.0113632242077983
 21
73.0846008992827336
 31
0.0
  0
ARC
  5
8F5F
  8
0
 10
3991.9446580417779842
 20
73.0858440287834696
 30
0.0
 40
0.0612510676823524
 50
87.0072128386655379
 51
179.3927846156589965
  0
ARC
  5
8F60
  8
0
 10
3991.9443486221289277
 20
73.0799256948835705
 30
0.0
 40
0.067177484531506
 50
3.990714892411857
 51
87.0072128386655379
  0
ARC
  5
8F61
  8
0
 10
3991.7532803516160129
 20
73.3833211327464028
 30
0.0
 40
0.0220238406618899
 50
82.725038174922048
 51
281.2287278120618907
  0
ARC
  5
8F62
  8
0
 10
3991.7569512673321697
 20
73.3834478410661291
 30
0.0
 40
0.0217377389120819
 50
271.6283436917360063
 51
92.3254222952474777
  0
LINE
  5
8F63
  8
0
 10
3991.6909906172168121
 20
73.4187182423843865
 30
0.0
 11
3991.6910239871172053
 21
73.3925730004844468
 31
0.0
  0
ARC
  5
8F64
  8
0
 10
3991.7520340019050309
 20
73.3953139384641986
 30
0.0
 40
0.0610715534888087
 50
182.572342423313188
 51
246.3308897016675871
  0
ARC
  5
8F65
  8
0
 10
3991.7544128272379567
 20
73.4007410016543531
 30
0.0
 40
0.0669970766585589
 50
246.3308897016675871
 51
332.4315603757950726
  0
ARC
  5
8F66
  8
0
 10
3991.7748575939431248
 20
73.3900670713118757
 30
0.0
 40
0.0439336581229258
 50
332.4315603757950726
 51
358.8488007310261878
  0
LINE
  5
8F67
  8
0
 10
3991.8187823844159539
 20
73.3891844060844392
 30
0.0
 11
3991.8189434276341672
 21
73.4168259918715762
 31
0.0
  0
ARC
  5
8F68
  8
0
 10
3991.7522382452038983
 20
73.4180691213722838
 30
0.0
 40
0.0612510676823524
 50
87.0072128386655379
 51
179.3927846156589965
  0
ARC
  5
8F69
  8
0
 10
3991.7519288255548418
 20
73.4121507874723846
 30
0.0
 40
0.067177484531506
 50
3.990714892411857
 51
87.0072128386655379
  0
ARC
  5
8F6A
  8
0
 10
3992.1690599382450273
 20
73.4374574847919916
 30
0.0
 40
0.0220238406618899
 50
82.725038174922048
 51
281.2287278120618907
  0
ARC
  5
8F6B
  8
0
 10
3992.1727308539620935
 20
73.4375841931117037
 30
0.0
 40
0.0217377389120819
 50
271.6283436917360063
 51
92.3254222952474777
  0
LINE
  5
8F6C
  8
0
 10
3992.106770203844917
 20
73.4728545944299754
 30
0.0
 11
3992.1068035737448554
 21
73.4467093525300356
 31
0.0
  0
ARC
  5
8F6D
  8
0
 10
3992.1678135885340453
 20
73.4494502905097875
 30
0.0
 40
0.0610715534888087
 50
182.572342423313188
 51
246.3308897016675871
  0
ARC
  5
8F6E
  8
0
 10
3992.1701924138678805
 20
73.454877353699942
 30
0.0
 40
0.0669970766585589
 50
246.3308897016675871
 51
332.4315603757950726
  0
ARC
  5
8F6F
  8
0
 10
3992.1906371805707749
 20
73.4442034233574645
 30
0.0
 40
0.0439336581229258
 50
332.4315603757950726
 51
358.8488007310261878
  0
LINE
  5
8F70
  8
0
 10
3992.2345619710449682
 20
73.443320758130028
 30
0.0
 11
3992.2347230142631815
 21
73.4709623439171651
 31
0.0
  0
ARC
  5
8F71
  8
0
 10
3992.1680178318329126
 20
73.4722054734178869
 30
0.0
 40
0.0612510676823524
 50
87.0072128386655379
 51
179.3927846156589965
  0
ARC
  5
8F72
  8
0
 10
3992.1677084121829466
 20
73.4662871395179735
 30
0.0
 40
0.067177484531506
 50
3.990714892411857
 51
87.0072128386655379
  0
ARC
  5
8F73
  8
0
 10
3991.656108468056118
 20
73.73997134596965
 30
0.0
 40
0.0220238406618899
 50
82.725038174922048
 51
281.2287278120618907
  0
ARC
  5
8F74
  8
0
 10
3991.65977938377182
 20
73.7400980542893763
 30
0.0
 40
0.0217377389120819
 50
271.6283436917360063
 51
92.3254222952474777
  0
LINE
  5
8F75
  8
0
 10
3991.5938187336560077
 20
73.7753684556076337
 30
0.0
 11
3991.5938521035568556
 21
73.749223213707694
 31
0.0
  0
ARC
  5
8F76
  8
0
 10
3991.654862118345136
 20
73.7519641516874458
 30
0.0
 40
0.0610715534888087
 50
182.572342423313188
 51
246.3308897016675871
  0
ARC
  5
8F77
  8
0
 10
3991.6572409436780617
 20
73.7573912148776003
 30
0.0
 40
0.0669970766585589
 50
246.3308897016675871
 51
332.4315603757950726
  0
ARC
  5
8F78
  8
0
 10
3991.6776857103818656
 20
73.7467172845351229
 30
0.0
 40
0.0439336581229258
 50
332.4315603757950726
 51
358.8488007310261878
  0
LINE
  5
8F79
  8
0
 10
3991.7216105008569684
 20
73.7458346193076864
 30
0.0
 11
3991.7217715440738175
 21
73.7734762050948234
 31
0.0
  0
ARC
  5
8F7A
  8
0
 10
3991.6550663616440033
 20
73.7747193345955452
 30
0.0
 40
0.0612510676823524
 50
87.0072128386655379
 51
179.3927846156589965
  0
ARC
  5
8F7B
  8
0
 10
3991.6547569419940373
 20
73.7688010006956461
 30
0.0
 40
0.067177484531506
 50
3.990714892411857
 51
87.0072128386655379
  0
ARC
  5
8F7C
  8
0
 10
3992.074080380461055
 20
73.8750622956297889
 30
0.0
 40
0.0220238406618899
 50
82.725038174922048
 51
281.2287278120618907
  0
ARC
  5
8F7D
  8
0
 10
3992.0777512961772118
 20
73.8751890039495152
 30
0.0
 40
0.0217377389120819
 50
271.6283436917360063
 51
92.3254222952474777
  0
LINE
  5
8F7E
  8
0
 10
3992.0117906460618542
 20
73.9104594052677726
 30
0.0
 11
3992.0118240159617926
 21
73.8843141633678329
 31
0.0
  0
ARC
  5
8F7F
  8
0
 10
3992.072834030750073
 20
73.8870551013475847
 30
0.0
 40
0.0610715534888087
 50
182.572342423313188
 51
246.3308897016675871
  0
ARC
  5
8F80
  8
0
 10
3992.0752128560829988
 20
73.8924821645377392
 30
0.0
 40
0.0669970766585589
 50
246.3308897016675871
 51
332.4315603757950726
  0
ARC
  5
8F81
  8
0
 10
3992.0956576227881669
 20
73.8818082341952618
 30
0.0
 40
0.0439336581229258
 50
332.4315603757950726
 51
358.8488007310261878
  0
LINE
  5
8F82
  8
0
 10
3992.139582413260996
 20
73.8809255689678253
 30
0.0
 11
3992.139743456477845
 21
73.9085671547549623
 31
0.0
  0
ARC
  5
8F83
  8
0
 10
3992.0730382740489404
 20
73.9098102842556841
 30
0.0
 40
0.0612510676823524
 50
87.0072128386655379
 51
179.3927846156589965
  0
ARC
  5
8F84
  8
0
 10
3992.0727288543998839
 20
73.903891950355785
 30
0.0
 40
0.067177484531506
 50
3.990714892411857
 51
87.0072128386655379
  0
ARC
  5
8F85
  8
0
 10
3992.1680692980921776
 20
74.3147122890053993
 30
0.0
 40
0.0220238406618899
 50
82.725038174922048
 51
281.2287278120618907
  0
ARC
  5
8F86
  8
0
 10
3992.1717402138078796
 20
74.3148389973251255
 30
0.0
 40
0.0217377389120819
 50
271.6283436917360063
 51
92.3254222952474777
  0
LINE
  5
8F87
  8
0
 10
3992.1057795636920673
 20
74.350109398643383
 30
0.0
 11
3992.1058129335920057
 21
74.3239641567434433
 31
0.0
  0
ARC
  5
8F88
  8
0
 10
3992.1668229483811956
 20
74.3267050947231951
 30
0.0
 40
0.0610715534888087
 50
182.572342423313188
 51
246.3308897016675871
  0
ARC
  5
8F89
  8
0
 10
3992.1692017737141214
 20
74.3321321579133496
 30
0.0
 40
0.0669970766585589
 50
246.3308897016675871
 51
332.4315603757950726
  0
ARC
  5
8F8A
  8
0
 10
3992.1896465404179253
 20
74.3214582275708722
 30
0.0
 40
0.0439336581229258
 50
332.4315603757950726
 51
358.8488007310261878
  0
LINE
  5
8F8B
  8
0
 10
3992.2335713308921186
 20
74.3205755623434356
 30
0.0
 11
3992.2337323741089676
 21
74.3482171481305727
 31
0.0
  0
ARC
  5
8F8C
  8
0
 10
3992.167027191680063
 20
74.3494602776312945
 30
0.0
 40
0.0612510676823524
 50
87.0072128386655379
 51
179.3927846156589965
  0
ARC
  5
8F8D
  8
0
 10
3992.1667177720310065
 20
74.3435419437313953
 30
0.0
 40
0.067177484531506
 50
3.990714892411857
 51
87.0072128386655379
  0
ARC
  5
8F8E
  8
0
 10
3992.4367110767238955
 20
74.6953149874947826
 30
0.0
 40
0.0220238406618899
 50
82.725038174922048
 51
281.2287278120618907
  0
ARC
  5
8F8F
  8
0
 10
3992.4403819924409618
 20
74.6954416958145089
 30
0.0
 40
0.0217377389120819
 50
271.6283436917360063
 51
92.3254222952474777
  0
LINE
  5
8F90
  8
0
 10
3992.3744213423251495
 20
74.7307120971327663
 30
0.0
 11
3992.3744547122250879
 21
74.7045668552328266
 31
0.0
  0
ARC
  5
8F91
  8
0
 10
3992.435464727013823
 20
74.7073077932125642
 30
0.0
 40
0.0610715534888087
 50
182.572342423313188
 51
246.3308897016675871
  0
ARC
  5
8F92
  8
0
 10
3992.4378435523472035
 20
74.7127348564027329
 30
0.0
 40
0.0669970766585589
 50
246.3308897016675871
 51
332.4315603757950726
  0
ARC
  5
8F93
  8
0
 10
3992.4582883190510074
 20
74.7020609260602555
 30
0.0
 40
0.0439336581229258
 50
332.4315603757950726
 51
358.8488007310261878
  0
LINE
  5
8F94
  8
0
 10
3992.5022131095252007
 20
74.7011782608328048
 30
0.0
 11
3992.5023741527420498
 21
74.728819846619956
 31
0.0
  0
ARC
  5
8F95
  8
0
 10
3992.4356689703117809
 20
74.7300629761206778
 30
0.0
 40
0.0612510676823524
 50
87.0072128386655379
 51
179.3927846156589965
  0
ARC
  5
8F96
  8
0
 10
3992.4353595506631791
 20
74.7241446422207787
 30
0.0
 40
0.067177484531506
 50
3.990714892411857
 51
87.0072128386655379
  0
ARC
  5
8F97
  8
0
 10
3992.5661201556558808
 20
75.299914724366829
 30
0.0
 40
0.0220238406618899
 50
82.725038174922048
 51
281.2287278120618907
  0
ARC
  5
8F98
  8
0
 10
3992.569791071372947
 20
75.3000414326865553
 30
0.0
 40
0.0217377389120819
 50
271.6283436917360063
 51
92.3254222952474777
  0
LINE
  5
8F99
  8
0
 10
3992.5038304212562252
 20
75.3353118340048127
 30
0.0
 11
3992.5038637911561636
 21
75.309166592104873
 31
0.0
  0
ARC
  5
8F9A
  8
0
 10
3992.5648738059448988
 20
75.3119075300846248
 30
0.0
 40
0.0610715534888087
 50
182.572342423313188
 51
246.3308897016675871
  0
ARC
  5
8F9B
  8
0
 10
3992.5672526312778245
 20
75.3173345932747793
 30
0.0
 40
0.0669970766585589
 50
246.3308897016675871
 51
332.4315603757950726
  0
ARC
  5
8F9C
  8
0
 10
3992.5876973979829927
 20
75.3066606629323019
 30
0.0
 40
0.0439336581229258
 50
332.4315603757950726
 51
358.8488007310261878
  0
LINE
  5
8F9D
  8
0
 10
3992.6316221884558217
 20
75.3057779977048654
 30
0.0
 11
3992.6317832316740351
 21
75.3334195834920024
 31
0.0
  0
ARC
  5
8F9E
  8
0
 10
3992.5650780492442209
 20
75.3346627129927242
 30
0.0
 40
0.0612510676823524
 50
87.0072128386655379
 51
179.3927846156589965
  0
ARC
  5
8F9F
  8
0
 10
3992.5647686295951644
 20
75.3287443790928251
 30
0.0
 40
0.067177484531506
 50
3.990714892411857
 51
87.0072128386655379
  0
ARC
  5
8FA0
  8
0
 10
3992.9650333886711451
 20
75.4596769135396812
 30
0.0
 40
0.0220238406618899
 50
82.725038174922048
 51
281.2287278120618907
  0
ARC
  5
8FA1
  8
0
 10
3992.9687043043882113
 20
75.4598036218593933
 30
0.0
 40
0.0217377389120819
 50
271.6283436917360063
 51
92.3254222952474777
  0
LINE
  5
8FA2
  8
0
 10
3992.9027436542710348
 20
75.4950740231776649
 30
0.0
 11
3992.9027770241718827
 21
75.4689287812777252
 31
0.0
  0
ARC
  5
8FA3
  8
0
 10
3992.9637870389610725
 20
75.471669719257477
 30
0.0
 40
0.0610715534888087
 50
182.572342423313188
 51
246.3308897016675871
  0
ARC
  5
8FA4
  8
0
 10
3992.9661658642939983
 20
75.4770967824476315
 30
0.0
 40
0.0669970766585589
 50
246.3308897016675871
 51
332.4315603757950726
  0
ARC
  5
8FA5
  8
0
 10
3992.9866106309978022
 20
75.4664228521051541
 30
0.0
 40
0.0439336581229258
 50
332.4315603757950726
 51
358.8488007310261878
  0
LINE
  5
8FA6
  8
0
 10
3993.030535421471086
 20
75.4655401868777034
 30
0.0
 11
3993.0306964646879351
 21
75.4931817726648546
 31
0.0
  0
ARC
  5
8FA7
  8
0
 10
3992.9639912822590304
 20
75.4944249021655764
 30
0.0
 40
0.0612510676823524
 50
87.0072128386655379
 51
179.3927846156589965
  0
ARC
  5
8FA8
  8
0
 10
3992.9636818626099739
 20
75.4885065682656773
 30
0.0
 40
0.067177484531506
 50
3.990714892411857
 51
87.0072128386655379
  0
ARC
  5
8FA9
  8
0
 10
3992.2219040862319162
 20
75.0724420735935496
 30
0.0
 40
0.0220238406618899
 50
82.725038174922048
 51
281.2287278120618907
  0
ARC
  5
8FAA
  8
0
 10
3992.2255750019480729
 20
75.0725687819132759
 30
0.0
 40
0.0217377389120819
 50
271.6283436917360063
 51
92.3254222952474777
  0
LINE
  5
8FAB
  8
0
 10
3992.1596143518318058
 20
75.1078391832315333
 30
0.0
 11
3992.1596477217308347
 21
75.0816939413315936
 31
0.0
  0
ARC
  5
8FAC
  8
0
 10
3992.2206577365200246
 20
75.0844348793113454
 30
0.0
 40
0.0610715534888087
 50
182.572342423313188
 51
246.3308897016675871
  0
ARC
  5
8FAD
  8
0
 10
3992.2230365618529504
 20
75.0898619425014999
 30
0.0
 40
0.0669970766585589
 50
246.3308897016675871
 51
332.4315603757950726
  0
ARC
  5
8FAE
  8
0
 10
3992.2434813285581185
 20
75.0791880121590225
 30
0.0
 40
0.0439336581229258
 50
332.4315603757950726
 51
358.8488007310261878
  0
LINE
  5
8FAF
  8
0
 10
3992.2874061190318571
 20
75.078305346931586
 30
0.0
 11
3992.2875671622491609
 21
75.105946932718723
 31
0.0
  0
ARC
  5
8FB0
  8
0
 10
3992.220861979818892
 20
75.1071900622194448
 30
0.0
 40
0.0612510676823524
 50
87.0072128386655379
 51
179.3927846156589965
  0
ARC
  5
8FB1
  8
0
 10
3992.2205525601698355
 20
75.1012717283195457
 30
0.0
 40
0.067177484531506
 50
3.990714892411857
 51
87.0072128386655379
  0
ARC
  5
8FB2
  8
0
 10
3991.9449951471619897
 20
74.7869697666994284
 30
0.0
 40
0.0220238406618899
 50
82.725038174922048
 51
281.2287278120618907
  0
ARC
  5
8FB3
  8
0
 10
3991.9486660628799655
 20
74.7870964750191547
 30
0.0
 40
0.0217377389120819
 50
271.6283436917360063
 51
92.3254222952474777
  0
LINE
  5
8FB4
  8
0
 10
3991.8827054127627889
 20
74.8223668763374121
 30
0.0
 11
3991.8827387826631821
 21
74.7962216344374724
 31
0.0
  0
ARC
  5
8FB5
  8
0
 10
3991.9437487974510077
 20
74.7989625724172242
 30
0.0
 40
0.0610715534888087
 50
182.572342423313188
 51
246.3308897016675871
  0
ARC
  5
8FB6
  8
0
 10
3991.9461276227839335
 20
74.8043896356073788
 30
0.0
 40
0.0669970766585589
 50
246.3308897016675871
 51
332.4315603757950726
  0
ARC
  5
8FB7
  8
0
 10
3991.9665723894900111
 20
74.7937157052649013
 30
0.0
 40
0.0439336581229258
 50
332.4315603757950726
 51
358.8488007310261878
  0
LINE
  5
8FB8
  8
0
 10
3992.0104971799628402
 20
74.7928330400374648
 30
0.0
 11
3992.0106582231787797
 21
74.8204746258246018
 31
0.0
  0
ARC
  5
8FB9
  8
0
 10
3991.9439530407498751
 20
74.8217177553253237
 30
0.0
 40
0.0612510676823524
 50
87.0072128386655379
 51
179.3927846156589965
  0
ARC
  5
8FBA
  8
0
 10
3991.9436436211021828
 20
74.8157994214254245
 30
0.0
 40
0.067177484531506
 50
3.990714892411857
 51
87.0072128386655379
  0
ARC
  5
8FBB
  8
0
 10
3991.7530347383540175
 20
74.4598478292611503
 30
0.0
 40
0.0220238406618899
 50
82.725038174922048
 51
281.2287278120618907
  0
ARC
  5
8FBC
  8
0
 10
3991.7567056540719932
 20
74.4599745375808766
 30
0.0
 40
0.0217377389120819
 50
271.6283436917360063
 51
92.3254222952474777
  0
LINE
  5
8FBD
  8
0
 10
3991.6907450039548166
 20
74.495244938899134
 30
0.0
 11
3991.6907783738552098
 21
74.4690996969991943
 31
0.0
  0
ARC
  5
8FBE
  8
0
 10
3991.7517883886430354
 20
74.4718406349789461
 30
0.0
 40
0.0610715534888087
 50
182.572342423313188
 51
246.3308897016675871
  0
ARC
  5
8FBF
  8
0
 10
3991.7541672139759612
 20
74.4772676981691006
 30
0.0
 40
0.0669970766585589
 50
246.3308897016675871
 51
332.4315603757950726
  0
ARC
  5
8FC0
  8
0
 10
3991.7746119806820388
 20
74.4665937678266232
 30
0.0
 40
0.0439336581229258
 50
332.4315603757950726
 51
358.8488007310261878
  0
LINE
  5
8FC1
  8
0
 10
3991.8185367711539584
 20
74.4657111025991867
 30
0.0
 11
3991.8186978143730812
 21
74.4933526883863237
 31
0.0
  0
ARC
  5
8FC2
  8
0
 10
3991.7519926319419028
 20
74.4945958178870455
 30
0.0
 40
0.0612510676823524
 50
87.0072128386655379
 51
179.3927846156589965
  0
ARC
  5
8FC3
  8
0
 10
3991.7516832122942105
 20
74.4886774839871464
 30
0.0
 40
0.067177484531506
 50
3.990714892411857
 51
87.0072128386655379
  0
ARC
  5
8FC4
  8
0
 10
3991.6549941115931688
 20
74.1050799898487753
 30
0.0
 40
0.0220238406618899
 50
82.725038174922048
 51
281.2287278120618907
  0
ARC
  5
8FC5
  8
0
 10
3991.6586650273097803
 20
74.1052066981685016
 30
0.0
 40
0.0217377389120819
 50
271.6283436917360063
 51
92.3254222952474777
  0
LINE
  5
8FC6
  8
0
 10
3991.5927043771930585
 20
74.1404770994867448
 30
0.0
 11
3991.5927377470929969
 21
74.1143318575868051
 31
0.0
  0
ARC
  5
8FC7
  8
0
 10
3991.6537477618821868
 20
74.1170727955665711
 30
0.0
 40
0.0610715534888087
 50
182.572342423313188
 51
246.3308897016675871
  0
ARC
  5
8FC8
  8
0
 10
3991.6561265872151125
 20
74.1224998587567256
 30
0.0
 40
0.0669970766585589
 50
246.3308897016675871
 51
332.4315603757950726
  0
ARC
  5
8FC9
  8
0
 10
3991.6765713539189164
 20
74.111825928414234
 30
0.0
 40
0.0439336581229258
 50
332.4315603757950726
 51
358.8488007310261878
  0
LINE
  5
8FCA
  8
0
 10
3991.7204961443940192
 20
74.1109432631868117
 30
0.0
 11
3991.7206571876108683
 21
74.1385848489739487
 31
0.0
  0
ARC
  5
8FCB
  8
0
 10
3991.6539520051810541
 20
74.1398279784746705
 30
0.0
 40
0.0612510676823524
 50
87.0072128386655379
 51
179.3927846156589965
  0
ARC
  5
8FCC
  8
0
 10
3991.6536425855319976
 20
74.1339096445747714
 30
0.0
 40
0.067177484531506
 50
3.990714892411857
 51
87.0072128386655379
  0
ARC
  5
8FCD
  8
0
 10
3993.4014598205949369
 20
72.5208138070255472
 30
0.0
 40
3.868243315461116
 50
65.9812523583878914
 51
89.6195678430264167
  0
ARC
  5
8FCE
  8
0
 10
3994.1046922975269808
 20
74.2605127979942949
 30
0.0
 40
1.9940254366228201
 50
357.2719130436881869
 51
64.0908592365781402
  0
ARC
  5
8FCF
  8
0
 10
3994.0912129219777853
 20
74.1361959874231502
 30
0.0
 40
2.0054605536766892
 50
301.3121928941080228
 51
0.8402406146090445
  0
ARC
  5
8FD0
  8
0
 10
4018.0794347968358124
 20
43.6942283668862714
 30
0.0
 40
36.7675249881581578
 50
128.6149034368523871
 51
129.6457994241876861
  0
ARC
  5
8FD1
  8
0
 10
3995.3032834590221682
 20
71.1493898913343514
 30
0.0
 40
1.0950535540491551
 50
128.587118238122514
 51
158.1243437148256135
  0
ARC
  5
8FD2
  8
0
 10
3995.1546504852021826
 20
71.2233478316713331
 30
0.0
 40
0.9296611689740297
 50
158.9411577215275884
 51
178.4127870724882996
  0
ARC
  5
8FD3
  8
0
 10
-4758.9333826831643819
 20
273.9152313723038219
 30
0.0
 40
8755.5046280168353405
 50
358.6533489149986735
 51
358.6736399821759846
  0
ARC
  5
8FD4
  8
0
 10
3993.6054139758289239
 20
71.228997153736799
 30
0.0
 40
3.1485464158577949
 50
270.2376037298828919
 51
279.6255605138308056
  0
ARC
  5
8FD5
  8
0
 10
3994.1276309089098504
 20
68.1498198269676152
 30
0.0
 40
0.0254
 50
279.6255605138308056
 51
358.6362692227709772
  0
ARC
  5
8FD6
  8
0
 10
3993.5417944633909428
 20
71.787070486135633
 30
0.0
 40
0.7118909310061742
 50
299.6296981166404976
 51
338.8202600510771845
  0
ARC
  5
8FD7
  8
0
 10
3993.6162548644920207
 20
71.6560670507000737
 30
0.0
 40
0.5612050024803898
 50
270.1560649855281895
 51
299.6341132061407961
  0
ARC
  5
8FD8
  8
0
 10
3995.2916678164010591
 20
71.1117105522178434
 30
0.0
 40
1.1637880270483849
 50
127.157564576575993
 51
158.9423465309716903
  0
ARC
  5
8FD9
  8
0
 10
3987.2463340489780421
 20
81.7273633089307054
 30
0.0
 40
12.1561023208619297
 50
307.1575645765756803
 51
311.3615980630891045
  0
ARC
  5
8FDA
  8
0
 10
3994.1560825962628769
 20
74.0894187639275401
 30
0.0
 40
1.862575417757544
 50
307.0842827433592106
 51
354.430419327529421
  0
ARC
  5
8FDB
  8
0
 10
3994.3112990007980443
 20
74.0169335966252788
 30
0.0
 40
1.702014125489006
 50
356.3522432985175783
 51
38.1466177782995572
  0
ARC
  5
8FDC
  8
0
 10
3993.8476070585961679
 20
73.6547697635241434
 30
0.0
 40
2.290377084417611
 50
38.1067456933629174
 51
67.9421119083736613
  0
ARC
  5
8FDD
  8
0
 10
3993.6253105834389316
 20
73.165529811612771
 30
0.0
 40
2.827376895197236
 50
67.4903123097050752
 51
90.1525338358961363
  0
ARC
  5
8FDE
  8
0
 10
3993.6337817081471258
 20
73.23900660724928
 30
0.0
 40
2.8519181337222692
 50
55.9563939877936178
 51
90.3214098693864145
  0
ARC
  5
8FDF
  8
0
 10
3994.1139135003681986
 20
73.9496639923814314
 30
0.0
 40
1.9942699209074479
 50
6.2162151374901047
 51
55.9563939877936178
  0
ARC
  5
8FE0
  8
0
 10
3993.8403028148381964
 20
75.5402472705354739
 30
0.0
 40
0.0220238406618899
 50
258.7712721879379956
 51
97.2749618250779662
  0
ARC
  5
8FE1
  8
0
 10
3993.8366318991211301
 20
75.5403739788551434
 30
0.0
 40
0.0217377389120819
 50
87.6745777047525081
 51
268.3716563082639937
  0
LINE
  5
8FE2
  8
0
 10
3993.9025925492378519
 20
75.5756443801734576
 30
0.0
 11
3993.9025591793379135
 21
75.5494991382734611
 31
0.0
  0
ARC
  5
8FE3
  8
0
 10
3993.8415491645491784
 20
75.5522400762532129
 30
0.0
 40
0.0610715534888087
 50
293.6691102983323276
 51
357.4276575766850783
  0
ARC
  5
8FE4
  8
0
 10
3993.8391703392157979
 20
75.5576671394433532
 30
0.0
 40
0.0669970766585589
 50
207.5684396242012042
 51
293.6691102983323276
  0
ARC
  5
8FE5
  8
0
 10
3993.8187255725110845
 20
75.5469932091009468
 30
0.0
 40
0.0439336581229258
 50
181.1511992689738122
 51
207.5684396242012042
  0
LINE
  5
8FE6
  8
0
 10
3993.7748007820378007
 20
75.5461105438734535
 30
0.0
 11
3993.7746397388200421
 21
75.5737521296605905
 31
0.0
  0
ARC
  5
8FE7
  8
0
 10
3993.8413449212498563
 20
75.5749952591613123
 30
0.0
 40
0.0612510676823524
 50
0.6072153843409606
 51
92.9927871613344621
  0
ARC
  5
8FE8
  8
0
 10
3993.8416543408989128
 20
75.5690769252614132
 30
0.0
 40
0.067177484531506
 50
92.9927871613344621
 51
176.0092851075881129
  0
ARC
  5
8FE9
  8
0
 10
3994.7206962554269012
 20
73.8601318404626568
 30
0.0
 40
0.177882960600706
 50
97.0528380313421621
 51
160.6470656535404942
  0
ARC
  5
8FEA
  8
0
 10
3994.722688613012906
 20
73.8440281771969467
 30
0.0
 40
0.194109403813036
 50
39.3739457143106719
 51
97.0528380313421621
  0
ARC
  5
8FEB
  8
0
 10
3994.7915403104479992
 20
73.9005311848122233
 30
0.0
 40
0.1050411933834529
 50
358.082317125933514
 51
39.3739457143106719
  0
ARC
  5
8FEC
  8
0
 10
3994.7125911154789719
 20
73.9031745920576668
 30
0.0
 40
0.1840346297445655
 50
322.6823091168778888
 51
358.082317125933514
  0
ARC
  5
8FED
  8
0
 10
3994.7212590324138546
 20
73.91638587793949
 30
0.0
 40
0.1858199503913451
 50
282.1982907030571255
 51
317.8165442683928745
  0
ARC
  5
8FEE
  8
0
 10
3994.7173327842829167
 20
73.9235694529045304
 30
0.0
 40
0.1936848272965836
 50
245.0779664027577951
 51
282.8845329971649107
  0
ARC
  5
8FEF
  8
0
 10
3994.6987479668141532
 20
73.8874456733560123
 30
0.0
 40
0.1531021657744578
 50
197.4528249694685087
 51
245.688812285688897
  0
ARC
  5
8FF0
  8
0
 10
3994.7257202531559415
 20
73.8799231608077775
 30
0.0
 40
0.1772352702222621
 50
167.2363207404380034
 51
192.511663709790497
  0
ARC
  5
8FF1
  8
0
 10
3993.8891990096608424
 20
75.13691596304119
 30
0.0
 40
0.0220238406618899
 50
258.7712721879379956
 51
97.2749618250779662
  0
ARC
  5
8FF2
  8
0
 10
3993.8855280939451404
 20
75.1370426713609163
 30
0.0
 40
0.0217377389120819
 50
87.6745777047525081
 51
268.3716563082639937
  0
LINE
  5
8FF3
  8
0
 10
3993.9514887440618622
 20
75.1723130726791737
 30
0.0
 11
3993.9514553741619238
 21
75.146167830779234
 31
0.0
  0
ARC
  5
8FF4
  8
0
 10
3993.8904453593731887
 20
75.1489087687589858
 30
0.0
 40
0.0610715534888087
 50
293.6691102983323276
 51
357.4276575766850783
  0
ARC
  5
8FF5
  8
0
 10
3993.8880665340398082
 20
75.1543358319491404
 30
0.0
 40
0.0669970766585589
 50
207.5684396242012042
 51
293.6691102983323276
  0
ARC
  5
8FF6
  8
0
 10
3993.8676217673360043
 20
75.1436619016066629
 30
0.0
 40
0.0439336581229258
 50
181.1511992689738122
 51
207.5684396242012042
  0
LINE
  5
8FF7
  8
0
 10
3993.823696976861811
 20
75.1427792363792264
 30
0.0
 11
3993.8235359336440524
 21
75.1704208221663635
 31
0.0
  0
ARC
  5
8FF8
  8
0
 10
3993.8902411160738666
 20
75.1716639516670853
 30
0.0
 40
0.0612510676823524
 50
0.6072153843409606
 51
92.9927871613344621
  0
ARC
  5
8FF9
  8
0
 10
3993.8905505357238326
 20
75.1657456177671861
 30
0.0
 40
0.067177484531506
 50
92.9927871613344621
 51
176.0092851075881129
  0
ARC
  5
8FFA
  8
0
 10
3993.7736443380199489
 20
74.7515896334239756
 30
0.0
 40
0.0220238406618899
 50
258.7712721879379956
 51
97.2749618250779662
  0
ARC
  5
8FFB
  8
0
 10
3993.7699734223028827
 20
74.7517163417437018
 30
0.0
 40
0.0217377389120819
 50
87.6745777047525081
 51
268.3716563082639937
  0
LINE
  5
8FFC
  8
0
 10
3993.8359340724191497
 20
74.7869867430619593
 30
0.0
 11
3993.8359007025192113
 21
74.7608415011620195
 31
0.0
  0
ARC
  5
8FFD
  8
0
 10
3993.7748906877300215
 20
74.7635824391417714
 30
0.0
 40
0.0610715534888087
 50
293.6691102983323276
 51
357.4276575766850783
  0
ARC
  5
8FFE
  8
0
 10
3993.7725118623980052
 20
74.7690095023319259
 30
0.0
 40
0.0669970766585589
 50
207.5684396242012042
 51
293.6691102983323276
  0
ARC
  5
8FFF
  8
0
 10
3993.7520670956919275
 20
74.7583355719894485
 30
0.0
 40
0.0439336581229258
 50
181.1511992689738122
 51
207.5684396242012042
  0
LINE
  5
9000
  8
0
 10
3993.7081423052190985
 20
74.7574529067620119
 30
0.0
 11
3993.7079812620017947
 21
74.7850944925491348
 31
0.0
  0
ARC
  5
9001
  8
0
 10
3993.7746864444320636
 20
74.7863376220498708
 30
0.0
 40
0.0612510676823524
 50
0.6072153843409606
 51
92.9927871613344621
  0
ARC
  5
9002
  8
0
 10
3993.7749958640802106
 20
74.7804192881499716
 30
0.0
 40
0.067177484531506
 50
92.9927871613344621
 51
176.0092851075881129
  0
ARC
  5
9003
  8
0
 10
3994.3917592195448378
 20
74.9836307297490947
 30
0.0
 40
0.0220238406618899
 50
258.7712721879379956
 51
97.2749618250779662
  0
ARC
  5
9004
  8
0
 10
3994.3880883038282263
 20
74.9837574380688352
 30
0.0
 40
0.0217377389120819
 50
87.6745777047525081
 51
268.3716563082639937
  0
LINE
  5
9005
  8
0
 10
3994.4540489539449482
 20
75.0190278393870926
 30
0.0
 11
3994.4540155840450097
 21
74.9928825974871529
 31
0.0
  0
ARC
  5
9006
  8
0
 10
3994.3930055692558199
 20
74.9956235354669047
 30
0.0
 40
0.0610715534888087
 50
293.6691102983323276
 51
357.4276575766850783
  0
ARC
  5
9007
  8
0
 10
3994.3906267439228941
 20
75.0010505986570593
 30
0.0
 40
0.0669970766585589
 50
207.5684396242012042
 51
293.6691102983323276
  0
ARC
  5
9008
  8
0
 10
3994.3701819772181807
 20
74.9903766683145818
 30
0.0
 40
0.0439336581229258
 50
181.1511992689738122
 51
207.5684396242012042
  0
LINE
  5
9009
  8
0
 10
3994.3262571867448969
 20
74.9894940030871453
 30
0.0
 11
3994.3260961435257741
 21
75.0171355888742823
 31
0.0
  0
ARC
  5
900A
  8
0
 10
3994.3928013259569525
 20
75.0183787183750042
 30
0.0
 40
0.0612510676823524
 50
0.6072153843409606
 51
92.9927871613344621
  0
ARC
  5
900B
  8
0
 10
3994.393110745606009
 20
75.012460384475105
 30
0.0
 40
0.067177484531506
 50
92.9927871613344621
 51
176.0092851075881129
  0
ARC
  5
900C
  8
0
 10
3994.4907022476218117
 20
74.409529042384122
 30
0.0
 40
0.0220238406618899
 50
258.7712721879379956
 51
97.2749618250779662
  0
ARC
  5
900D
  8
0
 10
3994.4870313319052002
 20
74.4096557507038483
 30
0.0
 40
0.0217377389120819
 50
87.6745777047525081
 51
268.3716563082639937
  0
LINE
  5
900E
  8
0
 10
3994.552991982021922
 20
74.4449261520221057
 30
0.0
 11
3994.5529586121219836
 21
74.418780910122166
 31
0.0
  0
ARC
  5
900F
  8
0
 10
3994.4919485973327937
 20
74.4215218481019178
 30
0.0
 40
0.0610715534888087
 50
293.6691102983323276
 51
357.4276575766850783
  0
ARC
  5
9010
  8
0
 10
3994.489569771999868
 20
74.4269489112920724
 30
0.0
 40
0.0669970766585589
 50
207.5684396242012042
 51
293.6691102983323276
  0
ARC
  5
9011
  8
0
 10
3994.4691250052951546
 20
74.4162749809495949
 30
0.0
 40
0.0439336581229258
 50
181.1511992689738122
 51
207.5684396242012042
  0
LINE
  5
9012
  8
0
 10
3994.4252002148218708
 20
74.4153923157221584
 30
0.0
 11
3994.4250391716041122
 21
74.4430339015092954
 31
0.0
  0
ARC
  5
9013
  8
0
 10
3994.4917443540339264
 20
74.4442770310100173
 30
0.0
 40
0.0612510676823524
 50
0.6072153843409606
 51
92.9927871613344621
  0
ARC
  5
9014
  8
0
 10
3994.4920537736829829
 20
74.4383586971101181
 30
0.0
 40
0.067177484531506
 50
92.9927871613344621
 51
176.0092851075881129
  0
ARC
  5
9015
  8
0
 10
3994.638913683753799
 20
74.1835441173537902
 30
0.0
 40
0.0220238406618899
 50
258.7712721879379956
 51
97.2749618250779662
  0
ARC
  5
9016
  8
0
 10
3994.635242768038097
 20
74.1836708256734596
 30
0.0
 40
0.0217377389120819
 50
87.6745777047525081
 51
268.3716563082639937
  0
LINE
  5
9017
  8
0
 10
3994.7012034181539093
 20
74.2189412269917739
 30
0.0
 11
3994.7011700482539709
 21
74.1927959850917631
 31
0.0
  0
ARC
  5
9018
  8
0
 10
3994.6401600334661453
 20
74.1955369230715291
 30
0.0
 40
0.0610715534888087
 50
293.6691102983323276
 51
357.4276575766850783
  0
ARC
  5
9019
  8
0
 10
3994.6377812081318552
 20
74.2009639862616837
 30
0.0
 40
0.0669970766585589
 50
207.5684396242012042
 51
293.6691102983323276
  0
ARC
  5
901A
  8
0
 10
3994.6173364414280513
 20
74.1902900559192631
 30
0.0
 40
0.0439336581229258
 50
181.1511992689738122
 51
207.5684396242012042
  0
LINE
  5
901B
  8
0
 10
3994.573411650953858
 20
74.1894073906917697
 30
0.0
 11
3994.573250607737009
 21
74.2170489764789068
 31
0.0
  0
ARC
  5
901C
  8
0
 10
3994.6399557901659136
 20
74.2182921059796143
 30
0.0
 40
0.0612510676823524
 50
0.6072153843409606
 51
92.9927871613344621
  0
ARC
  5
901D
  8
0
 10
3994.6402652098158796
 20
74.2123737720797152
 30
0.0
 40
0.067177484531506
 50
92.9927871613344621
 51
176.0092851075881129
  0
ARC
  5
901E
  8
0
 10
3994.6446235300209082
 20
73.4933259256696942
 30
0.0
 40
0.0220238406618899
 50
258.7712721879379956
 51
97.2749618250779662
  0
ARC
  5
901F
  8
0
 10
3994.640952614303842
 20
73.4934526339894205
 30
0.0
 40
0.0217377389120819
 50
87.6745777047525081
 51
268.3716563082639937
  0
LINE
  5
9020
  8
0
 10
3994.7069132644210185
 20
73.5287230353076779
 30
0.0
 11
3994.7068798945210801
 21
73.5025777934077382
 31
0.0
  0
ARC
  5
9021
  8
0
 10
3994.6458698797318903
 20
73.5053187313874901
 30
0.0
 40
0.0610715534888087
 50
293.6691102983323276
 51
357.4276575766850783
  0
ARC
  5
9022
  8
0
 10
3994.6434910543989645
 20
73.5107457945776446
 30
0.0
 40
0.0669970766585589
 50
207.5684396242012042
 51
293.6691102983323276
  0
ARC
  5
9023
  8
0
 10
3994.6230462876937963
 20
73.5000718642351671
 30
0.0
 40
0.0439336581229258
 50
181.1511992689738122
 51
207.5684396242012042
  0
LINE
  5
9024
  8
0
 10
3994.5791214972209673
 20
73.4991891990077306
 30
0.0
 11
3994.5789604540041182
 21
73.5268307847948535
 31
0.0
  0
ARC
  5
9025
  8
0
 10
3994.6456656364330229
 20
73.5280739142955895
 30
0.0
 40
0.0612510676823524
 50
0.6072153843409606
 51
92.9927871613344621
  0
ARC
  5
9026
  8
0
 10
3994.6459750560820794
 20
73.5221555803956903
 30
0.0
 40
0.067177484531506
 50
92.9927871613344621
 51
176.0092851075881129
  0
ARC
  5
9027
  8
0
 10
3994.4902092017418909
 20
73.2684266329034131
 30
0.0
 40
0.0220238406618899
 50
258.7712721879379956
 51
97.2749618250779662
  0
ARC
  5
9028
  8
0
 10
3994.4865382860248246
 20
73.2685533412231251
 30
0.0
 40
0.0217377389120819
 50
87.6745777047525081
 51
268.3716563082639937
  0
LINE
  5
9029
  8
0
 10
3994.5524989361420012
 20
73.3038237425413968
 30
0.0
 11
3994.5524655662420628
 21
73.277678500641457
 31
0.0
  0
ARC
  5
902A
  8
0
 10
3994.4914555514528729
 20
73.2804194386212089
 30
0.0
 40
0.0610715534888087
 50
293.6691102983323276
 51
357.4276575766850783
  0
ARC
  5
902B
  8
0
 10
3994.4890767261199471
 20
73.2858465018113634
 30
0.0
 40
0.0669970766585589
 50
207.5684396242012042
 51
293.6691102983323276
  0
ARC
  5
902C
  8
0
 10
3994.4686319594161432
 20
73.275172571468886
 30
0.0
 40
0.0439336581229258
 50
181.1511992689738122
 51
207.5684396242012042
  0
LINE
  5
902D
  8
0
 10
3994.4247071689419499
 20
73.2742899062414494
 30
0.0
 11
3994.4245461257241914
 21
73.3019314920285865
 31
0.0
  0
ARC
  5
902E
  8
0
 10
3994.4912513081540055
 20
73.3031746215293083
 30
0.0
 40
0.0612510676823524
 50
0.6072153843409606
 51
92.9927871613344621
  0
ARC
  5
902F
  8
0
 10
3994.4915607278039715
 20
73.2972562876294091
 30
0.0
 40
0.067177484531506
 50
92.9927871613344621
 51
176.0092851075881129
  0
ARC
  5
9030
  8
0
 10
3993.7712182248060344
 20
72.9121445089761551
 30
0.0
 40
0.0220238406618899
 50
258.7712721879379956
 51
97.2749618250779662
  0
ARC
  5
9031
  8
0
 10
3993.7675473090889682
 20
72.9122712172958813
 30
0.0
 40
0.0217377389120819
 50
87.6745777047525081
 51
268.3716563082639937
  0
LINE
  5
9032
  8
0
 10
3993.8335079592061447
 20
72.9475416186141388
 30
0.0
 11
3993.8334745893062063
 21
72.9213963767141991
 31
0.0
  0
ARC
  5
9033
  8
0
 10
3993.7724645745170164
 20
72.9241373146939509
 30
0.0
 40
0.0610715534888087
 50
293.6691102983323276
 51
357.4276575766850783
  0
ARC
  5
9034
  8
0
 10
3993.7700857491831812
 20
72.9295643778841054
 30
0.0
 40
0.0669970766585589
 50
207.5684396242012042
 51
293.6691102983323276
  0
ARC
  5
9035
  8
0
 10
3993.749640982479832
 20
72.918890447541628
 30
0.0
 40
0.0439336581229258
 50
181.1511992689738122
 51
207.5684396242012042
  0
LINE
  5
9036
  8
0
 10
3993.705716192005184
 20
72.9180077823141914
 30
0.0
 11
3993.7055551487878802
 21
72.9456493681013143
 31
0.0
  0
ARC
  5
9037
  8
0
 10
3993.7722603312181491
 20
72.9468924976020503
 30
0.0
 40
0.0612510676823524
 50
0.6072153843409606
 51
92.9927871613344621
  0
ARC
  5
9038
  8
0
 10
3993.7725697508681151
 20
72.9409741637021511
 30
0.0
 40
0.067177484531506
 50
92.9927871613344621
 51
176.0092851075881129
  0
ARC
  5
9039
  8
0
 10
3993.8876789364790056
 20
72.5808984467929008
 30
0.0
 40
0.0220238406618899
 50
258.7712721879379956
 51
97.2749618250779662
  0
ARC
  5
903A
  8
0
 10
3993.8840080207619394
 20
72.5810251551126271
 30
0.0
 40
0.0217377389120819
 50
87.6745777047525081
 51
268.3716563082639937
  0
LINE
  5
903B
  8
0
 10
3993.949968670879116
 20
72.6162955564308845
 30
0.0
 11
3993.9499353009778133
 21
72.5901503145309448
 31
0.0
  0
ARC
  5
903C
  8
0
 10
3993.8889252861899877
 20
72.5928912525106966
 30
0.0
 40
0.0610715534888087
 50
293.6691102983323276
 51
357.4276575766850783
  0
ARC
  5
903D
  8
0
 10
3993.8865464608570619
 20
72.5983183157008511
 30
0.0
 40
0.0669970766585589
 50
207.5684396242012042
 51
293.6691102983323276
  0
ARC
  5
903E
  8
0
 10
3993.8661016941518938
 20
72.5876443853583737
 30
0.0
 40
0.0439336581229258
 50
181.1511992689738122
 51
207.5684396242012042
  0
LINE
  5
903F
  8
0
 10
3993.8221769036790647
 20
72.586761720130923
 30
0.0
 11
3993.8220158604608514
 21
72.6144033059180742
 31
0.0
  0
ARC
  5
9040
  8
0
 10
3993.8887210428911203
 20
72.615646435418796
 30
0.0
 40
0.0612510676823524
 50
0.6072153843409606
 51
92.9927871613344621
  0
ARC
  5
9041
  8
0
 10
3993.8890304625401768
 20
72.6097281015188969
 30
0.0
 40
0.067177484531506
 50
92.9927871613344621
 51
176.0092851075881129
  0
ARC
  5
9042
  8
0
 10
3994.3909141279900723
 20
72.7458171531739453
 30
0.0
 40
0.0220238406618899
 50
258.7712721879379956
 51
97.2749618250779662
  0
ARC
  5
9043
  8
0
 10
3994.3872432122739156
 20
72.7459438614936857
 30
0.0
 40
0.0217377389120819
 50
87.6745777047525081
 51
268.3716563082639937
  0
LINE
  5
9044
  8
0
 10
3994.4532038623901826
 20
72.7812142628119432
 30
0.0
 11
3994.4531704924911537
 21
72.7550690209120035
 31
0.0
  0
ARC
  5
9045
  8
0
 10
3994.3921604777019638
 20
72.7578099588917553
 30
0.0
 40
0.0610715534888087
 50
293.6691102983323276
 51
357.4276575766850783
  0
ARC
  5
9046
  8
0
 10
3994.3897816523681286
 20
72.7632370220819098
 30
0.0
 40
0.0669970766585589
 50
207.5684396242012042
 51
293.6691102983323276
  0
ARC
  5
9047
  8
0
 10
3994.3693368856638699
 20
72.7525630917394324
 30
0.0
 40
0.0439336581229258
 50
181.1511992689738122
 51
207.5684396242012042
  0
LINE
  5
9048
  8
0
 10
3994.3254120951901314
 20
72.7516804265119958
 30
0.0
 11
3994.3252510519728276
 21
72.7793220122991329
 31
0.0
  0
ARC
  5
9049
  8
0
 10
3994.391956234402187
 20
72.7805651417998547
 30
0.0
 40
0.0612510676823524
 50
0.6072153843409606
 51
92.9927871613344621
  0
ARC
  5
904A
  8
0
 10
3994.392265654052153
 20
72.7746468078999555
 30
0.0
 40
0.067177484531506
 50
92.9927871613344621
 51
176.0092851075881129
  0
ARC
  5
904B
  8
0
 10
3994.6708022649499981
 20
72.5169260517853331
 30
0.0
 40
0.0220238406618899
 50
258.7712721879379956
 51
97.2749618250779662
  0
ARC
  5
904C
  8
0
 10
3994.6671313492329318
 20
72.5170527601050594
 30
0.0
 40
0.0217377389120819
 50
87.6745777047525081
 51
268.3716563082639937
  0
LINE
  5
904D
  8
0
 10
3994.7330919993501084
 20
72.5523231614233168
 30
0.0
 11
3994.73305862945017
 21
72.5261779195233771
 31
0.0
  0
ARC
  5
904E
  8
0
 10
3994.6720486146609801
 20
72.5289188575031289
 30
0.0
 40
0.0610715534888087
 50
293.6691102983323276
 51
357.4276575766850783
  0
ARC
  5
904F
  8
0
 10
3994.6696697893280543
 20
72.5343459206932835
 30
0.0
 40
0.0669970766585589
 50
207.5684396242012042
 51
293.6691102983323276
  0
ARC
  5
9050
  8
0
 10
3994.6492250226228862
 20
72.523671990350806
 30
0.0
 40
0.0439336581229258
 50
181.1511992689738122
 51
207.5684396242012042
  0
LINE
  5
9051
  8
0
 10
3994.6053002321491476
 20
72.5227893251233695
 30
0.0
 11
3994.6051391889318438
 21
72.5504309109105066
 31
0.0
  0
ARC
  5
9052
  8
0
 10
3994.6718443713621127
 20
72.5516740404112284
 30
0.0
 40
0.0612510676823524
 50
0.6072153843409606
 51
92.9927871613344621
  0
ARC
  5
9053
  8
0
 10
3994.6721537910111692
 20
72.5457557065113292
 30
0.0
 40
0.067177484531506
 50
92.9927871613344621
 51
176.0092851075881129
  0
ARC
  5
9054
  8
0
 10
3994.8011992549991191
 20
73.0461230230865226
 30
0.0
 40
0.0220238406618899
 50
258.7712721879379956
 51
97.2749618250779662
  0
ARC
  5
9055
  8
0
 10
3994.7975283392820529
 20
73.0462497314062489
 30
0.0
 40
0.0217377389120819
 50
87.6745777047525081
 51
268.3716563082639937
  0
LINE
  5
9056
  8
0
 10
3994.8634889893987747
 20
73.0815201327245063
 30
0.0
 11
3994.8634556194988363
 21
73.0553748908245666
 31
0.0
  0
ARC
  5
9057
  8
0
 10
3994.8024456047101012
 20
73.0581158288043184
 30
0.0
 40
0.0610715534888087
 50
293.6691102983323276
 51
357.4276575766850783
  0
ARC
  5
9058
  8
0
 10
3994.8000667793758112
 20
73.0635428919944729
 30
0.0
 40
0.0669970766585589
 50
207.5684396242012042
 51
293.6691102983323276
  0
ARC
  5
9059
  8
0
 10
3994.7796220126729168
 20
73.0528689616519955
 30
0.0
 40
0.0439336581229258
 50
181.1511992689738122
 51
207.5684396242012042
  0
LINE
  5
905A
  8
0
 10
3994.735697222197814
 20
73.051986296424559
 30
0.0
 11
3994.7355361789809649
 21
73.079627882211696
 31
0.0
  0
ARC
  5
905B
  8
0
 10
3994.8022413614107791
 20
73.0808710117124178
 30
0.0
 40
0.0612510676823524
 50
0.6072153843409606
 51
92.9927871613344621
  0
ARC
  5
905C
  8
0
 10
3994.8025507810611998
 20
73.0749526778125187
 30
0.0
 40
0.067177484531506
 50
92.9927871613344621
 51
176.0092851075881129
  0
ARC
  5
905D
  8
0
 10
3995.0140467974752028
 20
72.7604732056740318
 30
0.0
 40
0.0220238406618899
 50
258.7712721879379956
 51
97.2749618250779662
  0
ARC
  5
905E
  8
0
 10
3995.0103758817581365
 20
72.7605999139937438
 30
0.0
 40
0.0217377389120819
 50
87.6745777047525081
 51
268.3716563082639937
  0
LINE
  5
905F
  8
0
 10
3995.0763365318748583
 20
72.7958703153120155
 30
0.0
 11
3995.0763031619749199
 21
72.7697250734120757
 31
0.0
  0
ARC
  5
9060
  8
0
 10
3995.0152931471861848
 20
72.7724660113918134
 30
0.0
 40
0.0610715534888087
 50
293.6691102983323276
 51
357.4276575766850783
  0
ARC
  5
9061
  8
0
 10
3995.0129143218528043
 20
72.7778930745819821
 30
0.0
 40
0.0669970766585589
 50
207.5684396242012042
 51
293.6691102983323276
  0
ARC
  5
9062
  8
0
 10
3994.9924695551490004
 20
72.7672191442395047
 30
0.0
 40
0.0439336581229258
 50
181.1511992689738122
 51
207.5684396242012042
  0
LINE
  5
9063
  8
0
 10
3994.9485447646748071
 20
72.7663364790120539
 30
0.0
 11
3994.9483837214570485
 21
72.7939780647992052
 31
0.0
  0
ARC
  5
9064
  8
0
 10
3995.0150889038868627
 20
72.795221194299927
 30
0.0
 40
0.0612510676823524
 50
0.6072153843409606
 51
92.9927871613344621
  0
ARC
  5
9065
  8
0
 10
3995.0153983235368287
 20
72.7893028604000278
 30
0.0
 40
0.067177484531506
 50
92.9927871613344621
 51
176.0092851075881129
  0
ARC
  5
9066
  8
0
 10
3995.2898668510861171
 20
73.0510960401575744
 30
0.0
 40
0.0220238406618899
 50
258.7712721879379956
 51
97.2749618250779662
  0
ARC
  5
9067
  8
0
 10
3995.2861959353690509
 20
73.0512227484773007
 30
0.0
 40
0.0217377389120819
 50
87.6745777047525081
 51
268.3716563082639937
  0
LINE
  5
9068
  8
0
 10
3995.3521565854857727
 20
73.0864931497955581
 30
0.0
 11
3995.3521232155849248
 21
73.0603479078956184
 31
0.0
  0
ARC
  5
9069
  8
0
 10
3995.2911132007961896
 20
73.0630888458753702
 30
0.0
 40
0.0610715534888087
 50
293.6691102983323276
 51
357.4276575766850783
  0
ARC
  5
906A
  8
0
 10
3995.2887343754628091
 20
73.0685159090655247
 30
0.0
 40
0.0669970766585589
 50
207.5684396242012042
 51
293.6691102983323276
  0
ARC
  5
906B
  8
0
 10
3995.2682896087590052
 20
73.0578419787230473
 30
0.0
 40
0.0439336581229258
 50
181.1511992689738122
 51
207.5684396242012042
  0
LINE
  5
906C
  8
0
 10
3995.2243648182848119
 20
73.0569593134956108
 30
0.0
 11
3995.2242037750679629
 21
73.0846008992827336
 31
0.0
  0
ARC
  5
906D
  8
0
 10
3995.290908957497777
 20
73.0858440287834696
 30
0.0
 40
0.0612510676823524
 50
0.6072153843409606
 51
92.9927871613344621
  0
ARC
  5
906E
  8
0
 10
3995.2912183771468335
 20
73.0799256948835705
 30
0.0
 40
0.067177484531506
 50
92.9927871613344621
 51
176.0092851075881129
  0
ARC
  5
906F
  8
0
 10
3995.482286647660203
 20
73.3833211327464028
 30
0.0
 40
0.0220238406618899
 50
258.7712721879379956
 51
97.2749618250779662
  0
ARC
  5
9070
  8
0
 10
3995.4786157319431368
 20
73.3834478410661291
 30
0.0
 40
0.0217377389120819
 50
87.6745777047525081
 51
268.3716563082639937
  0
LINE
  5
9071
  8
0
 10
3995.5445763820589491
 20
73.4187182423843865
 30
0.0
 11
3995.5445430121590107
 21
73.3925730004844468
 31
0.0
  0
ARC
  5
9072
  8
0
 10
3995.483532997371185
 20
73.3953139384641986
 30
0.0
 40
0.0610715534888087
 50
293.6691102983323276
 51
357.4276575766850783
  0
ARC
  5
9073
  8
0
 10
3995.4811541720378045
 20
73.4007410016543531
 30
0.0
 40
0.0669970766585589
 50
207.5684396242012042
 51
293.6691102983323276
  0
ARC
  5
9074
  8
0
 10
3995.4607094053330911
 20
73.3900670713118757
 30
0.0
 40
0.0439336581229258
 50
181.1511992689738122
 51
207.5684396242012042
  0
LINE
  5
9075
  8
0
 10
3995.4167846148598073
 20
73.3891844060844392
 30
0.0
 11
3995.4166235716411393
 21
73.4168259918715762
 31
0.0
  0
ARC
  5
9076
  8
0
 10
3995.4833287540718629
 20
73.4180691213722838
 30
0.0
 40
0.0612510676823524
 50
0.6072153843409606
 51
92.9927871613344621
  0
ARC
  5
9077
  8
0
 10
3995.4836381737209194
 20
73.4121507874723846
 30
0.0
 40
0.067177484531506
 50
92.9927871613344621
 51
176.0092851075881129
  0
ARC
  5
9078
  8
0
 10
3995.0665070610311886
 20
73.4374574847919916
 30
0.0
 40
0.0220238406618899
 50
258.7712721879379956
 51
97.2749618250779662
  0
ARC
  5
9079
  8
0
 10
3995.0628361453141224
 20
73.4375841931117037
 30
0.0
 40
0.0217377389120819
 50
87.6745777047525081
 51
268.3716563082639937
  0
LINE
  5
907A
  8
0
 10
3995.1287967954299347
 20
73.4728545944299754
 30
0.0
 11
3995.1287634255299963
 21
73.4467093525300356
 31
0.0
  0
ARC
  5
907B
  8
0
 10
3995.0677534107421707
 20
73.4494502905097875
 30
0.0
 40
0.0610715534888087
 50
293.6691102983323276
 51
357.4276575766850783
  0
ARC
  5
907C
  8
0
 10
3995.0653745854078807
 20
73.454877353699942
 30
0.0
 40
0.0669970766585589
 50
207.5684396242012042
 51
293.6691102983323276
  0
ARC
  5
907D
  8
0
 10
3995.0449298187040768
 20
73.4442034233574645
 30
0.0
 40
0.0439336581229258
 50
181.1511992689738122
 51
207.5684396242012042
  0
LINE
  5
907E
  8
0
 10
3995.0010050282298835
 20
73.443320758130028
 30
0.0
 11
3995.0008439850130344
 21
73.4709623439171651
 31
0.0
  0
ARC
  5
907F
  8
0
 10
3995.0675491674428486
 20
73.4722054734178869
 30
0.0
 40
0.0612510676823524
 50
0.6072153843409606
 51
92.9927871613344621
  0
ARC
  5
9080
  8
0
 10
3995.0678585870919051
 20
73.4662871395179735
 30
0.0
 40
0.067177484531506
 50
92.9927871613344621
 51
176.0092851075881129
  0
ARC
  5
9081
  8
0
 10
3995.5794585312210074
 20
73.73997134596965
 30
0.0
 40
0.0220238406618899
 50
258.7712721879379956
 51
97.2749618250779662
  0
ARC
  5
9082
  8
0
 10
3995.5757876155030317
 20
73.7400980542893763
 30
0.0
 40
0.0217377389120819
 50
87.6745777047525081
 51
268.3716563082639937
  0
LINE
  5
9083
  8
0
 10
3995.641748265618844
 20
73.7753684556076337
 30
0.0
 11
3995.6417148957198151
 21
73.749223213707694
 31
0.0
  0
ARC
  5
9084
  8
0
 10
3995.58070488093108
 20
73.7519641516874458
 30
0.0
 40
0.0610715534888087
 50
293.6691102983323276
 51
357.4276575766850783
  0
ARC
  5
9085
  8
0
 10
3995.5783260555981542
 20
73.7573912148776003
 30
0.0
 40
0.0669970766585589
 50
207.5684396242012042
 51
293.6691102983323276
  0
ARC
  5
9086
  8
0
 10
3995.557881288892986
 20
73.7467172845351229
 30
0.0
 40
0.0439336581229258
 50
181.1511992689738122
 51
207.5684396242012042
  0
LINE
  5
9087
  8
0
 10
3995.513956498420157
 20
73.7458346193076864
 30
0.0
 11
3995.5137954552019437
 21
73.7734762050948234
 31
0.0
  0
ARC
  5
9088
  8
0
 10
3995.5805006376322126
 20
73.7747193345955452
 30
0.0
 40
0.0612510676823524
 50
0.6072153843409606
 51
92.9927871613344621
  0
ARC
  5
9089
  8
0
 10
3995.5808100572808144
 20
73.7688010006956461
 30
0.0
 40
0.067177484531506
 50
92.9927871613344621
 51
176.0092851075881129
  0
ARC
  5
908A
  8
0
 10
3995.1614866188137967
 20
73.8750622956297889
 30
0.0
 40
0.0220238406618899
 50
258.7712721879379956
 51
97.2749618250779662
  0
ARC
  5
908B
  8
0
 10
3995.1578157030980947
 20
73.8751890039495152
 30
0.0
 40
0.0217377389120819
 50
87.6745777047525081
 51
268.3716563082639937
  0
LINE
  5
908C
  8
0
 10
3995.2237763532148165
 20
73.9104594052677726
 30
0.0
 11
3995.2237429833148781
 21
73.8843141633678329
 31
0.0
  0
ARC
  5
908D
  8
0
 10
3995.1627329685261429
 20
73.8870551013475847
 30
0.0
 40
0.0610715534888087
 50
293.6691102983323276
 51
357.4276575766850783
  0
ARC
  5
908E
  8
0
 10
3995.1603541431932172
 20
73.8924821645377392
 30
0.0
 40
0.0669970766585589
 50
207.5684396242012042
 51
293.6691102983323276
  0
ARC
  5
908F
  8
0
 10
3995.1399093764889585
 20
73.8818082341952618
 30
0.0
 40
0.0439336581229258
 50
181.1511992689738122
 51
207.5684396242012042
  0
LINE
  5
9090
  8
0
 10
3995.09598458601522
 20
73.8809255689678253
 30
0.0
 11
3995.0958235427970067
 21
73.9085671547549623
 31
0.0
  0
ARC
  5
9091
  8
0
 10
3995.1625287252268208
 20
73.9098102842556841
 30
0.0
 40
0.0612510676823524
 50
0.6072153843409606
 51
92.9927871613344621
  0
ARC
  5
9092
  8
0
 10
3995.1628381448758773
 20
73.903891950355785
 30
0.0
 40
0.067177484531506
 50
92.9927871613344621
 51
176.0092851075881129
  0
ARC
  5
9093
  8
0
 10
3995.0674977011840383
 20
74.3147122890053993
 30
0.0
 40
0.0220238406618899
 50
258.7712721879379956
 51
97.2749618250779662
  0
ARC
  5
9094
  8
0
 10
3995.0638267854669721
 20
74.3148389973251255
 30
0.0
 40
0.0217377389120819
 50
87.6745777047525081
 51
268.3716563082639937
  0
LINE
  5
9095
  8
0
 10
3995.1297874355841486
 20
74.350109398643383
 30
0.0
 11
3995.1297540656842102
 21
74.3239641567434433
 31
0.0
  0
ARC
  5
9096
  8
0
 10
3995.0687440508950203
 20
74.3267050947231951
 30
0.0
 40
0.0610715534888087
 50
293.6691102983323276
 51
357.4276575766850783
  0
ARC
  5
9097
  8
0
 10
3995.0663652255620946
 20
74.3321321579133496
 30
0.0
 40
0.0669970766585589
 50
207.5684396242012042
 51
293.6691102983323276
  0
ARC
  5
9098
  8
0
 10
3995.0459204588578359
 20
74.3214582275708722
 30
0.0
 40
0.0439336581229258
 50
181.1511992689738122
 51
207.5684396242012042
  0
LINE
  5
9099
  8
0
 10
3995.0019956683840974
 20
74.3205755623434356
 30
0.0
 11
3995.0018346251658841
 21
74.3482171481305727
 31
0.0
  0
ARC
  5
909A
  8
0
 10
3995.068539807596153
 20
74.3494602776312945
 30
0.0
 40
0.0612510676823524
 50
0.6072153843409606
 51
92.9927871613344621
  0
ARC
  5
909B
  8
0
 10
3995.068849227246119
 20
74.3435419437313953
 30
0.0
 40
0.067177484531506
 50
92.9927871613344621
 51
176.0092851075881129
  0
ARC
  5
909C
  8
0
 10
3994.7988559225509562
 20
74.6953149874947826
 30
0.0
 40
0.0220238406618899
 50
258.7712721879379956
 51
97.2749618250779662
  0
ARC
  5
909D
  8
0
 10
3994.7951850068338899
 20
74.6954416958145089
 30
0.0
 40
0.0217377389120819
 50
87.6745777047525081
 51
268.3716563082639937
  0
LINE
  5
909E
  8
0
 10
3994.8611456569510665
 20
74.7307120971327663
 30
0.0
 11
3994.8611122870511281
 21
74.7045668552328266
 31
0.0
  0
ARC
  5
909F
  8
0
 10
3994.8001022722619382
 20
74.7073077932125642
 30
0.0
 40
0.0610715534888087
 50
293.6691102983323276
 51
357.4276575766850783
  0
ARC
  5
90A0
  8
0
 10
3994.7977234469299219
 20
74.7127348564027329
 30
0.0
 40
0.0669970766585589
 50
207.5684396242012042
 51
293.6691102983323276
  0
ARC
  5
90A1
  8
0
 10
3994.7772786802252085
 20
74.7020609260602555
 30
0.0
 40
0.0439336581229258
 50
181.1511992689738122
 51
207.5684396242012042
  0
LINE
  5
90A2
  8
0
 10
3994.7333538897510152
 20
74.7011782608328048
 30
0.0
 11
3994.7331928465328019
 21
74.728819846619956
 31
0.0
  0
ARC
  5
90A3
  8
0
 10
3994.7998980289630708
 20
74.7300629761206778
 30
0.0
 40
0.0612510676823524
 50
0.6072153843409606
 51
92.9927871613344621
  0
ARC
  5
90A4
  8
0
 10
3994.8002074486121273
 20
74.7241446422207787
 30
0.0
 40
0.067177484531506
 50
92.9927871613344621
 51
176.0092851075881129
  0
ARC
  5
90A5
  8
0
 10
3994.6694468436189709
 20
75.299914724366829
 30
0.0
 40
0.0220238406618899
 50
258.7712721879379956
 51
97.2749618250779662
  0
ARC
  5
90A6
  8
0
 10
3994.6657759279028141
 20
75.3000414326865553
 30
0.0
 40
0.0217377389120819
 50
87.6745777047525081
 51
268.3716563082639937
  0
LINE
  5
90A7
  8
0
 10
3994.7317365780199907
 20
75.3353118340048127
 30
0.0
 11
3994.7317032081191428
 21
75.309166592104873
 31
0.0
  0
ARC
  5
90A8
  8
0
 10
3994.6706931933308624
 20
75.3119075300846248
 30
0.0
 40
0.0610715534888087
 50
293.6691102983323276
 51
357.4276575766850783
  0
ARC
  5
90A9
  8
0
 10
3994.6683143679970271
 20
75.3173345932747793
 30
0.0
 40
0.0669970766585589
 50
207.5684396242012042
 51
293.6691102983323276
  0
ARC
  5
90AA
  8
0
 10
3994.6478696012932232
 20
75.3066606629323019
 30
0.0
 40
0.0439336581229258
 50
181.1511992689738122
 51
207.5684396242012042
  0
LINE
  5
90AB
  8
0
 10
3994.60394481081903
 20
75.3057779977048654
 30
0.0
 11
3994.6037837676008166
 21
75.3334195834920024
 31
0.0
  0
ARC
  5
90AC
  8
0
 10
3994.6704889500310856
 20
75.3346627129927242
 30
0.0
 40
0.0612510676823524
 50
0.6072153843409606
 51
92.9927871613344621
  0
ARC
  5
90AD
  8
0
 10
3994.6707983696810516
 20
75.3287443790928251
 30
0.0
 40
0.067177484531506
 50
92.9927871613344621
 51
176.0092851075881129
  0
ARC
  5
90AE
  8
0
 10
3994.2705336106050709
 20
75.4596769135396812
 30
0.0
 40
0.0220238406618899
 50
258.7712721879379956
 51
97.2749618250779662
  0
ARC
  5
90AF
  8
0
 10
3994.2668626948880046
 20
75.4598036218593933
 30
0.0
 40
0.0217377389120819
 50
87.6745777047525081
 51
268.3716563082639937
  0
LINE
  5
90B0
  8
0
 10
3994.3328233450038169
 20
75.4950740231776649
 30
0.0
 11
3994.332789975104788
 21
75.4689287812777252
 31
0.0
  0
ARC
  5
90B1
  8
0
 10
3994.2717799603160529
 20
75.471669719257477
 30
0.0
 40
0.0610715534888087
 50
293.6691102983323276
 51
357.4276575766850783
  0
ARC
  5
90B2
  8
0
 10
3994.2694011349831271
 20
75.4770967824476315
 30
0.0
 40
0.0669970766585589
 50
207.5684396242012042
 51
293.6691102983323276
  0
ARC
  5
90B3
  8
0
 10
3994.248956368277959
 20
75.4664228521051541
 30
0.0
 40
0.0439336581229258
 50
181.1511992689738122
 51
207.5684396242012042
  0
LINE
  5
90B4
  8
0
 10
3994.2050315778051299
 20
75.4655401868777034
 30
0.0
 11
3994.2048705345878261
 21
75.4931817726648546
 31
0.0
  0
ARC
  5
90B5
  8
0
 10
3994.2715757170171855
 20
75.4944249021655764
 30
0.0
 40
0.0612510676823524
 50
0.6072153843409606
 51
92.9927871613344621
  0
ARC
  5
90B6
  8
0
 10
3994.2718851366657873
 20
75.4885065682656773
 30
0.0
 40
0.067177484531506
 50
92.9927871613344621
 51
176.0092851075881129
  0
ARC
  5
90B7
  8
0
 10
3995.013662913043845
 20
75.0724420735935496
 30
0.0
 40
0.0220238406618899
 50
258.7712721879379956
 51
97.2749618250779662
  0
ARC
  5
90B8
  8
0
 10
3995.009991997328143
 20
75.0725687819132759
 30
0.0
 40
0.0217377389120819
 50
87.6745777047525081
 51
268.3716563082639937
  0
LINE
  5
90B9
  8
0
 10
3995.0759526474439554
 20
75.1078391832315333
 30
0.0
 11
3995.0759192775440169
 21
75.0816939413315936
 31
0.0
  0
ARC
  5
90BA
  8
0
 10
3995.0149092627548271
 20
75.0844348793113454
 30
0.0
 40
0.0610715534888087
 50
293.6691102983323276
 51
357.4276575766850783
  0
ARC
  5
90BB
  8
0
 10
3995.0125304374219013
 20
75.0898619425014999
 30
0.0
 40
0.0669970766585589
 50
207.5684396242012042
 51
293.6691102983323276
  0
ARC
  5
90BC
  8
0
 10
3994.9920856707180974
 20
75.0791880121590225
 30
0.0
 40
0.0439336581229258
 50
181.1511992689738122
 51
207.5684396242012042
  0
LINE
  5
90BD
  8
0
 10
3994.9481608802439041
 20
75.078305346931586
 30
0.0
 11
3994.947999837027055
 21
75.105946932718723
 31
0.0
  0
ARC
  5
90BE
  8
0
 10
3995.0147050194559597
 20
75.1071900622194448
 30
0.0
 40
0.0612510676823524
 50
0.6072153843409606
 51
92.9927871613344621
  0
ARC
  5
90BF
  8
0
 10
3995.0150144391059257
 20
75.1012717283195457
 30
0.0
 40
0.067177484531506
 50
92.9927871613344621
 51
176.0092851075881129
  0
ARC
  5
90C0
  8
0
 10
3995.290571852112862
 20
74.7869697666994284
 30
0.0
 40
0.0220238406618899
 50
258.7712721879379956
 51
97.2749618250779662
  0
ARC
  5
90C1
  8
0
 10
3995.28690093639716
 20
74.7870964750191547
 30
0.0
 40
0.0217377389120819
 50
87.6745777047525081
 51
268.3716563082639937
  0
LINE
  5
90C2
  8
0
 10
3995.3528615865129723
 20
74.8223668763374121
 30
0.0
 11
3995.3528282166130339
 21
74.7962216344374724
 31
0.0
  0
ARC
  5
90C3
  8
0
 10
3995.291818201823844
 20
74.7989625724172242
 30
0.0
 40
0.0610715534888087
 50
293.6691102983323276
 51
357.4276575766850783
  0
ARC
  5
90C4
  8
0
 10
3995.2894393764909182
 20
74.8043896356073788
 30
0.0
 40
0.0669970766585589
 50
207.5684396242012042
 51
293.6691102983323276
  0
ARC
  5
90C5
  8
0
 10
3995.2689946097871143
 20
74.7937157052649013
 30
0.0
 40
0.0439336581229258
 50
181.1511992689738122
 51
207.5684396242012042
  0
LINE
  5
90C6
  8
0
 10
3995.2250698193120115
 20
74.7928330400374648
 30
0.0
 11
3995.224908776096072
 21
74.8204746258246018
 31
0.0
  0
ARC
  5
90C7
  8
0
 10
3995.2916139585249766
 20
74.8217177553253237
 30
0.0
 40
0.0612510676823524
 50
0.6072153843409606
 51
92.9927871613344621
  0
ARC
  5
90C8
  8
0
 10
3995.2919233781749426
 20
74.8157994214254245
 30
0.0
 40
0.067177484531506
 50
92.9927871613344621
 51
176.0092851075881129
  0
ARC
  5
90C9
  8
0
 10
3995.4825322609208342
 20
74.4598478292611503
 30
0.0
 40
0.0220238406618899
 50
258.7712721879379956
 51
97.2749618250779662
  0
ARC
  5
90CA
  8
0
 10
3995.4788613452051322
 20
74.4599745375808766
 30
0.0
 40
0.0217377389120819
 50
87.6745777047525081
 51
268.3716563082639937
  0
LINE
  5
90CB
  8
0
 10
3995.5448219953209446
 20
74.495244938899134
 30
0.0
 11
3995.5447886254210061
 21
74.4690996969991943
 31
0.0
  0
ARC
  5
90CC
  8
0
 10
3995.4837786106318163
 20
74.4718406349789461
 30
0.0
 40
0.0610715534888087
 50
293.6691102983323276
 51
357.4276575766850783
  0
ARC
  5
90CD
  8
0
 10
3995.4813997852988905
 20
74.4772676981691006
 30
0.0
 40
0.0669970766585589
 50
207.5684396242012042
 51
293.6691102983323276
  0
ARC
  5
90CE
  8
0
 10
3995.4609550185950866
 20
74.4665937678266232
 30
0.0
 40
0.0439336581229258
 50
181.1511992689738122
 51
207.5684396242012042
  0
LINE
  5
90CF
  8
0
 10
3995.4170302281208933
 20
74.4657111025991867
 30
0.0
 11
3995.4168691849040442
 21
74.4933526883863237
 31
0.0
  0
ARC
  5
90D0
  8
0
 10
3995.4835743673329489
 20
74.4945958178870455
 30
0.0
 40
0.0612510676823524
 50
0.6072153843409606
 51
92.9927871613344621
  0
ARC
  5
90D1
  8
0
 10
3995.4838837869820054
 20
74.4886774839871464
 30
0.0
 40
0.067177484531506
 50
92.9927871613344621
 51
176.0092851075881129
  0
ARC
  5
90D2
  8
0
 10
3995.5805728876821377
 20
74.1050799898487753
 30
0.0
 40
0.0220238406618899
 50
258.7712721879379956
 51
97.2749618250779662
  0
ARC
  5
90D3
  8
0
 10
3995.5769019719659809
 20
74.1052066981685016
 30
0.0
 40
0.0217377389120819
 50
87.6745777047525081
 51
268.3716563082639937
  0
LINE
  5
90D4
  8
0
 10
3995.6428626220831575
 20
74.1404770994867448
 30
0.0
 11
3995.6428292521818548
 21
74.1143318575868051
 31
0.0
  0
ARC
  5
90D5
  8
0
 10
3995.5818192373931197
 20
74.1170727955665711
 30
0.0
 40
0.0610715534888087
 50
293.6691102983323276
 51
357.4276575766850783
  0
ARC
  5
90D6
  8
0
 10
3995.5794404120601939
 20
74.1224998587567256
 30
0.0
 40
0.0669970766585589
 50
207.5684396242012042
 51
293.6691102983323276
  0
ARC
  5
90D7
  8
0
 10
3995.5589956453568448
 20
74.111825928414234
 30
0.0
 40
0.0439336581229258
 50
181.1511992689738122
 51
207.5684396242012042
  0
LINE
  5
90D8
  8
0
 10
3995.5150708548821967
 20
74.1109432631868117
 30
0.0
 11
3995.5149098116648929
 21
74.1385848489739487
 31
0.0
  0
ARC
  5
90D9
  8
0
 10
3995.5816149940937976
 20
74.1398279784746705
 30
0.0
 40
0.0612510676823524
 50
0.6072153843409606
 51
92.9927871613344621
  0
ARC
  5
90DA
  8
0
 10
3995.5819244137451278
 20
74.1339096445747714
 30
0.0
 40
0.067177484531506
 50
92.9927871613344621
 51
176.0092851075881129
  0
ARC
  5
90DB
  8
0
 10
3991.6112794533778469
 20
76.5036404309231983
 30
0.0
 40
1.2401574802999991
 50
119.4762993809259939
 51
246.6201318815793115
  0
ARC
  5
90DC
  8
0
 10
3991.6112794533778469
 20
76.5036404309231983
 30
0.0
 40
1.2401574802999991
 50
350.5378828982863979
 51
60.5237006137466267
  0
ARC
  5
90DD
  8
0
 10
3991.6112794533778469
 20
76.5036404309231983
 30
0.0
 40
1.2401574802999991
 50
70.8118635454837602
 51
71.4905950183031109
  0
ARC
  5
90DE
  8
0
 10
3991.6112794533778469
 20
76.5036404309231983
 30
0.0
 40
1.2401574802999991
 50
108.5094049816969033
 51
109.1881364545161972
  0
LINE
  5
90DF
  8
0
 10
3987.3396258636062157
 20
44.3278704277520532
 30
0.0
 11
3991.0600983510280457
 21
44.3282236089967583
 31
0.0
  0
ARC
  5
90E0
  8
0
 10
3988.6585234764038432
 20
45.3121554923851377
 30
0.0
 40
1.191006219259457
 50
235.7516157778088086
 51
304.2489985196708062
  0
ARC
  5
90E1
  8
0
 10
3988.6585234768022019
 20
45.3121551540255965
 30
0.0
 40
1.1908838829171911
 50
55.6684961869181407
 51
124.3315038130817953
  0
ARC
  5
90E2
  8
0
 10
3991.6112577732551472
 20
44.3004391852751169
 30
0.0
 40
1.325625412314519
 50
89.999065121348707
 51
92.7024915148981705
  0
ARC
  5
90E3
  8
0
 10
3991.6023958005480381
 20
44.488183358401507
 30
0.0
 40
1.1376722024372541
 50
92.7024915148981705
 51
97.8383706568082943
  0
ARC
  5
90E4
  8
0
 10
3991.5350123691569024
 20
44.9776562991039413
 30
0.0
 40
0.6435828517061103
 50
97.8383706568082943
 51
103.6807000147321958
  0
ARC
  5
90E5
  8
0
 10
3991.4656265161711417
 20
45.2627057628427991
 30
0.0
 40
0.3502100626264428
 50
103.6807000147321958
 51
111.3107005673075065
  0
ARC
  5
90E6
  8
0
 10
3991.3859756714468858
 20
45.4668869339016766
 30
0.0
 40
0.1310429855366077
 50
111.3107005673075065
 51
124.7730950094933036
  0
ARC
  5
90E7
  8
0
 10
3991.3359979152601227
 20
45.538867602633573
 30
0.0
 40
0.04341312313396
 50
124.7730950094933036
 51
149.3228936829102906
  0
ARC
  5
90E8
  8
0
 10
3991.3138600430688712
 20
45.5520001479444403
 30
0.0
 40
0.0176730933851642
 50
149.3228936829102906
 51
210.7954160675907929
  0
ARC
  5
90E9
  8
0
 10
3991.9751121363810853
 20
64.7797262411926198
 30
0.0
 40
19.3054378791862185
 50
268.8131669463915046
 51
268.9201536160018122
  0
ARC
  5
90EA
  8
0
 10
3991.6091150037827902
 20
46.7342130304842129
 30
0.0
 40
1.256239740500112
 50
264.9845127119517088
 51
268.455042127030481
  0
ARC
  5
90EB
  8
0
 10
3991.5752631670038681
 20
46.3436191755299518
 30
0.0
 40
0.864184434355835
 50
256.7894216141131096
 51
265.0667905094969115
  0
ARC
  5
90EC
  8
0
 10
3991.4325785867158629
 20
45.735785171735877
 30
0.0
 40
0.2398279131114953
 50
241.0488929320358977
 51
256.7894216141131096
  0
ARC
  5
90ED
  8
0
 10
3991.3398912014849884
 20
45.5682356707090221
 30
0.0
 40
0.0483500118400317
 50
211.5290210078103996
 51
241.0488929320954981
  0
ARC
  5
90EE
  8
0
 10
3991.35120601373319
 20
45.6140456949840782
 30
0.0
 40
0.066805352764098
 50
224.2179072046882027
 51
231.816160787822497
  0
ARC
  5
90EF
  8
0
 10
3991.3663872464981068
 20
45.6333488015059601
 30
0.0
 40
0.0913630348548323
 50
231.816160787822497
 51
245.010888735502192
  0
ARC
  5
90F0
  8
0
 10
3991.613729493225037
 20
46.0738606256689209
 30
0.0
 40
0.5963445040201196
 50
241.3482332718909049
 51
248.607396643218209
  0
ARC
  5
90F1
  8
0
 10
3991.6137861152910773
 20
46.0802160120484103
 30
0.0
 40
0.602286936711522
 50
248.8229100658041091
 51
256.4112409429060904
  0
ARC
  5
90F2
  8
0
 10
3991.5540699633738768
 20
45.7860935602716168
 30
0.0
 40
0.3025696338377783
 50
254.3164161108801125
 51
262.0917291540375231
  0
ARC
  5
90F3
  8
0
 10
3991.6020335664397862
 20
46.0051981888007973
 30
0.0
 40
0.5264760235573755
 50
260.2019668523407177
 51
266.9038848815289953
  0
ARC
  5
90F4
  8
0
 10
3991.3451930665851251
 20
40.8983290941375728
 30
0.0
 40
4.58685185778904
 50
86.7593776267473231
 51
87.1457430562031448
  0
ARC
  5
90F5
  8
0
 10
3991.6345146020898937
 20
46.3316820049732385
 30
0.0
 40
0.8479776749870348
 50
263.2056002403253956
 51
268.4303379012790742
  0
ARC
  5
90F6
  8
0
 10
3991.6110607001028256
 20
46.0881826592071633
 30
0.0
 40
0.6034388815881144
 50
254.9479373903498072
 51
262.6816211114123121
  0
ARC
  5
90F7
  8
0
 10
3991.6100776513399069
 20
46.0845271609927991
 30
0.0
 40
0.5996535081499658
 50
247.2973823891400116
 51
254.9479373903498072
  0
ARC
  5
90F8
  8
0
 10
3991.6086649131189006
 20
46.0811503349125218
 30
0.0
 40
0.5959930732501777
 50
244.8089832038176041
 51
247.2973823891400116
  0
LINE
  5
90F9
  8
0
 10
3991.3549879580828019
 20
45.5418398994071225
 30
0.0
 11
3991.3544825424951341
 21
45.5430031539903908
 31
0.0
  0
LINE
  5
90FA
  8
0
 10
3991.3549879580828019
 20
45.5418398994071225
 30
0.0
 11
3991.3714796572080559
 21
45.5517062513131705
 31
0.0
  0
LINE
  5
90FB
  8
0
 10
3991.3714796572080559
 20
45.5517062513131705
 30
0.0
 11
3991.3714796572080559
 21
45.5399692299131829
 31
0.0
  0
LINE
  5
90FC
  8
0
 10
3991.3714796572080559
 20
45.5399692299131829
 30
0.0
 11
3991.4056575130080091
 21
45.5399692299131829
 31
0.0
  0
LINE
  5
90FD
  8
0
 10
3991.4056575130080091
 20
45.5399692299131829
 30
0.0
 11
3991.4056575130080091
 21
45.5448623390852134
 31
0.0
  0
LINE
  5
90FE
  8
0
 10
3991.3544825425469753
 20
45.5430031539680584
 30
0.0
 11
3991.3508872157772203
 21
45.5447113412312277
 31
0.0
  0
LINE
  5
90FF
  8
0
 10
3991.3508872157772203
 20
45.5447113412312277
 30
0.0
 11
3991.3410446961152047
 21
45.5523981214881104
 31
0.0
  0
LINE
  5
9100
  8
0
 10
3991.3410446961152047
 20
45.5523981214881104
 30
0.0
 11
3991.3508854371070811
 21
45.5509856192131579
 31
0.0
  0
LINE
  5
9101
  8
0
 10
3991.3508854371070811
 20
45.5509856192131579
 30
0.0
 11
3991.3529049337539618
 21
45.5500257542072191
 31
0.0
  0
LINE
  5
9102
  8
0
 10
3991.3529049337539618
 20
45.5500257542072191
 30
0.0
 11
3991.3687797779070934
 21
45.5596350217131629
 31
0.0
  0
LINE
  5
9103
  8
0
 10
3991.3529049363078229
 20
45.550025721613153
 30
0.0
 11
3991.3527151742068781
 21
45.5524468213131826
 31
0.0
  0
LINE
  5
9104
  8
0
 10
3991.3527151742068781
 20
45.5524468213131826
 30
0.0
 11
3991.3529049649141598
 21
45.5551006261846183
 31
0.0
  0
LINE
  5
9105
  8
0
 10
3991.3529049649141598
 20
45.5551006261846183
 30
0.0
 11
3991.3638528894712181
 21
45.5618280282246886
 31
0.0
  0
LINE
  5
9106
  8
0
 10
3991.3529049367080006
 20
45.5551006085131718
 30
0.0
 11
3991.3508861076079484
 21
45.5560606541072275
 31
0.0
  0
LINE
  5
9107
  8
0
 10
3991.3508861076079484
 20
45.5560606541072275
 30
0.0
 11
3991.3410446960187983
 21
45.5654902934042312
 31
0.0
  0
LINE
  5
9108
  8
0
 10
3991.3410446960187983
 20
45.5654902934042312
 30
0.0
 11
3991.3508862064068126
 21
45.5658207983131689
 31
0.0
  0
LINE
  5
9109
  8
0
 10
3991.3508862064068126
 20
45.5658207983131689
 30
0.0
 11
3991.3543426827582152
 21
45.5641785359631584
 31
0.0
  0
LINE
  5
910A
  8
0
 10
3991.3543426827582152
 20
45.5641785359631584
 30
0.0
 11
3991.3549887916760781
 21
45.5659090925201014
 31
0.0
  0
ARC
  5
910B
  8
0
 10
3991.6090095327767813
 20
46.1059767988199809
 30
0.0
 40
0.5968246512143286
 50
244.8100615749281133
 51
245.7468930816370971
  0
ARC
  5
910C
  8
0
 10
3991.6089480072519109
 20
46.1058376077829166
 30
0.0
 40
0.596672472476718
 50
245.7467893742876015
 51
247.9285878473438061
  0
ARC
  5
910D
  8
0
 10
3991.6103283813449707
 20
46.1093272454923877
 30
0.0
 40
0.6004250692697949
 50
247.9316469837706052
 51
256.2098947786839744
  0
ARC
  5
910E
  8
0
 10
3991.6300320872069278
 20
46.2849340372189175
 30
0.0
 40
0.777068001960955
 50
262.1254090603964073
 51
268.6176924822632941
  0
ARC
  5
910F
  8
0
 10
3991.611151992502073
 20
46.1130115818606114
 30
0.0
 40
0.6041995320994265
 50
256.2173245193735056
 51
261.6652717163719899
  0
LINE
  5
9110
  8
0
 10
3991.3525963333540858
 20
45.5525939323654612
 30
0.0
 11
3991.3427384807018825
 21
45.5616598398854435
 31
0.0
  0
LINE
  5
9111
  8
0
 10
3991.3427384807018825
 20
45.5616598398854435
 30
0.0
 11
3991.323048366232797
 21
45.5718972043410773
 31
0.0
  0
LINE
  5
9112
  8
0
 10
3991.323048366232797
 20
45.5718972043410773
 30
0.0
 11
3991.3132058465521368
 21
45.5730852837590774
 31
0.0
  0
LINE
  5
9113
  8
0
 10
3991.3132058465521368
 20
45.5730852837590774
 30
0.0
 11
3991.3230483661309336
 21
45.5638799192142727
 31
0.0
  0
LINE
  5
9114
  8
0
 10
3991.3230483661309336
 20
45.5638799192142727
 30
0.0
 11
3991.3427334055081701
 21
45.5536450154113624
 31
0.0
  0
LINE
  5
9115
  8
0
 10
3991.3427334055081701
 20
45.5536450154113624
 30
0.0
 11
3991.3525963333540858
 21
45.5525939323654612
 31
0.0
  0
LINE
  5
9116
  8
0
 10
3991.352575925065139
 20
45.5423658804003608
 30
0.0
 11
3991.3427334054599669
 21
45.5496822307140832
 31
0.0
  0
LINE
  5
9117
  8
0
 10
3991.3427334054599669
 20
45.5496822307140832
 30
0.0
 11
3991.3230483661827748
 21
45.5599399178882294
 31
0.0
  0
LINE
  5
9118
  8
0
 10
3991.3230483661827748
 20
45.5599399178882294
 30
0.0
 11
3991.3132058465798764
 21
45.5629571018790926
 31
0.0
  0
LINE
  5
9119
  8
0
 10
3991.3132058465798764
 20
45.5629571018790926
 30
0.0
 11
3991.323048366106832
 21
45.5555254717131533
 31
0.0
  0
LINE
  5
911A
  8
0
 10
3991.323048366106832
 20
45.5555254717131533
 30
0.0
 11
3991.342733405531817
 21
45.5451947857020869
 31
0.0
  0
LINE
  5
911B
  8
0
 10
3991.342733405531817
 20
45.5451947857020869
 30
0.0
 11
3991.3525759251679119
 21
45.5423658803747813
 31
0.0
  0
LINE
  5
911C
  8
0
 10
3991.3410446960760964
 20
45.5450849758350671
 30
0.0
 11
3991.3508872157640326
 21
45.5418526881459087
 31
0.0
  0
LINE
  5
911D
  8
0
 10
3991.3508872157640326
 20
45.5418526881459087
 30
0.0
 11
3991.3625937765668823
 21
45.536374447296609
 31
0.0
  0
LINE
  5
911E
  8
0
 10
3991.3625937765668823
 20
45.536374447296609
 30
0.0
 11
3991.3675026015371259
 21
45.5325631792046366
 31
0.0
  0
LINE
  5
911F
  8
0
 10
3991.3675026015371259
 20
45.5325631792046366
 30
0.0
 11
3991.380172465657779
 21
45.5270551841131592
 31
0.0
  0
LINE
  5
9120
  8
0
 10
3991.380172465657779
 20
45.5270551841131592
 30
0.0
 11
3991.370572255208117
 21
45.5299969004653491
 31
0.0
  0
LINE
  5
9121
  8
0
 10
3991.370572255208117
 20
45.5299969004653491
 30
0.0
 11
3991.3508872158081431
 21
45.5391259657058498
 31
0.0
  0
LINE
  5
9122
  8
0
 10
3991.3508872158081431
 20
45.5391259657058498
 30
0.0
 11
3991.3410446960760964
 21
45.5450849758350671
 31
0.0
  0
LINE
  5
9123
  8
0
 10
3991.3207890282001244
 20
45.5805661562790618
 30
0.0
 11
3991.323048366106832
 21
45.5781069764808393
 31
0.0
  0
LINE
  5
9124
  8
0
 10
3991.323048366106832
 20
45.5781069764808393
 30
0.0
 11
3991.3427334055081701
 21
45.5678492893131732
 31
0.0
  0
LINE
  5
9125
  8
0
 10
3991.3427334055081701
 20
45.5678492893131732
 30
0.0
 11
3991.3525759252511307
 21
45.5685502241341709
 31
0.0
  0
LINE
  5
9126
  8
0
 10
3991.3525759252511307
 20
45.5685502241341709
 30
0.0
 11
3991.3427334055081701
 21
45.5793964146131785
 31
0.0
  0
LINE
  5
9127
  8
0
 10
3991.3427334055081701
 20
45.5793964146131785
 30
0.0
 11
3991.3305632960818912
 21
45.585637650592993
 31
0.0
  0
LINE
  5
9128
  8
0
 10
3991.341044696066092
 20
45.5843614915362494
 30
0.0
 11
3991.3508872158317899
 21
45.586419766548353
 31
0.0
  0
LINE
  5
9129
  8
0
 10
3991.3508872158317899
 20
45.586419766548353
 30
0.0
 11
3991.370572255208117
 21
45.5772907012422621
 31
0.0
  0
LINE
  5
912A
  8
0
 10
3991.370572255208117
 20
45.5772907012422621
 30
0.0
 11
3991.380414774872861
 21
45.5661947823296174
 31
0.0
  0
LINE
  5
912B
  8
0
 10
3991.380414774872861
 20
45.5661947823296174
 30
0.0
 11
3991.3675026016840093
 21
45.5714449458131767
 31
0.0
  0
LINE
  5
912C
  8
0
 10
3991.3675026016840093
 20
45.5714449458131767
 30
0.0
 11
3991.3625937766078096
 21
45.5676336777131681
 31
0.0
  0
LINE
  5
912D
  8
0
 10
3991.3625937766078096
 20
45.5676336777131681
 30
0.0
 11
3991.3508872157872247
 21
45.5731119186345666
 31
0.0
  0
LINE
  5
912E
  8
0
 10
3991.3508872157872247
 20
45.5731119186345666
 30
0.0
 11
3991.3410446960760964
 21
45.5843614915248594
 31
0.0
  0
LINE
  5
912F
  8
0
 10
3991.3538022776879188
 20
45.5945828901843626
 30
0.0
 11
3991.3705722551731014
 21
45.5867935913628699
 31
0.0
  0
LINE
  5
9130
  8
0
 10
3991.3705722551731014
 20
45.5867935913628699
 30
0.0
 11
3991.3804147748569449
 21
45.5906300000255911
 31
0.0
  0
LINE
  5
9131
  8
0
 10
3991.3804147748569449
 20
45.5906300000255911
 30
0.0
 11
3991.3729347782591503
 21
45.6004265494221173
 31
0.0
  0
LINE
  5
9132
  8
0
 10
3991.3754904295051347
 20
45.6011176034237309
 30
0.0
 11
3991.3787260653989506
 21
45.5967903868304489
 31
0.0
  0
LINE
  5
9133
  8
0
 10
3991.3787260653989506
 20
45.5967903868304489
 30
0.0
 11
3991.3984111048262093
 21
45.5886873681788884
 31
0.0
  0
LINE
  5
9134
  8
0
 10
3991.3984111048262093
 20
45.5886873681788884
 30
0.0
 11
3991.4082536245100528
 21
45.5938994439974721
 31
0.0
  0
LINE
  5
9135
  8
0
 10
3991.4082536245100528
 20
45.5938994439974721
 30
0.0
 11
3991.3988499674069317
 21
45.6066703588514102
 31
0.0
  0
LINE
  5
9136
  8
0
 10
3991.4016469884459184
 20
45.6072693248886907
 30
0.0
 11
3991.4065649150861645
 21
45.6005058324396515
 31
0.0
  0
LINE
  5
9137
  8
0
 10
3991.4065649150861645
 20
45.6005058324396515
 30
0.0
 11
3991.4262499544588536
 21
45.5934475663870273
 31
0.0
  0
LINE
  5
9138
  8
0
 10
3991.4262499544588536
 20
45.5934475663870273
 30
0.0
 11
3991.4360924741899908
 21
45.6000284764539074
 31
0.0
  0
LINE
  5
9139
  8
0
 10
3991.4360924741899908
 20
45.6000284764539074
 30
0.0
 11
3991.42734620245119
 21
45.6121694065786372
 31
0.0
  0
LINE
  5
913A
  8
0
 10
3991.4304719983701943
 20
45.6127154294341111
 30
0.0
 11
3991.4344037646610559
 21
45.607100846326361
 31
0.0
  0
LINE
  5
913B
  8
0
 10
3991.4344037646610559
 20
45.607100846326361
 30
0.0
 11
3991.4540888041078688
 21
45.6010444180131884
 31
0.0
  0
LINE
  5
913C
  8
0
 10
3991.4540888041078688
 20
45.6010444180131884
 30
0.0
 11
3991.4639313237557872
 21
45.6090101087701285
 31
0.0
  0
LINE
  5
913D
  8
0
 10
3991.4639313237557872
 20
45.6090101087701285
 30
0.0
 11
3991.4584901511120734
 21
45.6167174537033233
 31
0.0
  0
LINE
  5
913E
  8
0
 10
3991.4618506997339864
 20
45.6171408929597391
 30
0.0
 11
3991.4622426144078418
 21
45.6165762621131776
 31
0.0
  0
LINE
  5
913F
  8
0
 10
3991.4622426144078418
 20
45.6165762621131776
 30
0.0
 11
3991.4819276537600672
 21
45.6114953872201312
 31
0.0
  0
LINE
  5
9140
  8
0
 10
3991.4819276537600672
 20
45.6114953872201312
 30
0.0
 11
3991.4912989111689967
 21
45.6204181049839832
 31
0.0
  0
LINE
  5
9141
  8
0
 10
3991.4900814641077886
 20
45.6138142692858324
 30
0.0
 11
3991.4802389443780157
 21
45.6048384284852517
 31
0.0
  0
LINE
  5
9142
  8
0
 10
3991.4802389443780157
 20
45.6048384284852517
 30
0.0
 11
3991.4900814640268436
 21
45.5919506154071499
 31
0.0
  0
LINE
  5
9143
  8
0
 10
3991.4900814640268436
 20
45.5919506154071499
 30
0.0
 11
3991.5097665033949852
 21
45.5880209290929628
 31
0.0
  0
LINE
  5
9144
  8
0
 10
3991.5097665033949852
 20
45.5880209290929628
 30
0.0
 11
3991.5196090231697781
 21
45.596875356820739
 31
0.0
  0
LINE
  5
9145
  8
0
 10
3991.5196090231697781
 20
45.596875356820739
 30
0.0
 11
3991.509766503514129
 21
45.609778958163659
 31
0.0
  0
LINE
  5
9146
  8
0
 10
3991.509766503514129
 20
45.609778958163659
 30
0.0
 11
3991.4900814641077886
 21
45.6138142692858324
 31
0.0
  0
LINE
  5
9147
  8
0
 10
3991.5127016558740252
 20
45.6223143034910024
 30
0.0
 11
3991.5080777940311236
 21
45.6175105306863671
 31
0.0
  0
LINE
  5
9148
  8
0
 10
3991.5080777940311236
 20
45.6175105306863671
 30
0.0
 11
3991.517920313724062
 21
45.6041529026701795
 31
0.0
  0
LINE
  5
9149
  8
0
 10
3991.517920313724062
 20
45.6041529026701795
 30
0.0
 11
3991.5376053531090292
 21
45.601170950013163
 31
0.0
  0
LINE
  5
914A
  8
0
 10
3991.5376053531090292
 20
45.601170950013163
 30
0.0
 11
3991.5474478728060603
 21
45.6114558047827714
 31
0.0
  0
LINE
  5
914B
  8
0
 10
3991.5474478728060603
 20
45.6114558047827714
 30
0.0
 11
3991.5382042246751553
 21
45.6240431568737321
 31
0.0
  0
LINE
  5
914C
  8
0
 10
3991.5421539885451239
 20
45.6242594844973794
 30
0.0
 11
3991.5457591634080927
 21
45.6192763027539314
 31
0.0
  0
LINE
  5
914D
  8
0
 10
3991.5457591634080927
 20
45.6192763027539314
 30
0.0
 11
3991.5654442027080222
 21
45.6172531545841267
 31
0.0
  0
LINE
  5
914E
  8
0
 10
3991.5654442027080222
 20
45.6172531545841267
 30
0.0
 11
3991.5723905459121852
 21
45.6254946831365231
 31
0.0
  0
LINE
  5
914F
  8
0
 10
3991.5080777939751897
 20
45.5819441986666121
 30
0.0
 11
3991.5179203137067816
 21
45.5904071242135132
 31
0.0
  0
LINE
  5
9150
  8
0
 10
3991.5179203137067816
 20
45.5904071242135132
 30
0.0
 11
3991.5376053530758327
 21
45.5874738668160688
 31
0.0
  0
LINE
  5
9151
  8
0
 10
3991.5376053530758327
 20
45.5874738668160688
 30
0.0
 11
3991.5474478727542191
 21
45.5761422102068394
 31
0.0
  0
LINE
  5
9152
  8
0
 10
3991.5474478727542191
 20
45.5761422102068394
 30
0.0
 11
3991.5376053531090292
 21
45.5677634659004482
 31
0.0
  0
LINE
  5
9153
  8
0
 10
3991.5376053531090292
 20
45.5677634659004482
 30
0.0
 11
3991.5179203137540753
 21
45.5706331770176192
 31
0.0
  0
LINE
  5
9154
  8
0
 10
3991.5179203137540753
 20
45.5706331770176192
 30
0.0
 11
3991.5080777939738255
 21
45.5819441986654823
 31
0.0
  0
LINE
  5
9155
  8
0
 10
3991.4524000948140383
 20
45.5950499554995616
 30
0.0
 11
3991.4622426144078418
 21
45.6026216004131726
 31
0.0
  0
LINE
  5
9156
  8
0
 10
3991.4622426144078418
 20
45.6026216004131726
 30
0.0
 11
3991.4819276538078157
 21
45.597627348264453
 31
0.0
  0
LINE
  5
9157
  8
0
 10
3991.4819276538078157
 20
45.597627348264453
 30
0.0
 11
3991.4917701734570983
 21
45.5851758126287692
 31
0.0
  0
LINE
  5
9158
  8
0
 10
3991.4917701734570983
 20
45.5851758126287692
 30
0.0
 11
3991.4819276538078157
 21
45.5776940325772131
 31
0.0
  0
LINE
  5
9159
  8
0
 10
3991.4819276538078157
 20
45.5776940325772131
 30
0.0
 11
3991.4622426144310339
 21
45.5825755260835734
 31
0.0
  0
LINE
  5
915A
  8
0
 10
3991.4622426144310339
 20
45.5825755260835734
 30
0.0
 11
3991.4524000947731111
 21
45.5950499554700031
 31
0.0
  0
LINE
  5
915B
  8
0
 10
3991.4245612450508816
 20
45.5880911453108766
 30
0.0
 11
3991.4344037647078949
 21
45.5942917975909126
 31
0.0
  0
LINE
  5
915C
  8
0
 10
3991.4344037647078949
 20
45.5942917975909126
 30
0.0
 11
3991.4540888041078688
 21
45.5883248292131569
 31
0.0
  0
LINE
  5
915D
  8
0
 10
3991.4540888041078688
 20
45.5883248292131569
 30
0.0
 11
3991.4639313237780698
 21
45.5762733808562999
 31
0.0
  0
LINE
  5
915E
  8
0
 10
3991.4639313237780698
 20
45.5762733808562999
 30
0.0
 11
3991.4540888040792197
 21
45.5701302625326008
 31
0.0
  0
LINE
  5
915F
  8
0
 10
3991.4540888040792197
 20
45.5701302625326008
 30
0.0
 11
3991.4344037646701508
 21
45.5759821786825583
 31
0.0
  0
LINE
  5
9160
  8
0
 10
3991.4344037646701508
 20
45.5759821786825583
 30
0.0
 11
3991.4245612450508816
 21
45.5880911453108766
 31
0.0
  0
LINE
  5
9161
  8
0
 10
3991.4065649151079924
 20
45.5887952018929994
 30
0.0
 11
3991.4262499545070568
 21
45.5818263952131488
 31
0.0
  0
LINE
  5
9162
  8
0
 10
3991.4262499545070568
 20
45.5818263952131488
 30
0.0
 11
3991.4360924741631607
 21
45.5701308371052178
 31
0.0
  0
LINE
  5
9163
  8
0
 10
3991.4360924741631607
 20
45.5701308371052178
 30
0.0
 11
3991.4262499545070568
 21
45.5653137620505007
 31
0.0
  0
LINE
  5
9164
  8
0
 10
3991.4262499545070568
 20
45.5653137620505007
 30
0.0
 11
3991.4065649151079924
 21
45.5721698222131835
 31
0.0
  0
LINE
  5
9165
  8
0
 10
3991.4065649151079924
 20
45.5721698222131835
 30
0.0
 11
3991.4065649151079924
 21
45.5835559496135403
 31
0.0
  0
LINE
  5
9166
  8
0
 10
3991.4065649151079924
 20
45.5835559496135403
 30
0.0
 11
3991.4065649197968924
 21
45.5887952002332568
 31
0.0
  0
LINE
  5
9167
  8
0
 10
3991.4065649197968924
 20
45.5887952002332568
 30
0.0
 11
3991.3967223954850851
 21
45.58395522571724
 31
0.0
  0
LINE
  5
9168
  8
0
 10
3991.3967223954850851
 20
45.58395522571724
 30
0.0
 11
3991.4065649150338686
 21
45.572169822239097
 31
0.0
  0
LINE
  5
9169
  8
0
 10
3991.4262499545070568
 20
45.5653137620505007
 30
0.0
 11
3991.4262499502528954
 21
45.5818263967193928
 31
0.0
  0
LINE
  5
916A
  8
0
 10
3991.3688835457342066
 20
45.5826820525369527
 30
0.0
 11
3991.3787260654080455
 21
45.5861492137116571
 31
0.0
  0
LINE
  5
916B
  8
0
 10
3991.3787260654080455
 20
45.5861492137116571
 30
0.0
 11
3991.39841110483394
 21
45.5781328162881181
 31
0.0
  0
LINE
  5
916C
  8
0
 10
3991.39841110483394
 20
45.5781328162881181
 30
0.0
 11
3991.408253624468216
 21
45.5667545090106287
 31
0.0
  0
LINE
  5
916D
  8
0
 10
3991.408253624468216
 20
45.5667545090106287
 30
0.0
 11
3991.3984111048462182
 21
45.5632715537136193
 31
0.0
  0
LINE
  5
916E
  8
0
 10
3991.3984111048462182
 20
45.5632715537136193
 30
0.0
 11
3991.3787260654939928
 21
45.5711823496933235
 31
0.0
  0
LINE
  5
916F
  8
0
 10
3991.3787260654939928
 20
45.5711823496933235
 30
0.0
 11
3991.3688835457342066
 21
45.5826820525369527
 31
0.0
  0
LINE
  5
9170
  8
0
 10
3991.3967217877147959
 20
45.5596630619984424
 30
0.0
 11
3991.4065659985008097
 21
45.5627896064316218
 31
0.0
  0
LINE
  5
9171
  8
0
 10
3991.4065659985008097
 20
45.5627896064316218
 30
0.0
 11
3991.4262499544151979
 21
45.555988207068971
 31
0.0
  0
LINE
  5
9172
  8
0
 10
3991.4262499544151979
 20
45.555988207068971
 30
0.0
 11
3991.4360924741918097
 21
45.5461243708504497
 31
0.0
  0
LINE
  5
9173
  8
0
 10
3991.4360924741918097
 20
45.5461243708504497
 30
0.0
 11
3991.3967217877147959
 21
45.5596630619984424
 31
0.0
  0
LINE
  5
9174
  8
0
 10
3991.424561245060886
 20
45.5610991306779312
 30
0.0
 11
3991.4344037647078949
 21
45.5655581733556829
 31
0.0
  0
LINE
  5
9175
  8
0
 10
3991.4344037647078949
 20
45.5655581733556829
 30
0.0
 11
3991.4540888041078688
 21
45.5597643265724486
 31
0.0
  0
LINE
  5
9176
  8
0
 10
3991.4540888041078688
 20
45.5597643265724486
 30
0.0
 11
3991.4639313238558316
 21
45.5495825766723925
 31
0.0
  0
LINE
  5
9177
  8
0
 10
3991.4639313238558316
 20
45.5495825766723925
 30
0.0
 11
3991.4540888041428843
 21
45.5451334121063809
 31
0.0
  0
LINE
  5
9178
  8
0
 10
3991.4540888041428843
 20
45.5451334121063809
 30
0.0
 11
3991.4344037647010737
 21
45.5508562833232276
 31
0.0
  0
LINE
  5
9179
  8
0
 10
3991.4344037647010737
 20
45.5508562833232276
 30
0.0
 11
3991.424561245060886
 21
45.5610991306779312
 31
0.0
  0
LINE
  5
917A
  8
0
 10
3991.4523968626090209
 20
45.5414011673131682
 30
0.0
 11
3991.4622426144860583
 21
45.5454996604113234
 31
0.0
  0
LINE
  5
917B
  8
0
 10
3991.4622426144860583
 20
45.5454996604113234
 30
0.0
 11
3991.4819276537491533
 21
45.5407855214066686
 31
0.0
  0
LINE
  5
917C
  8
0
 10
3991.4819276537491533
 20
45.5407855214066686
 30
0.0
 11
3991.4917701734821094
 21
45.5320114061889072
 31
0.0
  0
LINE
  5
917D
  8
0
 10
3991.4917701734821094
 20
45.5320114061889072
 30
0.0
 11
3991.4523968626090209
 21
45.5414011673131682
 31
0.0
  0
LINE
  5
917E
  8
0
 10
3991.4524000946530577
 20
45.5653083818379088
 30
0.0
 11
3991.4622426143009761
 21
45.5710875560945823
 31
0.0
  0
LINE
  5
917F
  8
0
 10
3991.4622426143009761
 20
45.5710875560945823
 30
0.0
 11
3991.4819276538078157
 21
45.5662641320496817
 31
0.0
  0
LINE
  5
9180
  8
0
 10
3991.4819276538078157
 20
45.5662641320496817
 30
0.0
 11
3991.4917701734548245
 21
45.5557354768580893
 31
0.0
  0
LINE
  5
9181
  8
0
 10
3991.4917701734548245
 20
45.5557354768580467
 30
0.0
 11
3991.4819276538078157
 21
45.549992996013188
 31
0.0
  0
LINE
  5
9182
  8
0
 10
3991.4819276538078157
 20
45.549992996013188
 30
0.0
 11
3991.4622426143591838
 21
45.5547430394798383
 31
0.0
  0
LINE
  5
9183
  8
0
 10
3991.4622426143591838
 20
45.5547430394798383
 30
0.0
 11
3991.4524000947258173
 21
45.5653083817643534
 31
0.0
  0
LINE
  5
9184
  8
0
 10
3991.4802389443921129
 20
45.5722546806328879
 30
0.0
 11
3991.4900814640341196
 21
45.579361558286088
 31
0.0
  0
LINE
  5
9185
  8
0
 10
3991.4900814640341196
 20
45.579361558286088
 30
0.0
 11
3991.5097665034509191
 21
45.5754869186531408
 31
0.0
  0
LINE
  5
9186
  8
0
 10
3991.5097665034509191
 20
45.5754869186531408
 30
0.0
 11
3991.5186815390497941
 21
45.5655732747438407
 31
0.0
  0
LINE
  5
9187
  8
0
 10
3991.5186815390497941
 20
45.5655732747438407
 30
0.0
 11
3991.5097665034081729
 21
45.557531448430538
 31
0.0
  0
LINE
  5
9188
  8
0
 10
3991.5097665034081729
 20
45.557531448430538
 30
0.0
 11
3991.4900814640541284
 21
45.5613351069233801
 31
0.0
  0
LINE
  5
9189
  8
0
 10
3991.4900814640541284
 20
45.5613351069233801
 30
0.0
 11
3991.4802389443948414
 21
45.572254680629193
 31
0.0
  0
LINE
  5
918A
  8
0
 10
3991.4802389444180335
 20
45.5456633884245505
 30
0.0
 11
3991.4900814641077886
 21
45.5510541241131719
 31
0.0
  0
LINE
  5
918B
  8
0
 10
3991.4900814641077886
 20
45.5510541241131719
 30
0.0
 11
3991.5097665034081729
 21
45.5472863703384832
 31
0.0
  0
LINE
  5
918C
  8
0
 10
3991.5097665034081729
 20
45.5472863703384832
 30
0.0
 11
3991.5196090231279413
 21
45.5381720944228121
 31
0.0
  0
LINE
  5
918D
  8
0
 10
3991.5196090231279413
 20
45.5381720944228121
 30
0.0
 11
3991.5097665034081729
 21
45.5328033377131618
 31
0.0
  0
LINE
  5
918E
  8
0
 10
3991.5097665034081729
 20
45.5328033377131618
 30
0.0
 11
3991.4900814641077886
 21
45.5365271357508021
 31
0.0
  0
LINE
  5
918F
  8
0
 10
3991.4900814641077886
 20
45.5365271357508021
 30
0.0
 11
3991.4802389444212167
 21
45.545663388426199
 31
0.0
  0
LINE
  5
9190
  8
0
 10
3991.5080777940570442
 20
45.5526001335144386
 30
0.0
 11
3991.5179203137081458
 21
45.5592854456553269
 31
0.0
  0
LINE
  5
9191
  8
0
 10
3991.5179203137081458
 20
45.5592854456553269
 30
0.0
 11
3991.5376053531090292
 21
45.5564485294131671
 31
0.0
  0
LINE
  5
9192
  8
0
 10
3991.5376053531090292
 20
45.5564485294131671
 30
0.0
 11
3991.5474478727510359
 21
45.5469682129348499
 31
0.0
  0
LINE
  5
9193
  8
0
 10
3991.5474478727510359
 20
45.5469682129348499
 30
0.0
 11
3991.5376053531090292
 21
45.5403228267131581
 31
0.0
  0
LINE
  5
9194
  8
0
 10
3991.5376053531090292
 20
45.5403228267131581
 30
0.0
 11
3991.5179203137081458
 21
45.5431182349131731
 31
0.0
  0
LINE
  5
9195
  8
0
 10
3991.5179203137081458
 20
45.5431182349131731
 30
0.0
 11
3991.5080777940570442
 21
45.5526001335144386
 31
0.0
  0
LINE
  5
9196
  8
0
 10
3991.5080777939929249
 20
45.5289356603081288
 30
0.0
 11
3991.5175999021880671
 21
45.5337874863608505
 31
0.0
  0
LINE
  5
9197
  8
0
 10
3991.5175999021880671
 20
45.5337874863608505
 30
0.0
 11
3991.537605353060826
 21
45.5311865753056182
 31
0.0
  0
LINE
  5
9198
  8
0
 10
3991.537605353060826
 20
45.5311865753056182
 30
0.0
 11
3991.5474478727460337
 21
45.5234091468999367
 31
0.0
  0
LINE
  5
9199
  8
0
 10
3991.5474478727460337
 20
45.5234091468999367
 30
0.0
 11
3991.5080777939929249
 21
45.5289356603081288
 31
0.0
  0
LINE
  5
919A
  8
0
 10
3991.5359166436719534
 20
45.5358652888545592
 30
0.0
 11
3991.5457591634080927
 21
45.5421610378131589
 31
0.0
  0
LINE
  5
919B
  8
0
 10
3991.5457591634080927
 20
45.5421610378131589
 30
0.0
 11
3991.5654442026179822
 21
45.5403039810098065
 31
0.0
  0
LINE
  5
919C
  8
0
 10
3991.5654442026179822
 20
45.5403039810098065
 30
0.0
 11
3991.5752867223900466
 21
45.5321724029930479
 31
0.0
  0
LINE
  5
919D
  8
0
 10
3991.5752867223900466
 20
45.5321724029930479
 30
0.0
 11
3991.5654442027321238
 21
45.5259008657463227
 31
0.0
  0
LINE
  5
919E
  8
0
 10
3991.5654442027321238
 20
45.5259008657463227
 30
0.0
 11
3991.5457591634881283
 21
45.5277368599906609
 31
0.0
  0
LINE
  5
919F
  8
0
 10
3991.5457591634881283
 20
45.5277368599906609
 30
0.0
 11
3991.5359166436719534
 21
45.5358652888545592
 31
0.0
  0
LINE
  5
91A0
  8
0
 10
3991.5637554932809508
 20
45.52189254453274
 30
0.0
 11
3991.5735980130762073
 21
45.5278223494275807
 31
0.0
  0
LINE
  5
91A1
  8
0
 10
3991.5735980130762073
 20
45.5278223494275807
 30
0.0
 11
3991.5932830523402117
 21
45.526905857136903
 31
0.0
  0
LINE
  5
91A2
  8
0
 10
3991.5932830523402117
 20
45.526905857136903
 30
0.0
 11
3991.6031255721168236
 21
45.5200672362187575
 31
0.0
  0
LINE
  5
91A3
  8
0
 10
3991.6031255721168236
 20
45.5200672362187575
 30
0.0
 11
3991.5637554932809508
 21
45.5218925445327187
 31
0.0
  0
LINE
  5
91A4
  8
0
 10
3991.5637554934151012
 20
45.5454230543502021
 30
0.0
 11
3991.5735980129411473
 21
45.5530101721601426
 31
0.0
  0
LINE
  5
91A5
  8
0
 10
3991.5735980129411473
 20
45.5530101721601426
 30
0.0
 11
3991.5932830524579913
 21
45.55207364283158
 31
0.0
  0
LINE
  5
91A6
  8
0
 10
3991.5932830524579913
 20
45.55207364283158
 30
0.0
 11
3991.6031255720540685
 21
45.5435635849900535
 31
0.0
  0
LINE
  5
91A7
  8
0
 10
3991.6031255720540685
 20
45.5435635849900535
 30
0.0
 11
3991.5932830524079691
 21
45.5360111342503018
 31
0.0
  0
LINE
  5
91A8
  8
0
 10
3991.5932830524079691
 20
45.5360111342503018
 30
0.0
 11
3991.5735980130070857
 21
45.5369342180871186
 31
0.0
  0
LINE
  5
91A9
  8
0
 10
3991.5735980130070857
 20
45.5369342180871186
 30
0.0
 11
3991.5637554932641251
 21
45.5454230543421232
 31
0.0
  0
LINE
  5
91AA
  8
0
 10
3991.5359166437001477
 20
45.5622141312941977
 30
0.0
 11
3991.5457591633808079
 21
45.5702186088851775
 31
0.0
  0
LINE
  5
91AB
  8
0
 10
3991.5457591633808079
 20
45.5702186088851775
 30
0.0
 11
3991.5654442027080222
 21
45.5683104218954185
 31
0.0
  0
LINE
  5
91AC
  8
0
 10
3991.5654442027080222
 20
45.5683104218954185
 30
0.0
 11
3991.5752867224769034
 21
45.5584321379741795
 31
0.0
  0
LINE
  5
91AD
  8
0
 10
3991.5752867224769034
 20
45.5584321379741795
 30
0.0
 11
3991.5654442027789628
 21
45.5504838192944774
 31
0.0
  0
LINE
  5
91AE
  8
0
 10
3991.5654442027789628
 20
45.5504838192944774
 30
0.0
 11
3991.5457591634090022
 21
45.552358065508237
 31
0.0
  0
LINE
  5
91AF
  8
0
 10
3991.5457591634090022
 20
45.552358065508237
 30
0.0
 11
3991.5359166437001477
 21
45.5622141312941977
 31
0.0
  0
LINE
  5
91B0
  8
0
 10
3991.5637554933350657
 20
45.5745510218811418
 30
0.0
 11
3991.5735980130179996
 21
45.5839201375644478
 31
0.0
  0
LINE
  5
91B1
  8
0
 10
3991.5735980130179996
 20
45.5839201375644478
 30
0.0
 11
3991.5932830524470774
 21
45.5829524445829719
 31
0.0
  0
LINE
  5
91B2
  8
0
 10
3991.5932830524470774
 20
45.5829524445829719
 30
0.0
 11
3991.6031255720617992
 21
45.5726365127739399
 31
0.0
  0
LINE
  5
91B3
  8
0
 10
3991.6031255720617992
 20
45.5726365127739399
 30
0.0
 11
3991.5932830524238852
 21
45.5633386759409973
 31
0.0
  0
LINE
  5
91B4
  8
0
 10
3991.5932830524238852
 20
45.5633386759409973
 30
0.0
 11
3991.5735980130070857
 21
45.5633386759409973
 31
0.0
  0
LINE
  5
91B5
  8
0
 10
3991.5735980130070857
 20
45.5633386759409973
 30
0.0
 11
3991.5637554933350657
 21
45.5745510218811418
 31
0.0
  0
LINE
  5
91B6
  8
0
 10
3991.5359166437060594
 20
45.5944260645569912
 30
0.0
 11
3991.5457591633921766
 21
45.6042961005758087
 31
0.0
  0
LINE
  5
91B7
  8
0
 10
3991.5457591633921766
 20
45.6042961005758087
 30
0.0
 11
3991.5654442027439472
 21
45.6023112929469079
 31
0.0
  0
LINE
  5
91B8
  8
0
 10
3991.5654442027439472
 20
45.6023112929469079
 30
0.0
 11
3991.5752867224259717
 21
45.5905077362348408
 31
0.0
  0
LINE
  5
91B9
  8
0
 10
3991.5752867224259717
 20
45.5905077362348408
 30
0.0
 11
3991.5654442027648656
 21
45.5807445925256474
 31
0.0
  0
LINE
  5
91BA
  8
0
 10
3991.5654442027648656
 20
45.5807445925256474
 30
0.0
 11
3991.5457591634080927
 21
45.5826790628131704
 31
0.0
  0
LINE
  5
91BB
  8
0
 10
3991.5457591634080927
 20
45.5826790628131704
 30
0.0
 11
3991.5359166437060594
 21
45.5944260645569912
 31
0.0
  0
LINE
  5
91BC
  8
0
 10
3991.5637554932959574
 20
45.6097963148923924
 30
0.0
 11
3991.5735980129261407
 21
45.6211512006855315
 31
0.0
  0
LINE
  5
91BD
  8
0
 10
3991.5735980129261407
 20
45.6211512006855315
 30
0.0
 11
3991.5932830523552184
 21
45.6201378275080529
 31
0.0
  0
LINE
  5
91BE
  8
0
 10
3991.5932830523552184
 20
45.6201378275080529
 30
0.0
 11
3991.6031255720749868
 21
45.6078001921884919
 31
0.0
  0
LINE
  5
91BF
  8
0
 10
3991.6031255720749868
 20
45.6078001921884919
 30
0.0
 11
3991.5932830523652228
 21
45.5965755380321767
 31
0.0
  0
LINE
  5
91C0
  8
0
 10
3991.5932830523652228
 20
45.5965755380321767
 30
0.0
 11
3991.5735980129429663
 21
45.5975589587681966
 31
0.0
  0
LINE
  5
91C1
  8
0
 10
3991.5735980129429663
 20
45.5975589587681966
 30
0.0
 11
3991.5637554933127831
 21
45.6097963148895715
 31
0.0
  0
LINE
  5
91C2
  8
0
 10
3991.5932798891540187
 20
45.6259426856316068
 30
0.0
 11
3991.6014368627070326
 21
45.6154105243131625
 31
0.0
  0
LINE
  5
91C3
  8
0
 10
3991.6014368627070326
 20
45.6154105243131625
 30
0.0
 11
3991.6211219020028693
 21
45.6154105242735994
 31
0.0
  0
LINE
  5
91C4
  8
0
 10
3991.6211219020028693
 20
45.6154105242735994
 30
0.0
 11
3991.6292834285750359
 21
45.625943408740838
 31
0.0
  0
LINE
  5
91C5
  8
0
 10
3991.591594343010911
 20
45.5896998362137325
 30
0.0
 11
3991.601436862752962
 21
45.6005033271818974
 31
0.0
  0
LINE
  5
91C6
  8
0
 10
3991.601436862752962
 20
45.6005033271818974
 30
0.0
 11
3991.6211219020078715
 21
45.6005033271028495
 31
0.0
  0
LINE
  5
91C7
  8
0
 10
3991.6211219020078715
 20
45.6005033271028495
 30
0.0
 11
3991.6309644217358255
 21
45.589699836250908
 31
0.0
  0
LINE
  5
91C8
  8
0
 10
3991.6309644217358255
 20
45.589699836250908
 30
0.0
 11
3991.6211219020078715
 21
45.5789821601629299
 31
0.0
  0
LINE
  5
91C9
  8
0
 10
3991.6211219020078715
 20
45.5789821601629299
 30
0.0
 11
3991.6014368627070326
 21
45.5789821600997271
 31
0.0
  0
LINE
  5
91CA
  8
0
 10
3991.6014368627070326
 20
45.5789821600997271
 30
0.0
 11
3991.5915943430049992
 21
45.5896998362208379
 31
0.0
  0
LINE
  5
91CB
  8
0
 10
3991.5915943429231447
 20
45.5576521110291779
 30
0.0
 11
3991.6014368625751558
 21
45.5665717740406109
 31
0.0
  0
LINE
  5
91CC
  8
0
 10
3991.6014368625751558
 20
45.5665717740406109
 30
0.0
 11
3991.621121901980132
 21
45.5665717740395522
 31
0.0
  0
LINE
  5
91CD
  8
0
 10
3991.621121901980132
 20
45.5665717740395522
 30
0.0
 11
3991.6309644217431014
 21
45.5576521109831987
 31
0.0
  0
LINE
  5
91CE
  8
0
 10
3991.6309644217431014
 20
45.5576521109831987
 30
0.0
 11
3991.6211219020078715
 21
45.5487758952303992
 31
0.0
  0
LINE
  5
91CF
  8
0
 10
3991.6211219020078715
 20
45.5487758952303992
 30
0.0
 11
3991.6014368627070326
 21
45.5487758952303992
 31
0.0
  0
LINE
  5
91D0
  8
0
 10
3991.6014368627070326
 20
45.5487758952303992
 30
0.0
 11
3991.5915943429731669
 21
45.5576521109831987
 31
0.0
  0
LINE
  5
91D1
  8
0
 10
3991.591594342920871
 20
45.5314106070887377
 30
0.0
 11
3991.6018965436192047
 21
45.5386041696496093
 31
0.0
  0
LINE
  5
91D2
  8
0
 10
3991.6018965436192047
 20
45.5386041696496093
 30
0.0
 11
3991.6211219020078715
 21
45.5386116211309826
 31
0.0
  0
LINE
  5
91D3
  8
0
 10
3991.6211219020078715
 20
45.5386116211309826
 30
0.0
 11
3991.6309644217171808
 21
45.5314106070507378
 31
0.0
  0
LINE
  5
91D4
  8
0
 10
3991.6309644217171808
 20
45.5314106070507378
 30
0.0
 11
3991.6211219020078715
 21
45.5242275811619521
 31
0.0
  0
LINE
  5
91D5
  8
0
 10
3991.6211219020078715
 20
45.5242275811619521
 30
0.0
 11
3991.6014368627070326
 21
45.5242275810148698
 31
0.0
  0
LINE
  5
91D6
  8
0
 10
3991.6014368627070326
 20
45.5242275810148698
 30
0.0
 11
3991.5915943429331492
 21
45.5314106070798132
 31
0.0
  0
LINE
  5
91D7
  8
0
 10
3991.6211213143860732
 20
45.4797954088131604
 30
0.0
 11
3991.6014368627070326
 21
45.4797954088131604
 31
0.0
  0
LINE
  5
91D8
  8
0
 10
3991.6014368627070326
 20
45.4797954088131604
 30
0.0
 11
3991.5915943435998088
 21
45.4790419195939393
 31
0.0
  0
LINE
  5
91D9
  8
0
 10
3991.5915943435998088
 20
45.4790419195939393
 30
0.0
 11
3991.6014368627102158
 21
45.478225648539599
 31
0.0
  0
LINE
  5
91DA
  8
0
 10
3991.6014368627102158
 20
45.478225648539599
 30
0.0
 11
3991.6112790885467803
 21
45.4781441300141083
 31
0.0
  0
LINE
  5
91DB
  8
0
 10
3991.6031255721518392
 20
45.4807907206052136
 30
0.0
 11
3991.5932830523552184
 21
45.4796120562671007
 31
0.0
  0
LINE
  5
91DC
  8
0
 10
3991.5932830523552184
 20
45.4796120562671007
 30
0.0
 11
3991.5735980130521057
 21
45.4805285486289534
 31
0.0
  0
LINE
  5
91DD
  8
0
 10
3991.5735980130521057
 20
45.4805285486289534
 30
0.0
 11
3991.5637556130468511
 21
45.4826159981006768
 31
0.0
  0
LINE
  5
91DE
  8
0
 10
3991.5637556130468511
 20
45.4826159981006768
 30
0.0
 11
3991.5735969164838934
 21
45.4819983221771977
 31
0.0
  0
LINE
  5
91DF
  8
0
 10
3991.5735969164838934
 20
45.4819983221771977
 30
0.0
 11
3991.5932830524079691
 21
45.4810861541526634
 31
0.0
  0
LINE
  5
91E0
  8
0
 10
3991.5932830524079691
 20
45.4810861541526634
 30
0.0
 11
3991.6031255721518392
 21
45.4807907206052136
 31
0.0
  0
LINE
  5
91E1
  8
0
 10
3991.5752867224778129
 20
45.4798037154981571
 30
0.0
 11
3991.5654442027080222
 21
45.4799951596374186
 31
0.0
  0
LINE
  5
91E2
  8
0
 10
3991.5752867223991416
 20
45.4798037155094974
 30
0.0
 11
3991.5654442027448567
 21
45.481549463422752
 31
0.0
  0
LINE
  5
91E3
  8
0
 10
3991.5654442027448567
 20
45.481549463422752
 30
0.0
 11
3991.5457591633557968
 21
45.4833854577048626
 31
0.0
  0
LINE
  5
91E4
  8
0
 10
3991.5457591633557968
 20
45.4833854577048626
 30
0.0
 11
3991.5359166436310261
 21
45.4834966013795992
 31
0.0
  0
LINE
  5
91E5
  8
0
 10
3991.5359166436310261
 20
45.4834966013795992
 30
0.0
 11
3991.5456045359860582
 21
45.4817550038201901
 31
0.0
  0
LINE
  5
91E6
  8
0
 10
3991.5474478727428504
 20
45.484132631331029
 30
0.0
 11
3991.5376053531122125
 21
45.4838927745430368
 31
0.0
  0
LINE
  5
91E7
  8
0
 10
3991.5376053531122125
 20
45.4838927745430368
 30
0.0
 11
3991.5179203137668082
 21
45.4866678465553278
 31
0.0
  0
LINE
  5
91E8
  8
0
 10
3991.5179203137668082
 20
45.4866678465553278
 30
0.0
 11
3991.5080777940670487
 21
45.4896591447125971
 31
0.0
  0
LINE
  5
91E9
  8
0
 10
3991.5080777940670487
 20
45.4896591447125971
 30
0.0
 11
3991.5179203137081458
 21
45.4881076282818597
 31
0.0
  0
LINE
  5
91EA
  8
0
 10
3991.5179203137081458
 20
45.4881076282818597
 30
0.0
 11
3991.5376053531090292
 21
45.48534610938718
 31
0.0
  0
LINE
  5
91EB
  8
0
 10
3991.5376053531090292
 20
45.48534610938718
 30
0.0
 11
3991.5474478728069698
 21
45.4841326313131518
 31
0.0
  0
LINE
  5
91EC
  8
0
 10
3991.5196090231211201
 20
45.4858034069862498
 30
0.0
 11
3991.5097665038010746
 21
45.4884519353448198
 31
0.0
  0
LINE
  5
91ED
  8
0
 10
3991.5097665038010746
 20
45.4884519353448198
 30
0.0
 11
3991.4900814641077886
 21
45.4921757334611101
 31
0.0
  0
LINE
  5
91EE
  8
0
 10
3991.4900814641077886
 20
45.4921757334611101
 30
0.0
 11
3991.4802389446072084
 21
45.4932947009477999
 31
0.0
  0
LINE
  5
91EF
  8
0
 10
3991.4802389446072084
 20
45.4932947009477999
 30
0.0
 11
3991.4900814641077886
 21
45.4906681514892313
 31
0.0
  0
LINE
  5
91F0
  8
0
 10
3991.4900814641077886
 20
45.4906681514892313
 30
0.0
 11
3991.5097665034440979
 21
45.4869003976534572
 31
0.0
  0
LINE
  5
91F1
  8
0
 10
3991.5097665034440979
 20
45.4869003976534572
 30
0.0
 11
3991.5196090230970185
 21
45.4858034069364834
 31
0.0
  0
LINE
  5
91F2
  8
0
 10
3991.4917701734248112
 20
45.4927348905462594
 30
0.0
 11
3991.481927653755065
 21
45.4934917207776124
 31
0.0
  0
LINE
  5
91F3
  8
0
 10
3991.481927653755065
 20
45.4934917207776124
 30
0.0
 11
3991.4622426144078418
 21
45.4982058595495999
 31
0.0
  0
LINE
  5
91F4
  8
0
 10
3991.4622426144078418
 20
45.4982058595495999
 30
0.0
 11
3991.4523968707790118
 21
45.5021220180281389
 31
0.0
  0
LINE
  5
91F5
  8
0
 10
3991.4523968707790118
 20
45.5021220180281389
 30
0.0
 11
3991.4622426144078418
 21
45.4995902006131487
 31
0.0
  0
LINE
  5
91F6
  8
0
 10
3991.4622426144078418
 20
45.4995902006131487
 30
0.0
 11
3991.4819276538078157
 21
45.4948997947131915
 31
0.0
  0
LINE
  5
91F7
  8
0
 10
3991.4819276538078157
 20
45.4948997947131915
 30
0.0
 11
3991.4917701734248112
 21
45.4927348905462594
 31
0.0
  0
LINE
  5
91F8
  8
0
 10
3991.4639313238390059
 20
45.4972138891552973
 30
0.0
 11
3991.4540888041078688
 21
45.5007820096978293
 31
0.0
  0
LINE
  5
91F9
  8
0
 10
3991.4540888041078688
 20
45.5007820096978293
 30
0.0
 11
3991.4344037647251753
 21
45.5065048809567614
 31
0.0
  0
LINE
  5
91FA
  8
0
 10
3991.4344037647251753
 20
45.5065048809567614
 30
0.0
 11
3991.4245612454537877
 21
45.508730443126332
 31
0.0
  0
LINE
  5
91FB
  8
0
 10
3991.4245612454537877
 20
45.508730443126332
 30
0.0
 11
3991.4271855611709725
 21
45.507564471112957
 31
0.0
  0
LINE
  5
91FC
  8
0
 10
3991.4590810851727838
 20
45.4981370588215981
 30
0.0
 11
3991.4639313238390059
 21
45.4972138891552973
 31
0.0
  0
LINE
  5
91FD
  8
0
 10
3991.4360924741558847
 20
45.5068478552173374
 30
0.0
 11
3991.4262499545070568
 21
45.5100210647616308
 31
0.0
  0
LINE
  5
91FE
  8
0
 10
3991.4262499545070568
 20
45.5100210647616308
 30
0.0
 11
3991.4065649151079924
 21
45.5167883436131788
 31
0.0
  0
LINE
  5
91FF
  8
0
 10
3991.4065649151079924
 20
45.5167883436131788
 30
0.0
 11
3991.3969646531709259
 21
45.5203300783022726
 31
0.0
  0
LINE
  5
9200
  8
0
 10
3991.3969646531709259
 20
45.5203300783022726
 30
0.0
 11
3991.4065649151079924
 21
45.515495420513183
 31
0.0
  0
LINE
  5
9201
  8
0
 10
3991.4065649151079924
 20
45.515495420513183
 30
0.0
 11
3991.4262499545029641
 21
45.5086944063752199
 31
0.0
  0
LINE
  5
9202
  8
0
 10
3991.4262499545029641
 20
45.5086944063752199
 30
0.0
 11
3991.4360924741167764
 21
45.506847855254918
 31
0.0
  0
LINE
  5
9203
  8
0
 10
3991.3688835457860478
 20
45.5303133651027707
 30
0.0
 11
3991.370798428110902
 21
45.5292403312642335
 31
0.0
  0
LINE
  5
9204
  8
0
 10
3991.3688835457860478
 20
45.5303133651027707
 30
0.0
 11
3991.3787260655030877
 21
45.5268309474258288
 31
0.0
  0
LINE
  5
9205
  8
0
 10
3991.3787260655030877
 20
45.5268309474258288
 30
0.0
 11
3991.3984111047848273
 21
45.5189201515466166
 31
0.0
  0
LINE
  5
9206
  8
0
 10
3991.3984111047848273
 20
45.5189201515466166
 30
0.0
 11
3991.4082536242631249
 21
45.5143858216404027
 31
0.0
  0
LINE
  5
9207
  8
0
 10
3991.4082536242631249
 20
45.5143858216404027
 30
0.0
 11
3991.406221281985836
 21
45.5148255327257019
 31
0.0
  0
LINE
  5
9208
  8
0
 10
3991.601436862752962
 20
45.6005033271818974
 30
0.0
 11
3991.6014368628220836
 21
45.5789821600997271
 31
0.0
  0
LINE
  5
9209
  8
0
 10
3991.6211219020078715
 20
45.5789821601629299
 30
0.0
 11
3991.6211219020078715
 21
45.6005033271028495
 31
0.0
  0
LINE
  5
920A
  8
0
 10
3991.621121901980132
 20
45.5665717740395522
 30
0.0
 11
3991.6211219020078715
 21
45.5487758952303992
 31
0.0
  0
LINE
  5
920B
  8
0
 10
3991.6014368627070326
 20
45.5487758952303992
 30
0.0
 11
3991.6014368627079421
 21
45.5665717740406109
 31
0.0
  0
LINE
  5
920C
  8
0
 10
3991.6211219020078715
 20
45.5386116211309826
 30
0.0
 11
3991.6211219021151919
 21
45.5242275811619521
 31
0.0
  0
LINE
  5
920D
  8
0
 10
3991.6014368627070326
 20
45.5242275810148698
 30
0.0
 11
3991.6018965436192047
 21
45.5386041696496093
 31
0.0
  0
LINE
  5
920E
  8
0
 10
3991.5735980129261407
 20
45.6211512006855315
 30
0.0
 11
3991.5735980129429663
 21
45.5975589587681966
 31
0.0
  0
LINE
  5
920F
  8
0
 10
3991.5932830523652228
 20
45.5965755380321767
 30
0.0
 11
3991.5932830523552184
 21
45.6201378275080529
 31
0.0
  0
LINE
  5
9210
  8
0
 10
3991.5654442027439472
 20
45.6023112929469079
 30
0.0
 11
3991.5654442027648656
 21
45.5807445925256474
 31
0.0
  0
LINE
  5
9211
  8
0
 10
3991.5457591634080927
 20
45.5826790628131704
 30
0.0
 11
3991.5457591633921766
 21
45.6042961005758087
 31
0.0
  0
LINE
  5
9212
  8
0
 10
3991.5735980130179996
 20
45.5839201375644478
 30
0.0
 11
3991.5735980130179996
 21
45.5633386759409973
 31
0.0
  0
LINE
  5
9213
  8
0
 10
3991.5932830524238852
 20
45.5633386759409973
 30
0.0
 11
3991.5932830524470774
 21
45.5829524445829719
 31
0.0
  0
LINE
  5
9214
  8
0
 10
3991.5457591633808079
 20
45.5702186088851775
 30
0.0
 11
3991.5457591634090022
 21
45.552358065508237
 31
0.0
  0
LINE
  5
9215
  8
0
 10
3991.5654442027789628
 20
45.5504838192944774
 30
0.0
 11
3991.5654442027080222
 21
45.5683104218954185
 31
0.0
  0
LINE
  5
9216
  8
0
 10
3991.5735980129411473
 20
45.5530101721601426
 30
0.0
 11
3991.5735980130070857
 21
45.5369342180871186
 31
0.0
  0
LINE
  5
9217
  8
0
 10
3991.5932830524079691
 20
45.5360111342503018
 30
0.0
 11
3991.5932830524579913
 21
45.55207364283158
 31
0.0
  0
LINE
  5
9218
  8
0
 10
3991.5735980130762073
 20
45.5278223494275807
 30
0.0
 11
3991.5735980130762073
 21
45.5214362174502085
 31
0.0
  0
LINE
  5
9219
  8
0
 10
3991.5932830523402117
 20
45.526905857136903
 30
0.0
 11
3991.5932830523402117
 21
45.5205235633003866
 31
0.0
  0
LINE
  5
921A
  8
0
 10
3991.5654442026179822
 20
45.5403039810098065
 30
0.0
 11
3991.5654442027321238
 21
45.5259008657463227
 31
0.0
  0
LINE
  5
921B
  8
0
 10
3991.5457591634881283
 20
45.5277368599906609
 30
0.0
 11
3991.5457591634080927
 21
45.5421610378131589
 31
0.0
  0
LINE
  5
921C
  8
0
 10
3991.537605353060826
 20
45.5311865753056182
 30
0.0
 11
3991.5367249016371716
 21
45.524914367247213
 31
0.0
  0
LINE
  5
921D
  8
0
 10
3991.5175999021880671
 20
45.5337874863608505
 30
0.0
 11
3991.5167479910160182
 21
45.5277185949219501
 31
0.0
  0
LINE
  5
921E
  8
0
 10
3991.5376053531090292
 20
45.5564485294131671
 30
0.0
 11
3991.5376053531090292
 21
45.5403228267131581
 31
0.0
  0
LINE
  5
921F
  8
0
 10
3991.5179203137081458
 20
45.5431182349131731
 30
0.0
 11
3991.5179203137081458
 21
45.5592854456553269
 31
0.0
  0
LINE
  5
9220
  8
0
 10
3991.5179203137067816
 20
45.5904071242135132
 30
0.0
 11
3991.5179203137540753
 21
45.5706331770176192
 31
0.0
  0
LINE
  5
9221
  8
0
 10
3991.5376053530758327
 20
45.5874738668160688
 30
0.0
 11
3991.5376053531090292
 21
45.5677634659004482
 31
0.0
  0
LINE
  5
9222
  8
0
 10
3991.5376053531090292
 20
45.601170950013163
 30
0.0
 11
3991.5376053531090292
 21
45.624009154075722
 31
0.0
  0
LINE
  5
9223
  8
0
 10
3991.517920313724062
 20
45.6041529026701795
 30
0.0
 11
3991.517920313724062
 21
45.6227149499953128
 31
0.0
  0
LINE
  5
9224
  8
0
 10
3991.5457591634080927
 20
45.6192763027539314
 30
0.0
 11
3991.5457591634080927
 21
45.624444917872701
 31
0.0
  0
LINE
  5
9225
  8
0
 10
3991.5654442027080222
 20
45.6172531545841267
 30
0.0
 11
3991.5654442027080222
 21
45.6252727033172008
 31
0.0
  0
LINE
  5
9226
  8
0
 10
3991.6014368627070326
 20
45.6154105243131625
 30
0.0
 11
3991.6014368627070326
 21
45.6260282179281731
 31
0.0
  0
LINE
  5
9227
  8
0
 10
3991.4900814641077886
 20
45.6138142692858324
 30
0.0
 11
3991.4900814640268436
 21
45.5919506154071499
 31
0.0
  0
LINE
  5
9228
  8
0
 10
3991.509766503514129
 20
45.609778958163659
 30
0.0
 11
3991.5097665033949852
 21
45.5880209290929628
 31
0.0
  0
LINE
  5
9229
  8
0
 10
3991.4622426144078418
 20
45.6026216004131726
 30
0.0
 11
3991.4622426144310339
 21
45.5825755260835734
 31
0.0
  0
LINE
  5
922A
  8
0
 10
3991.4819276538078157
 20
45.5776940325772131
 30
0.0
 11
3991.4819276538078157
 21
45.597627348264453
 31
0.0
  0
LINE
  5
922B
  8
0
 10
3991.4900814640341196
 20
45.579361558286088
 30
0.0
 11
3991.4900814640541284
 21
45.5613351069233801
 31
0.0
  0
LINE
  5
922C
  8
0
 10
3991.5097665034081729
 20
45.557531448430538
 30
0.0
 11
3991.5097665034509191
 21
45.5754869186531408
 31
0.0
  0
LINE
  5
922D
  8
0
 10
3991.4819276538078157
 20
45.5662641320496817
 30
0.0
 11
3991.4819276538078157
 21
45.549992996013188
 31
0.0
  0
LINE
  5
922E
  8
0
 10
3991.4622426143591838
 20
45.5547430394798383
 30
0.0
 11
3991.4622426143009761
 21
45.5710875560945823
 31
0.0
  0
LINE
  5
922F
  8
0
 10
3991.4540888041078688
 20
45.5883248292131569
 30
0.0
 11
3991.4540888040792197
 21
45.5701302625326008
 31
0.0
  0
LINE
  5
9230
  8
0
 10
3991.4344037646701508
 20
45.5759821786825583
 30
0.0
 11
3991.4344037647078949
 21
45.5942917975909126
 31
0.0
  0
LINE
  5
9231
  8
0
 10
3991.4344037647078949
 20
45.5655581733556829
 30
0.0
 11
3991.4344037647010737
 21
45.5508562833232276
 31
0.0
  0
LINE
  5
9232
  8
0
 10
3991.4540888041428843
 20
45.5451334121063809
 30
0.0
 11
3991.4540888041078688
 21
45.5597643265724486
 31
0.0
  0
LINE
  5
9233
  8
0
 10
3991.4622426144860583
 20
45.5454996604113234
 30
0.0
 11
3991.4622426144860583
 21
45.5390531489176027
 31
0.0
  0
LINE
  5
9234
  8
0
 10
3991.4819276537491533
 20
45.5407855214066686
 30
0.0
 11
3991.4819276537491533
 21
45.534358653781382
 31
0.0
  0
LINE
  5
9235
  8
0
 10
3991.4262499544151979
 20
45.555988207068971
 30
0.0
 11
3991.4262499544151979
 21
45.5495089914220301
 31
0.0
  0
LINE
  5
9236
  8
0
 10
3991.4065659985008097
 20
45.5627896064316218
 30
0.0
 11
3991.4065659985008097
 21
45.5562778599267304
 31
0.0
  0
LINE
  5
9237
  8
0
 10
3991.39841110483394
 20
45.5781328162881181
 30
0.0
 11
3991.3984111048462182
 21
45.5632715537136193
 31
0.0
  0
LINE
  5
9238
  8
0
 10
3991.3787260654939928
 20
45.5711823496933235
 30
0.0
 11
3991.3787260654080455
 21
45.5861492137116571
 31
0.0
  0
LINE
  5
9239
  8
0
 10
3991.3508872158317899
 20
45.586419766548353
 30
0.0
 11
3991.3508872157872247
 21
45.5731119186345666
 31
0.0
  0
LINE
  5
923A
  8
0
 10
3991.3427334055081701
 20
45.5678492893131732
 30
0.0
 11
3991.3427334055081701
 21
45.5793964146131785
 31
0.0
  0
LINE
  5
923B
  8
0
 10
3991.323048366232797
 20
45.5718972043410773
 30
0.0
 11
3991.3230483661309336
 21
45.5638799192142727
 31
0.0
  0
LINE
  5
923C
  8
0
 10
3991.3427334055081701
 20
45.5536450154113624
 30
0.0
 11
3991.3427334055081701
 21
45.5616500784705494
 31
0.0
  0
LINE
  5
923D
  8
0
 10
3991.3230483661827748
 20
45.5599399178882294
 30
0.0
 11
3991.323048366106832
 21
45.5555254717131533
 31
0.0
  0
LINE
  5
923E
  8
0
 10
3991.342733405531817
 20
45.5451947857020869
 30
0.0
 11
3991.3427334054599669
 21
45.5496822307140832
 31
0.0
  0
LINE
  5
923F
  8
0
 10
3991.3705722551731014
 20
45.5867935913628699
 30
0.0
 11
3991.3705722551731014
 21
45.5997692218991304
 31
0.0
  0
LINE
  5
9240
  8
0
 10
3991.3969306643748496
 20
45.5892967668359077
 30
0.0
 11
3991.3969306643748496
 21
45.606251820734947
 31
0.0
  0
LINE
  5
9241
  8
0
 10
3991.3787260653989506
 20
45.5967903868304489
 30
0.0
 11
3991.3787260653989506
 21
45.6019628919062967
 31
0.0
  0
LINE
  5
9242
  8
0
 10
3991.4262499544588536
 20
45.5934475663870273
 30
0.0
 11
3991.4262499544588536
 21
45.6119824172476171
 31
0.0
  0
LINE
  5
9243
  8
0
 10
3991.4065649150861645
 20
45.6005058324396515
 30
0.0
 11
3991.4065649150861645
 21
45.6082910099728309
 31
0.0
  0
LINE
  5
9244
  8
0
 10
3991.4344037646610559
 20
45.607100846326361
 30
0.0
 11
3991.4344037646610559
 21
45.6133266505531623
 31
0.0
  0
LINE
  5
9245
  8
0
 10
3991.4540888041078688
 20
45.6010444180131884
 30
0.0
 11
3991.4540888041078688
 21
45.6161474868228325
 31
0.0
  0
LINE
  5
9246
  8
0
 10
3991.4819276537600672
 20
45.6114953872201312
 30
0.0
 11
3991.4819276537600672
 21
45.6194593927132033
 31
0.0
  0
LINE
  5
9247
  8
0
 10
3991.4900814641077886
 20
45.5510541241131719
 30
0.0
 11
3991.4900814641077886
 21
45.5365271357508021
 31
0.0
  0
LINE
  5
9248
  8
0
 10
3991.5097665034081729
 20
45.5328033377131618
 30
0.0
 11
3991.5097665034081729
 21
45.5472863703384832
 31
0.0
  0
ARC
  5
9249
  8
0
 10
3991.6108622285578349
 20
44.2708847023501875
 30
0.0
 40
1.456276216777989
 50
89.983599046645196
 51
94.6118452309804354
  0
ARC
  5
924A
  8
0
 10
3991.5741676215211555
 20
44.7257793277124591
 30
0.0
 40
0.9999039845277348
 50
94.6118452309804354
 51
102.6905403806549941
  0
ARC
  5
924B
  8
0
 10
3991.4225612545660624
 20
45.3990280939180622
 30
0.0
 40
0.3097964626888201
 50
102.6905403806549941
 51
114.9841311417710017
  0
ARC
  5
924C
  8
0
 10
3991.3318160548119522
 20
45.5937726046026768
 30
0.0
 40
0.0949474093504723
 50
114.9841311417710017
 51
136.388040204261614
  0
ARC
  5
924D
  8
0
 10
3991.2791750377441531
 20
45.6439447173468835
 30
0.0
 40
0.0222265972563359
 50
136.4287141226178051
 51
180.2624731203137003
  0
LINE
  5
924E
  8
0
 10
3991.2569486737079387
 20
45.6438428972130978
 30
0.0
 11
3991.2569486737079387
 21
45.586987524213157
 31
0.0
  0
ARC
  5
924F
  8
0
 10
3991.3141489437221026
 20
45.586987524213157
 30
0.0
 40
0.0572002700141861
 50
180.0
 51
196.8785898129274869
  0
ARC
  5
9250
  8
0
 10
3991.3202945178709342
 20
45.5888521842345398
 30
0.0
 40
0.0636225000478887
 50
196.878589812926009
 51
221.8100080722635994
  0
ARC
  5
9251
  8
0
 10
3991.3775611771288823
 20
45.6400724894140666
 30
0.0
 40
0.140453417817401
 50
221.8100080722635994
 51
235.4125522456598958
  0
ARC
  5
9252
  8
0
 10
3991.3439206930279397
 20
45.5912849681766801
 30
0.0
 40
0.081192094857019
 50
235.4125522456598958
 51
249.1498966682904097
  0
ARC
  5
9253
  8
0
 10
3991.4517460572710661
 20
45.8398672750196994
 30
0.0
 40
0.3520880945457473
 50
247.1498614551192929
 51
257.8267799919113941
  0
ARC
  5
9254
  8
0
 10
3991.6762575975890286
 20
47.9069037775281075
 30
0.0
 40
2.4351629914501451
 50
265.3293134417232864
 51
268.4711449727415129
  0
ARC
  5
9255
  8
0
 10
3991.5634271900439671
 20
46.3468381891666326
 30
0.0
 40
0.8712124611658374
 50
257.6777533369257185
 51
264.370522346405096
  0
ARC
  5
9256
  8
0
 10
3991.6113789436408297
 20
44.2412442082262629
 30
0.0
 40
1.388742041846398
 50
90.0038137686838411
 51
94.5201689389017758
  0
ARC
  5
9257
  8
0
 10
3991.5737041164620678
 20
44.6827312640364624
 30
0.0
 40
0.9456630494470569
 50
94.3527011003414344
 51
100.7714179061378985
  0
ARC
  5
9258
  8
0
 10
3991.4653100161499424
 20
45.2236767071933201
 30
0.0
 40
0.3940276429766695
 50
99.98817185191443
 51
112.2917980942587945
  0
ARC
  5
9259
  8
0
 10
3991.3562449799360365
 20
45.4894792545171498
 30
0.0
 40
0.1067191899003035
 50
112.2441518589087934
 51
130.8882502240186909
  0
ARC
  5
925A
  8
0
 10
3991.3103298700239066
 20
45.5440122158478218
 30
0.0
 40
0.0354512552373187
 50
132.4807892110522971
 51
153.0606302546289896
  0
ARC
  5
925B
  8
0
 10
3991.297446175965888
 20
45.5509344700193211
 30
0.0
 40
0.0208321879964717
 50
153.9797586427746126
 51
175.620572131286707
  0
ARC
  5
925C
  8
0
 10
3991.3065383954108256
 20
45.5512626386100479
 30
0.0
 40
0.0298902610401469
 50
177.5790405562883905
 51
185.2895874553748001
  0
ARC
  5
925D
  8
0
 10
3991.2997374957280954
 20
45.5523053313425095
 30
0.0
 40
0.023274097195206
 50
189.3925154841990945
 51
222.0122631631398065
  0
ARC
  5
925E
  8
0
 10
3991.3749938206719889
 20
46.0028009310226622
 30
0.0
 40
0.4368397400084885
 50
242.8350731787479901
 51
254.3501769121612028
  0
ARC
  5
925F
  8
0
 10
3991.3331849983969732
 20
45.9213271247726524
 30
0.0
 40
0.3452648595837748
 50
231.5166505058527093
 51
242.8350731787479901
  0
ARC
  5
9260
  8
0
 10
3991.2604149141088783
 20
45.8297880000933802
 30
0.0
 40
0.2283251464221232
 50
222.315306490709105
 51
231.5166505058527093
  0
ARC
  5
9261
  8
0
 10
3991.7898668865300351
 20
46.3910848418531572
 30
0.0
 40
0.9994203606592158
 50
198.2219238329427071
 51
225.6778204310112983
  0
LINE
  5
9262
  8
0
 10
3990.8405649892001748
 20
46.0785676982856529
 30
0.0
 11
3990.8322954507630129
 21
46.2961991108427995
 31
0.0
  0
ARC
  5
9263
  8
0
 10
3991.643500376278098
 20
43.0843159621518126
 30
0.0
 40
2.679893542942938
 50
90.6887450137391653
 51
95.5733189239984426
  0
ARC
  5
9264
  8
0
 10
3991.4219841918989005
 20
45.171626831482719
 30
0.0
 40
0.5812075418292356
 50
93.8231864219980878
 51
110.1050268671686041
  0
ARC
  5
9265
  8
0
 10
3991.2727000810391473
 20
45.5701347102986034
 30
0.0
 40
0.1557008261659444
 50
108.9261289687504046
 51
129.4882784111869967
  0
ARC
  5
9266
  8
0
 10
3991.203664772997854
 20
45.6539161514482288
 30
0.0
 40
0.0471411483970503
 50
129.4882784111869967
 51
156.8197473316693049
  0
ARC
  5
9267
  8
0
 10
3991.1831995136121805
 20
45.6626792248720292
 30
0.0
 40
0.0248786620678465
 50
156.8197473316693049
 51
213.9888929760265057
  0
ARC
  5
9268
  8
0
 10
3991.2381073896867747
 20
45.6996995701652935
 30
0.0
 40
0.0911008699799343
 50
213.9888929760265057
 51
221.9678300847473906
  0
ARC
  5
9269
  8
0
 10
3991.3788272319279713
 20
46.0057871696128089
 30
0.0
 40
0.426950826154494
 50
247.0377717010414074
 51
253.4134884655757958
  0
ARC
  5
926A
  8
0
 10
3991.2807545852560906
 20
45.7743183513355589
 30
0.0
 40
0.1755625649728374
 50
235.3722459458732885
 51
247.0377717010414074
  0
ARC
  5
926B
  8
0
 10
3991.2227743028302029
 20
45.6903581878107587
 30
0.0
 40
0.073528148184749
 50
224.5463584327274873
 51
235.3722459458732885
  0
ARC
  5
926C
  8
0
 10
3990.9643769800500195
 20
45.4360205489033291
 30
0.0
 40
0.289041584397697
 50
44.5463584327276578
 51
48.9931508707241505
  0
ARC
  5
926D
  8
0
 10
3991.1896244399358693
 20
45.6950755605960381
 30
0.0
 40
0.0542453469997692
 50
212.6287003244057132
 51
228.9931508706623902
  0
ARC
  5
926E
  8
0
 10
3991.1711684763040466
 20
45.6832594492893591
 30
0.0
 40
0.0323308978847463
 50
179.5823150590622106
 51
212.6287003244057132
  0
ARC
  5
926F
  8
0
 10
3991.1631826426410043
 20
45.6833176668680281
 30
0.0
 40
0.024344852018686
 50
144.3951546416658118
 51
179.5823150590622106
  0
ARC
  5
9270
  8
0
 10
3991.2083951048371091
 20
45.6509429395281217
 30
0.0
 40
0.0799532120744611
 50
114.5967565960484933
 51
144.3951546416658118
  0
ARC
  5
9271
  8
0
 10
3991.5082405268090042
 20
45.9887046750425696
 30
0.0
 40
0.5175600726419285
 50
218.1597360729855097
 51
219.7632381794612968
  0
ARC
  5
9272
  8
0
 10
3991.1203100685761456
 20
45.6858757940943079
 30
0.0
 40
0.0254777312477094
 50
186.6585165029615894
 51
221.7004533298621141
  0
ARC
  5
9273
  8
0
 10
3991.6148771073872012
 20
44.0493872299786986
 30
0.0
 40
1.7333430391864439
 50
90.1186877046049659
 51
97.0074883875798264
  0
ARC
  5
9274
  8
0
 10
3991.6066922384088684
 20
44.1159697814728773
 30
0.0
 40
1.6662592986592819
 50
97.0074636047201011
 51
101.7565556061672964
  0
ARC
  5
9275
  8
0
 10
3991.4768940582880532
 20
44.739640675839297
 30
0.0
 40
1.0292248003450799
 50
101.7565556061672964
 51
106.8414763512549968
  0
ARC
  5
9276
  8
0
 10
3990.7196972911860939
 20
47.2410516751429697
 30
0.0
 40
1.5842793476424739
 50
286.7060264364013733
 51
286.8414763512549825
  0
ARC
  5
9277
  8
0
 10
3991.4548256827702062
 20
44.7916771775661928
 30
0.0
 40
0.9730335353448346
 50
106.7060264364013022
 51
109.2032383743737967
  0
ARC
  5
9278
  8
0
 10
3991.2013931313917965
 20
45.5193039117234974
 30
0.0
 40
0.2025345266764623
 50
109.2032383743737967
 51
118.6662397556854955
  0
ARC
  5
9279
  8
0
 10
3991.1147594565109102
 20
45.6777651465505272
 30
0.0
 40
0.0219373047538143
 50
118.6662397556854955
 51
145.0204501021256078
  0
ARC
  5
927A
  8
0
 10
3991.105320673721053
 20
45.6843692340166072
 30
0.0
 40
0.0104175568488933
 50
145.0204501021256078
 51
187.9876738954440043
  0
ARC
  5
927B
  8
0
 10
3991.6113004038388681
 20
44.3004391852751169
 30
0.0
 40
1.325625412314519
 50
87.2975084851018437
 51
90.0009348786513073
  0
ARC
  5
927C
  8
0
 10
3991.6201623765450677
 20
44.488183358401507
 30
0.0
 40
1.1376722024372541
 50
82.1616293431917057
 51
87.2975084851018437
  0
ARC
  5
927D
  8
0
 10
3991.6875458079371128
 20
44.9776562991039413
 30
0.0
 40
0.6435828517061103
 50
76.3192999852678184
 51
82.1616293431917057
  0
ARC
  5
927E
  8
0
 10
3991.7569316609228736
 20
45.2627057628427991
 30
0.0
 40
0.3502100626264428
 50
68.6892994326924793
 51
76.3192999852678184
  0
ARC
  5
927F
  8
0
 10
3991.8365825056462199
 20
45.4668869339016766
 30
0.0
 40
0.1310429855366077
 50
55.2269049905066893
 51
68.6892994326924793
  0
ARC
  5
9280
  8
0
 10
3991.8865602618348021
 20
45.538867602633573
 30
0.0
 40
0.04341312313396
 50
30.67710631708972
 51
55.2269049905066893
  0
ARC
  5
9281
  8
0
 10
3991.9086981340237799
 20
45.5520001479444403
 30
0.0
 40
0.0176730933851642
 50
329.2045839324088092
 51
30.67710631708972
  0
ARC
  5
9282
  8
0
 10
3991.2408365585429237
 20
65.1061173538796396
 30
0.0
 40
19.6318958716854191
 50
271.0812240654034895
 51
271.186388375839897
  0
ARC
  5
9283
  8
0
 10
3991.6134431733098609
 20
46.7342130304842129
 30
0.0
 40
1.256239740500112
 50
271.544957872969519
 51
275.0154872880482912
  0
ARC
  5
9284
  8
0
 10
3991.6472950100887829
 20
46.3436191755299518
 30
0.0
 40
0.864184434355835
 50
274.9332094905032022
 51
283.2105783858868904
  0
ARC
  5
9285
  8
0
 10
3991.7899795903781524
 20
45.735785171735877
 30
0.0
 40
0.2398279131114953
 50
283.2105783858868904
 51
298.9511070679045019
  0
ARC
  5
9286
  8
0
 10
3991.8826669756081174
 20
45.5682356707090221
 30
0.0
 40
0.0483500118400317
 50
298.9511070679045019
 51
328.4709789921890888
  0
ARC
  5
9287
  8
0
 10
3991.8713521633608252
 20
45.6140456949840782
 30
0.0
 40
0.066805352764098
 50
308.1838392121774746
 51
315.7820927953118257
  0
ARC
  5
9288
  8
0
 10
3991.8561709305959084
 20
45.6333488015059601
 30
0.0
 40
0.0913630348548323
 50
294.9891112644976943
 51
308.1838392121774746
  0
ARC
  5
9289
  8
0
 10
3991.6088286838689783
 20
46.0738606256689209
 30
0.0
 40
0.5963445040201196
 50
291.3926033567817058
 51
298.6517667281091235
  0
ARC
  5
928A
  8
0
 10
3991.6087720618038475
 20
46.0802160120484103
 30
0.0
 40
0.602286936711522
 50
283.5887590570939096
 51
291.1770899341959762
  0
ARC
  5
928B
  8
0
 10
3991.6684882137187742
 20
45.7860935602716168
 30
0.0
 40
0.3025696338377783
 50
277.9082708459624769
 51
285.6835838891198023
  0
ARC
  5
928C
  8
0
 10
3991.6205246106528648
 20
46.0051981888007973
 30
0.0
 40
0.5264760235573755
 50
273.096115118470891
 51
279.798033147659396
  0
ARC
  5
928D
  8
0
 10
3991.8773651105088902
 20
40.8983290941375728
 30
0.0
 40
4.58685185778904
 50
92.8542569437968552
 51
93.2406223732526769
  0
ARC
  5
928E
  8
0
 10
3991.5880248595722151
 20
46.3318767701442624
 30
0.0
 40
0.8481732865137088
 50
271.5715671173601891
 51
276.7940986081350729
  0
ARC
  5
928F
  8
0
 10
3991.6114974769898254
 20
46.0881826592071633
 30
0.0
 40
0.6034388815881144
 50
277.3183788885876879
 51
285.0520626096501928
  0
ARC
  5
9290
  8
0
 10
3991.6124805257531989
 20
46.0845271609927991
 30
0.0
 40
0.5996535081499658
 50
285.0520626096501928
 51
292.7026176108598747
  0
ARC
  5
9291
  8
0
 10
3991.6138932639742052
 20
46.0811503349125218
 30
0.0
 40
0.5959930732501777
 50
292.7026176108598747
 51
295.1910167961825096
  0
LINE
  5
9292
  8
0
 10
3991.8675702190121228
 20
45.5418398994071225
 30
0.0
 11
3991.8680756345988812
 21
45.5430031539903908
 31
0.0
  0
LINE
  5
9293
  8
0
 10
3991.8675702190121228
 20
45.5418398994071225
 30
0.0
 11
3991.8510785198859594
 21
45.5517062513131705
 31
0.0
  0
LINE
  5
9294
  8
0
 10
3991.8510785198859594
 20
45.5517062513131705
 30
0.0
 11
3991.8510785198859594
 21
45.5399692299131829
 31
0.0
  0
LINE
  5
9295
  8
0
 10
3991.8510785198859594
 20
45.5399692299131829
 30
0.0
 11
3991.8169006640860061
 21
45.5399692299131829
 31
0.0
  0
LINE
  5
9296
  8
0
 10
3991.8169006640860061
 20
45.5399692299131829
 30
0.0
 11
3991.8169006640860061
 21
45.5448623390852134
 31
0.0
  0
LINE
  5
9297
  8
0
 10
3991.86807563454704
 20
45.5430031539680584
 30
0.0
 11
3991.8716709613158855
 21
45.5447113412312277
 31
0.0
  0
LINE
  5
9298
  8
0
 10
3991.8716709613158855
 20
45.5447113412312277
 30
0.0
 11
3991.8815134809779011
 21
45.5523981214881104
 31
0.0
  0
LINE
  5
9299
  8
0
 10
3991.8815134809779011
 20
45.5523981214881104
 30
0.0
 11
3991.8716727399860247
 21
45.5509856192131579
 31
0.0
  0
LINE
  5
929A
  8
0
 10
3991.8716727399860247
 20
45.5509856192131579
 30
0.0
 11
3991.8696532433409629
 21
45.5500257542072191
 31
0.0
  0
LINE
  5
929B
  8
0
 10
3991.8696532433409629
 20
45.5500257542072191
 30
0.0
 11
3991.8537783991860124
 21
45.5596350217131629
 31
0.0
  0
LINE
  5
929C
  8
0
 10
3991.8696532407861923
 20
45.550025721613153
 30
0.0
 11
3991.8698430028857729
 21
45.5524468213131826
 31
0.0
  0
LINE
  5
929D
  8
0
 10
3991.8698430028857729
 20
45.5524468213131826
 30
0.0
 11
3991.869653212178946
 21
45.5551006261846183
 31
0.0
  0
LINE
  5
929E
  8
0
 10
3991.869653212178946
 20
45.5551006261846183
 30
0.0
 11
3991.8587052876218877
 21
45.5618280282246886
 31
0.0
  0
LINE
  5
929F
  8
0
 10
3991.8696532403860147
 20
45.5551006085131718
 30
0.0
 11
3991.8716720694860669
 21
45.5560606541072275
 31
0.0
  0
LINE
  5
92A0
  8
0
 10
3991.8716720694860669
 20
45.5560606541072275
 30
0.0
 11
3991.881513481075217
 21
45.5654902934042312
 31
0.0
  0
LINE
  5
92A1
  8
0
 10
3991.881513481075217
 20
45.5654902934042312
 30
0.0
 11
3991.8716719706858385
 21
45.5658207983131689
 31
0.0
  0
LINE
  5
92A2
  8
0
 10
3991.8716719706858385
 20
45.5658207983131689
 30
0.0
 11
3991.8682154943348905
 21
45.5641785359631584
 31
0.0
  0
LINE
  5
92A3
  8
0
 10
3991.8682154943348905
 20
45.5641785359631584
 30
0.0
 11
3991.8675693854179372
 21
45.5659090925201014
 31
0.0
  0
ARC
  5
92A4
  8
0
 10
3991.6135486443181435
 20
46.1059767988199809
 30
0.0
 40
0.5968246512143286
 50
294.2531069183629029
 51
295.189938425014418
  0
ARC
  5
92A5
  8
0
 10
3991.6136101698411949
 20
46.1058376077829166
 30
0.0
 40
0.596672472476718
 50
292.0714121526561939
 51
294.2532106257124269
  0
ARC
  5
92A6
  8
0
 10
3991.6122297957499541
 20
46.1093272454923877
 30
0.0
 40
0.6004250692697949
 50
283.7901052213160256
 51
292.0683530162294232
  0
ARC
  5
92A7
  8
0
 10
3991.5925139573269007
 20
46.2850447041172188
 30
0.0
 40
0.7771792875367352
 50
271.384098099758603
 51
277.8743591704964047
  0
ARC
  5
92A8
  8
0
 10
3991.6114061845910328
 20
46.1130115818606114
 30
0.0
 40
0.6041995320994265
 50
278.3347282836280101
 51
283.7826754806266081
  0
LINE
  5
92A9
  8
0
 10
3991.8699618437399295
 20
45.5525939323654612
 30
0.0
 11
3991.8798196963912233
 21
45.5616598398854435
 31
0.0
  0
LINE
  5
92AA
  8
0
 10
3991.8798196963912233
 20
45.5616598398854435
 30
0.0
 11
3991.8995098108612183
 21
45.5718972043410773
 31
0.0
  0
LINE
  5
92AB
  8
0
 10
3991.8995098108612183
 20
45.5718972043410773
 30
0.0
 11
3991.9093523305418785
 21
45.5730852837590774
 31
0.0
  0
LINE
  5
92AC
  8
0
 10
3991.9093523305418785
 20
45.5730852837590774
 30
0.0
 11
3991.8995098109621722
 21
45.5638799192142727
 31
0.0
  0
LINE
  5
92AD
  8
0
 10
3991.8995098109621722
 20
45.5638799192142727
 30
0.0
 11
3991.8798247715858452
 21
45.5536450154113624
 31
0.0
  0
LINE
  5
92AE
  8
0
 10
3991.8798247715858452
 20
45.5536450154113624
 30
0.0
 11
3991.8699618437399295
 21
45.5525939323654612
 31
0.0
  0
LINE
  5
92AF
  8
0
 10
3991.8699822520297857
 20
45.5423658804003608
 30
0.0
 11
3991.8798247716331389
 21
45.5496822307140832
 31
0.0
  0
LINE
  5
92B0
  8
0
 10
3991.8798247716331389
 20
45.5496822307140832
 30
0.0
 11
3991.8995098109098763
 21
45.5599399178882294
 31
0.0
  0
LINE
  5
92B1
  8
0
 10
3991.8995098109098763
 20
45.5599399178882294
 30
0.0
 11
3991.9093523305141389
 21
45.5629571018790926
 31
0.0
  0
LINE
  5
92B2
  8
0
 10
3991.9093523305141389
 20
45.5629571018790926
 30
0.0
 11
3991.8995098109858191
 21
45.5555254717131533
 31
0.0
  0
LINE
  5
92B3
  8
0
 10
3991.8995098109858191
 20
45.5555254717131533
 30
0.0
 11
3991.8798247715621983
 21
45.5451947857020869
 31
0.0
  0
LINE
  5
92B4
  8
0
 10
3991.8798247715621983
 20
45.5451947857020869
 30
0.0
 11
3991.8699822519261033
 21
45.5423658803747813
 31
0.0
  0
LINE
  5
92B5
  8
0
 10
3991.8815134810179188
 20
45.5450849758350671
 30
0.0
 11
3991.8716709613299827
 21
45.5418526881459087
 31
0.0
  0
LINE
  5
92B6
  8
0
 10
3991.8716709613299827
 20
45.5418526881459087
 30
0.0
 11
3991.8599644005262235
 21
45.536374447296609
 31
0.0
  0
LINE
  5
92B7
  8
0
 10
3991.8599644005262235
 20
45.536374447296609
 30
0.0
 11
3991.8550555755559799
 21
45.5325631792046366
 31
0.0
  0
LINE
  5
92B8
  8
0
 10
3991.8550555755559799
 20
45.5325631792046366
 30
0.0
 11
3991.8423857114357816
 21
45.5270551841131592
 31
0.0
  0
LINE
  5
92B9
  8
0
 10
3991.8423857114357816
 20
45.5270551841131592
 30
0.0
 11
3991.8519859218858983
 21
45.5299969004653491
 31
0.0
  0
LINE
  5
92BA
  8
0
 10
3991.8519859218858983
 20
45.5299969004653491
 30
0.0
 11
3991.8716709612849627
 21
45.5391259657058498
 31
0.0
  0
LINE
  5
92BB
  8
0
 10
3991.8716709612849627
 20
45.5391259657058498
 30
0.0
 11
3991.8815134810179188
 21
45.5450849758350671
 31
0.0
  0
LINE
  5
92BC
  8
0
 10
3991.9017691488948003
 20
45.5805661562790618
 30
0.0
 11
3991.8995098109858191
 21
45.5781069764808393
 31
0.0
  0
LINE
  5
92BD
  8
0
 10
3991.8995098109858191
 20
45.5781069764808393
 30
0.0
 11
3991.8798247715858452
 21
45.5678492893131732
 31
0.0
  0
LINE
  5
92BE
  8
0
 10
3991.8798247715858452
 20
45.5678492893131732
 30
0.0
 11
3991.8699822518419751
 21
45.5685502241341709
 31
0.0
  0
LINE
  5
92BF
  8
0
 10
3991.8699822518419751
 20
45.5685502241341709
 30
0.0
 11
3991.8798247715858452
 21
45.5793964146131785
 31
0.0
  0
LINE
  5
92C0
  8
0
 10
3991.8798247715858452
 20
45.5793964146131785
 30
0.0
 11
3991.8919948810112146
 21
45.585637650592993
 31
0.0
  0
LINE
  5
92C1
  8
0
 10
3991.8815134810279233
 20
45.5843614915362494
 30
0.0
 11
3991.8716709612608611
 21
45.586419766548353
 31
0.0
  0
LINE
  5
92C2
  8
0
 10
3991.8716709612608611
 20
45.586419766548353
 30
0.0
 11
3991.8519859218858983
 21
45.5772907012422621
 31
0.0
  0
LINE
  5
92C3
  8
0
 10
3991.8519859218858983
 20
45.5772907012422621
 30
0.0
 11
3991.8421434022188805
 21
45.5661947823296174
 31
0.0
  0
LINE
  5
92C4
  8
0
 10
3991.8421434022188805
 20
45.5661947823296174
 30
0.0
 11
3991.855055575410006
 21
45.5714449458131767
 31
0.0
  0
LINE
  5
92C5
  8
0
 10
3991.855055575410006
 20
45.5714449458131767
 30
0.0
 11
3991.8599644004862057
 21
45.5676336777131681
 31
0.0
  0
LINE
  5
92C6
  8
0
 10
3991.8599644004862057
 20
45.5676336777131681
 30
0.0
 11
3991.8716709613067906
 21
45.5731119186345666
 31
0.0
  0
LINE
  5
92C7
  8
0
 10
3991.8716709613067906
 20
45.5731119186345666
 30
0.0
 11
3991.8815134810179188
 21
45.5843614915248594
 31
0.0
  0
LINE
  5
92C8
  8
0
 10
3991.8687558994051869
 20
45.5945828901843626
 30
0.0
 11
3991.8519859219200043
 21
45.5867935913628699
 31
0.0
  0
LINE
  5
92C9
  8
0
 10
3991.8519859219200043
 20
45.5867935913628699
 30
0.0
 11
3991.8421434022379799
 21
45.5906300000255911
 31
0.0
  0
LINE
  5
92CA
  8
0
 10
3991.8421434022379799
 20
45.5906300000255911
 30
0.0
 11
3991.8496233988339554
 21
45.6004265494221173
 31
0.0
  0
LINE
  5
92CB
  8
0
 10
3991.8470677475879711
 20
45.6011176034237309
 30
0.0
 11
3991.8438321116941552
 21
45.5967903868304489
 31
0.0
  0
LINE
  5
92CC
  8
0
 10
3991.8438321116941552
 20
45.5967903868304489
 30
0.0
 11
3991.8241470722678059
 21
45.5886873681788884
 31
0.0
  0
LINE
  5
92CD
  8
0
 10
3991.8241470722678059
 20
45.5886873681788884
 30
0.0
 11
3991.8143045525839625
 21
45.5938994439974721
 31
0.0
  0
LINE
  5
92CE
  8
0
 10
3991.8143045525839625
 20
45.5938994439974721
 30
0.0
 11
3991.8237082096861741
 21
45.6066703588514102
 31
0.0
  0
LINE
  5
92CF
  8
0
 10
3991.8209111886490064
 20
45.6072693248886907
 30
0.0
 11
3991.8159932620078507
 21
45.6005058324396515
 31
0.0
  0
LINE
  5
92D0
  8
0
 10
3991.8159932620078507
 20
45.6005058324396515
 30
0.0
 11
3991.7963082226337974
 21
45.5934475663870273
 31
0.0
  0
LINE
  5
92D1
  8
0
 10
3991.7963082226337974
 20
45.5934475663870273
 30
0.0
 11
3991.7864657029040245
 21
45.6000284764539074
 31
0.0
  0
LINE
  5
92D2
  8
0
 10
3991.7864657029040245
 20
45.6000284764539074
 30
0.0
 11
3991.7952119746419157
 21
45.6121694065786372
 31
0.0
  0
LINE
  5
92D3
  8
0
 10
3991.7920861787238209
 20
45.6127154294341111
 30
0.0
 11
3991.7881544124320499
 21
45.607100846326361
 31
0.0
  0
LINE
  5
92D4
  8
0
 10
3991.7881544124320499
 20
45.607100846326361
 30
0.0
 11
3991.7684693729847822
 21
45.6010444180131884
 31
0.0
  0
LINE
  5
92D5
  8
0
 10
3991.7684693729847822
 20
45.6010444180131884
 30
0.0
 11
3991.7586268533377734
 21
45.6090101087701285
 31
0.0
  0
LINE
  5
92D6
  8
0
 10
3991.7586268533377734
 20
45.6090101087701285
 30
0.0
 11
3991.7640680259819419
 21
45.6167174537033233
 31
0.0
  0
LINE
  5
92D7
  8
0
 10
3991.7607074773591194
 20
45.6171408929597391
 30
0.0
 11
3991.7603155626861735
 21
45.6165762621131776
 31
0.0
  0
LINE
  5
92D8
  8
0
 10
3991.7603155626861735
 20
45.6165762621131776
 30
0.0
 11
3991.7406305233339481
 21
45.6114953872201312
 31
0.0
  0
LINE
  5
92D9
  8
0
 10
3991.7406305233339481
 20
45.6114953872201312
 30
0.0
 11
3991.7312592659241091
 21
45.6204181049839832
 31
0.0
  0
LINE
  5
92DA
  8
0
 10
3991.7324767129862266
 20
45.6138142692858324
 30
0.0
 11
3991.742319232716909
 21
45.6048384284852517
 31
0.0
  0
LINE
  5
92DB
  8
0
 10
3991.742319232716909
 20
45.6048384284852517
 30
0.0
 11
3991.7324767130671717
 21
45.5919506154071499
 31
0.0
  0
LINE
  5
92DC
  8
0
 10
3991.7324767130671717
 20
45.5919506154071499
 30
0.0
 11
3991.7127916736981206
 21
45.5880209290929628
 31
0.0
  0
LINE
  5
92DD
  8
0
 10
3991.7127916736981206
 20
45.5880209290929628
 30
0.0
 11
3991.7029491539228729
 21
45.596875356820739
 31
0.0
  0
LINE
  5
92DE
  8
0
 10
3991.7029491539228729
 20
45.596875356820739
 30
0.0
 11
3991.7127916735798863
 21
45.609778958163659
 31
0.0
  0
LINE
  5
92DF
  8
0
 10
3991.7127916735798863
 20
45.609778958163659
 30
0.0
 11
3991.7324767129862266
 21
45.6138142692858324
 31
0.0
  0
LINE
  5
92E0
  8
0
 10
3991.7098565212199901
 20
45.6223143034910024
 30
0.0
 11
3991.7144803830628916
 21
45.6175105306863671
 31
0.0
  0
LINE
  5
92E1
  8
0
 10
3991.7144803830628916
 20
45.6175105306863671
 30
0.0
 11
3991.7046378633690438
 21
45.6041529026701795
 31
0.0
  0
LINE
  5
92E2
  8
0
 10
3991.7046378633690438
 20
45.6041529026701795
 30
0.0
 11
3991.6849528239858955
 21
45.601170950013163
 31
0.0
  0
LINE
  5
92E3
  8
0
 10
3991.6849528239858955
 20
45.601170950013163
 30
0.0
 11
3991.6751103042879549
 21
45.6114558047827714
 31
0.0
  0
LINE
  5
92E4
  8
0
 10
3991.6751103042879549
 20
45.6114558047827714
 30
0.0
 11
3991.68435395241886
 21
45.6240431568737321
 31
0.0
  0
LINE
  5
92E5
  8
0
 10
3991.6804041885488914
 20
45.6242594844973794
 30
0.0
 11
3991.6767990136859225
 21
45.6192763027539314
 31
0.0
  0
LINE
  5
92E6
  8
0
 10
3991.6767990136859225
 20
45.6192763027539314
 30
0.0
 11
3991.6571139743859931
 21
45.6172531545841267
 31
0.0
  0
LINE
  5
92E7
  8
0
 10
3991.6571139743859931
 20
45.6172531545841267
 30
0.0
 11
3991.6501676311818301
 21
45.6254946831365231
 31
0.0
  0
LINE
  5
92E8
  8
0
 10
3991.7144803831179161
 20
45.5819441986666121
 30
0.0
 11
3991.7046378633867789
 21
45.5904071242135132
 31
0.0
  0
LINE
  5
92E9
  8
0
 10
3991.7046378633867789
 20
45.5904071242135132
 30
0.0
 11
3991.6849528240190921
 21
45.5874738668160688
 31
0.0
  0
LINE
  5
92EA
  8
0
 10
3991.6849528240190921
 20
45.5874738668160688
 30
0.0
 11
3991.6751103043388866
 21
45.5761422102068394
 31
0.0
  0
LINE
  5
92EB
  8
0
 10
3991.6751103043388866
 20
45.5761422102068394
 30
0.0
 11
3991.6849528239858955
 21
45.5677634659004482
 31
0.0
  0
LINE
  5
92EC
  8
0
 10
3991.6849528239858955
 20
45.5677634659004482
 30
0.0
 11
3991.7046378633390304
 21
45.5706331770176192
 31
0.0
  0
LINE
  5
92ED
  8
0
 10
3991.7046378633390304
 20
45.5706331770176192
 30
0.0
 11
3991.7144803831201898
 21
45.5819441986654823
 31
0.0
  0
LINE
  5
92EE
  8
0
 10
3991.770158082279977
 20
45.5950499554995616
 30
0.0
 11
3991.7603155626861735
 21
45.6026216004131726
 31
0.0
  0
LINE
  5
92EF
  8
0
 10
3991.7603155626861735
 20
45.6026216004131726
 30
0.0
 11
3991.7406305232848354
 21
45.597627348264453
 31
0.0
  0
LINE
  5
92F0
  8
0
 10
3991.7406305232848354
 20
45.597627348264453
 30
0.0
 11
3991.7307880036360075
 21
45.5851758126287692
 31
0.0
  0
LINE
  5
92F1
  8
0
 10
3991.7307880036360075
 20
45.5851758126287692
 30
0.0
 11
3991.7406305232848354
 21
45.5776940325772131
 31
0.0
  0
LINE
  5
92F2
  8
0
 10
3991.7406305232848354
 20
45.5776940325772131
 30
0.0
 11
3991.7603155626620719
 21
45.5825755260835734
 31
0.0
  0
LINE
  5
92F3
  8
0
 10
3991.7603155626620719
 20
45.5825755260835734
 30
0.0
 11
3991.7701580823199947
 21
45.5950499554700031
 31
0.0
  0
LINE
  5
92F4
  8
0
 10
3991.7979969320422242
 20
45.5880911453108766
 30
0.0
 11
3991.7881544123861204
 21
45.5942917975909126
 31
0.0
  0
LINE
  5
92F5
  8
0
 10
3991.7881544123861204
 20
45.5942917975909126
 30
0.0
 11
3991.7684693729847822
 21
45.5883248292131569
 31
0.0
  0
LINE
  5
92F6
  8
0
 10
3991.7684693729847822
 20
45.5883248292131569
 30
0.0
 11
3991.758626853315036
 21
45.5762733808562999
 31
0.0
  0
LINE
  5
92F7
  8
0
 10
3991.758626853315036
 20
45.5762733808562999
 30
0.0
 11
3991.7684693730147956
 21
45.5701302625326008
 31
0.0
  0
LINE
  5
92F8
  8
0
 10
3991.7684693730147956
 20
45.5701302625326008
 30
0.0
 11
3991.7881544124229549
 21
45.5759821786825583
 31
0.0
  0
LINE
  5
92F9
  8
0
 10
3991.7881544124229549
 20
45.5759821786825583
 30
0.0
 11
3991.7979969320422242
 21
45.5880911453108766
 31
0.0
  0
LINE
  5
92FA
  8
0
 10
3991.8159932619860228
 20
45.5887952018929994
 30
0.0
 11
3991.7963082225860489
 21
45.5818263952131488
 31
0.0
  0
LINE
  5
92FB
  8
0
 10
3991.7963082225860489
 20
45.5818263952131488
 30
0.0
 11
3991.7864657029299451
 21
45.5701308371052178
 31
0.0
  0
LINE
  5
92FC
  8
0
 10
3991.7864657029299451
 20
45.5701308371052178
 30
0.0
 11
3991.7963082225860489
 21
45.5653137620505007
 31
0.0
  0
LINE
  5
92FD
  8
0
 10
3991.7963082225860489
 20
45.5653137620505007
 30
0.0
 11
3991.8159932619860228
 21
45.5721698222131835
 31
0.0
  0
LINE
  5
92FE
  8
0
 10
3991.8159932619860228
 20
45.5721698222131835
 30
0.0
 11
3991.8159932619860228
 21
45.5835559496135403
 31
0.0
  0
LINE
  5
92FF
  8
0
 10
3991.8159932619860228
 20
45.5835559496135403
 30
0.0
 11
3991.8159932572971229
 21
45.5887952002332568
 31
0.0
  0
LINE
  5
9300
  8
0
 10
3991.8159932572971229
 20
45.5887952002332568
 30
0.0
 11
3991.8258357816089301
 21
45.58395522571724
 31
0.0
  0
LINE
  5
9301
  8
0
 10
3991.8258357816089301
 20
45.58395522571724
 30
0.0
 11
3991.8159932620601467
 21
45.572169822239097
 31
0.0
  0
LINE
  5
9302
  8
0
 10
3991.7963082225860489
 20
45.5653137620505007
 30
0.0
 11
3991.7963082268411199
 21
45.5818263967193928
 31
0.0
  0
LINE
  5
9303
  8
0
 10
3991.8536746313588992
 20
45.5826820525369527
 30
0.0
 11
3991.8438321116859697
 21
45.5861492137116571
 31
0.0
  0
LINE
  5
9304
  8
0
 10
3991.8438321116859697
 20
45.5861492137116571
 30
0.0
 11
3991.8241470722600752
 21
45.5781328162881181
 31
0.0
  0
LINE
  5
9305
  8
0
 10
3991.8241470722600752
 20
45.5781328162881181
 30
0.0
 11
3991.8143045526257993
 21
45.5667545090106287
 31
0.0
  0
LINE
  5
9306
  8
0
 10
3991.8143045526257993
 20
45.5667545090106287
 30
0.0
 11
3991.824147072247797
 21
45.5632715537136193
 31
0.0
  0
LINE
  5
9307
  8
0
 10
3991.824147072247797
 20
45.5632715537136193
 30
0.0
 11
3991.8438321116000225
 21
45.5711823496933235
 31
0.0
  0
LINE
  5
9308
  8
0
 10
3991.8438321116000225
 20
45.5711823496933235
 30
0.0
 11
3991.8536746313588992
 21
45.5826820525369527
 31
0.0
  0
LINE
  5
9309
  8
0
 10
3991.8258363893792193
 20
45.5596630619984424
 30
0.0
 11
3991.8159921785932056
 21
45.5627896064316218
 31
0.0
  0
LINE
  5
930A
  8
0
 10
3991.8159921785932056
 20
45.5627896064316218
 30
0.0
 11
3991.7963082226779079
 21
45.555988207068971
 31
0.0
  0
LINE
  5
930B
  8
0
 10
3991.7963082226779079
 20
45.555988207068971
 30
0.0
 11
3991.7864657029022055
 21
45.5461243708504497
 31
0.0
  0
LINE
  5
930C
  8
0
 10
3991.7864657029022055
 20
45.5461243708504497
 30
0.0
 11
3991.8258363893792193
 21
45.5596630619984424
 31
0.0
  0
LINE
  5
930D
  8
0
 10
3991.7979969320322198
 20
45.5610991306779312
 30
0.0
 11
3991.7881544123861204
 21
45.5655581733556829
 31
0.0
  0
LINE
  5
930E
  8
0
 10
3991.7881544123861204
 20
45.5655581733556829
 30
0.0
 11
3991.7684693729847822
 21
45.5597643265724486
 31
0.0
  0
LINE
  5
930F
  8
0
 10
3991.7684693729847822
 20
45.5597643265724486
 30
0.0
 11
3991.7586268532381837
 21
45.5495825766723925
 31
0.0
  0
LINE
  5
9310
  8
0
 10
3991.7586268532381837
 20
45.5495825766723925
 30
0.0
 11
3991.7684693729502214
 21
45.5451334121063809
 31
0.0
  0
LINE
  5
9311
  8
0
 10
3991.7684693729502214
 20
45.5451334121063809
 30
0.0
 11
3991.7881544123929416
 21
45.5508562833232276
 31
0.0
  0
LINE
  5
9312
  8
0
 10
3991.7881544123929416
 20
45.5508562833232276
 30
0.0
 11
3991.7979969320322198
 21
45.5610991306779312
 31
0.0
  0
LINE
  5
9313
  8
0
 10
3991.7701613144859039
 20
45.5414011673131682
 30
0.0
 11
3991.760315562607957
 21
45.5454996604113234
 31
0.0
  0
LINE
  5
9314
  8
0
 10
3991.760315562607957
 20
45.5454996604113234
 30
0.0
 11
3991.740630523344862
 21
45.5407855214066686
 31
0.0
  0
LINE
  5
9315
  8
0
 10
3991.740630523344862
 20
45.5407855214066686
 30
0.0
 11
3991.7307880036128154
 21
45.5320114061889072
 31
0.0
  0
LINE
  5
9316
  8
0
 10
3991.7307880036128154
 20
45.5320114061889072
 30
0.0
 11
3991.7701613144859039
 21
45.5414011673131682
 31
0.0
  0
LINE
  5
9317
  8
0
 10
3991.7701580824409575
 20
45.5653083818379088
 30
0.0
 11
3991.7603155627921296
 21
45.5710875560945823
 31
0.0
  0
LINE
  5
9318
  8
0
 10
3991.7603155627921296
 20
45.5710875560945823
 30
0.0
 11
3991.7406305232848354
 21
45.5662641320496817
 31
0.0
  0
LINE
  5
9319
  8
0
 10
3991.7406305232848354
 20
45.5662641320496817
 30
0.0
 11
3991.7307880036391907
 21
45.5557354768580893
 31
0.0
  0
LINE
  5
931A
  8
0
 10
3991.7307880036391907
 20
45.5557354768580467
 30
0.0
 11
3991.7406305232848354
 21
45.549992996013188
 31
0.0
  0
LINE
  5
931B
  8
0
 10
3991.7406305232848354
 20
45.549992996013188
 30
0.0
 11
3991.7603155627348315
 21
45.5547430394798383
 31
0.0
  0
LINE
  5
931C
  8
0
 10
3991.7603155627348315
 20
45.5547430394798383
 30
0.0
 11
3991.7701580823681979
 21
45.5653083817643534
 31
0.0
  0
LINE
  5
931D
  8
0
 10
3991.7423192327009929
 20
45.5722546806328879
 30
0.0
 11
3991.7324767130589862
 21
45.579361558286088
 31
0.0
  0
LINE
  5
931E
  8
0
 10
3991.7324767130589862
 20
45.579361558286088
 30
0.0
 11
3991.7127916736421867
 21
45.5754869186531408
 31
0.0
  0
LINE
  5
931F
  8
0
 10
3991.7127916736421867
 20
45.5754869186531408
 30
0.0
 11
3991.7038766380442212
 21
45.5655732747438407
 31
0.0
  0
LINE
  5
9320
  8
0
 10
3991.7038766380442212
 20
45.5655732747438407
 30
0.0
 11
3991.7127916736849329
 21
45.557531448430538
 31
0.0
  0
LINE
  5
9321
  8
0
 10
3991.7127916736849329
 20
45.557531448430538
 30
0.0
 11
3991.7324767130389773
 21
45.5613351069233801
 31
0.0
  0
LINE
  5
9322
  8
0
 10
3991.7324767130389773
 20
45.5613351069233801
 30
0.0
 11
3991.7423192326991739
 21
45.572254680629193
 31
0.0
  0
LINE
  5
9323
  8
0
 10
3991.7423192326759818
 20
45.5456633884245505
 30
0.0
 11
3991.7324767129862266
 21
45.5510541241131719
 31
0.0
  0
LINE
  5
9324
  8
0
 10
3991.7324767129862266
 20
45.5510541241131719
 30
0.0
 11
3991.7127916736849329
 21
45.5472863703384832
 31
0.0
  0
LINE
  5
9325
  8
0
 10
3991.7127916736849329
 20
45.5472863703384832
 30
0.0
 11
3991.7029491539651644
 21
45.5381720944228121
 31
0.0
  0
LINE
  5
9326
  8
0
 10
3991.7029491539651644
 20
45.5381720944228121
 30
0.0
 11
3991.7127916736849329
 21
45.5328033377131618
 31
0.0
  0
LINE
  5
9327
  8
0
 10
3991.7127916736849329
 20
45.5328033377131618
 30
0.0
 11
3991.7324767129862266
 21
45.5365271357508021
 31
0.0
  0
LINE
  5
9328
  8
0
 10
3991.7324767129862266
 20
45.5365271357508021
 30
0.0
 11
3991.7423192326727985
 21
45.545663388426199
 31
0.0
  0
LINE
  5
9329
  8
0
 10
3991.7144803830360615
 20
45.5526001335144386
 30
0.0
 11
3991.7046378633867789
 21
45.5592854456553269
 31
0.0
  0
LINE
  5
932A
  8
0
 10
3991.7046378633867789
 20
45.5592854456553269
 30
0.0
 11
3991.6849528239858955
 21
45.5564485294131671
 31
0.0
  0
LINE
  5
932B
  8
0
 10
3991.6849528239858955
 20
45.5564485294131671
 30
0.0
 11
3991.6751103043420699
 21
45.5469682129348499
 31
0.0
  0
LINE
  5
932C
  8
0
 10
3991.6751103043420699
 20
45.5469682129348499
 30
0.0
 11
3991.6849528239858955
 21
45.5403228267131581
 31
0.0
  0
LINE
  5
932D
  8
0
 10
3991.6849528239858955
 20
45.5403228267131581
 30
0.0
 11
3991.7046378633867789
 21
45.5431182349131731
 31
0.0
  0
LINE
  5
932E
  8
0
 10
3991.7046378633867789
 20
45.5431182349131731
 30
0.0
 11
3991.7144803830360615
 21
45.5526001335144386
 31
0.0
  0
LINE
  5
932F
  8
0
 10
3991.7144803831010904
 20
45.5289356603081288
 30
0.0
 11
3991.7049582749059482
 21
45.5337874863608505
 31
0.0
  0
LINE
  5
9330
  8
0
 10
3991.7049582749059482
 20
45.5337874863608505
 30
0.0
 11
3991.684952824031825
 21
45.5311865753056182
 31
0.0
  0
LINE
  5
9331
  8
0
 10
3991.684952824031825
 20
45.5311865753056182
 30
0.0
 11
3991.6751103043479816
 21
45.5234091468999367
 31
0.0
  0
LINE
  5
9332
  8
0
 10
3991.6751103043479816
 20
45.5234091468999367
 30
0.0
 11
3991.7144803831010904
 21
45.5289356603081288
 31
0.0
  0
LINE
  5
9333
  8
0
 10
3991.6866415334220619
 20
45.5358652888545592
 30
0.0
 11
3991.6767990136859225
 21
45.5421610378131589
 31
0.0
  0
LINE
  5
9334
  8
0
 10
3991.6767990136859225
 20
45.5421610378131589
 30
0.0
 11
3991.657113974476033
 21
45.5403039810098065
 31
0.0
  0
LINE
  5
9335
  8
0
 10
3991.657113974476033
 20
45.5403039810098065
 30
0.0
 11
3991.6472714547039686
 21
45.5321724029930479
 31
0.0
  0
LINE
  5
9336
  8
0
 10
3991.6472714547039686
 20
45.5321724029930479
 30
0.0
 11
3991.6571139743618915
 21
45.5259008657463227
 31
0.0
  0
LINE
  5
9337
  8
0
 10
3991.6571139743618915
 20
45.5259008657463227
 30
0.0
 11
3991.6767990136049775
 21
45.5277368599906609
 31
0.0
  0
LINE
  5
9338
  8
0
 10
3991.6767990136049775
 20
45.5277368599906609
 30
0.0
 11
3991.6866415334220619
 21
45.5358652888545592
 31
0.0
  0
LINE
  5
9339
  8
0
 10
3991.6588026838130645
 20
45.52189254453274
 30
0.0
 11
3991.6489601640168985
 21
45.5278223494275807
 31
0.0
  0
LINE
  5
933A
  8
0
 10
3991.6489601640168985
 20
45.5278223494275807
 30
0.0
 11
3991.6292751247538035
 21
45.526905857136903
 31
0.0
  0
LINE
  5
933B
  8
0
 10
3991.6292751247538035
 20
45.526905857136903
 30
0.0
 11
3991.6194326049771917
 21
45.5200672362187575
 31
0.0
  0
LINE
  5
933C
  8
0
 10
3991.6194326049771917
 20
45.5200672362187575
 30
0.0
 11
3991.6588026838130645
 21
45.5218925445327187
 31
0.0
  0
LINE
  5
933D
  8
0
 10
3991.658802683678914
 20
45.5454230543502021
 30
0.0
 11
3991.6489601641537774
 21
45.5530101721601426
 31
0.0
  0
LINE
  5
933E
  8
0
 10
3991.6489601641537774
 20
45.5530101721601426
 30
0.0
 11
3991.6292751246369335
 21
45.55207364283158
 31
0.0
  0
LINE
  5
933F
  8
0
 10
3991.6292751246369335
 20
45.55207364283158
 30
0.0
 11
3991.6194326050399468
 21
45.5435635849900535
 31
0.0
  0
LINE
  5
9340
  8
0
 10
3991.6194326050399468
 20
45.5435635849900535
 30
0.0
 11
3991.6292751246860462
 21
45.5360111342503018
 31
0.0
  0
LINE
  5
9341
  8
0
 10
3991.6292751246860462
 20
45.5360111342503018
 30
0.0
 11
3991.6489601640860201
 21
45.5369342180871186
 31
0.0
  0
LINE
  5
9342
  8
0
 10
3991.6489601640860201
 20
45.5369342180871186
 30
0.0
 11
3991.6588026838289807
 21
45.5454230543421232
 31
0.0
  0
LINE
  5
9343
  8
0
 10
3991.6866415333938676
 20
45.5622141312941977
 30
0.0
 11
3991.6767990137118431
 21
45.5702186088851775
 31
0.0
  0
LINE
  5
9344
  8
0
 10
3991.6767990137118431
 20
45.5702186088851775
 30
0.0
 11
3991.6571139743859931
 21
45.5683104218954185
 31
0.0
  0
LINE
  5
9345
  8
0
 10
3991.6571139743859931
 20
45.5683104218954185
 30
0.0
 11
3991.6472714546171119
 21
45.5584321379741795
 31
0.0
  0
LINE
  5
9346
  8
0
 10
3991.6472714546171119
 20
45.5584321379741795
 30
0.0
 11
3991.657113974314143
 21
45.5504838192944774
 31
0.0
  0
LINE
  5
9347
  8
0
 10
3991.657113974314143
 20
45.5504838192944774
 30
0.0
 11
3991.6767990136850131
 21
45.552358065508237
 31
0.0
  0
LINE
  5
9348
  8
0
 10
3991.6767990136850131
 20
45.552358065508237
 30
0.0
 11
3991.6866415333938676
 21
45.5622141312941977
 31
0.0
  0
LINE
  5
9349
  8
0
 10
3991.6588026837589496
 20
45.5745510218811418
 30
0.0
 11
3991.6489601640760156
 21
45.5839201375644478
 31
0.0
  0
LINE
  5
934A
  8
0
 10
3991.6489601640760156
 20
45.5839201375644478
 30
0.0
 11
3991.6292751246469379
 21
45.5829524445829719
 31
0.0
  0
LINE
  5
934B
  8
0
 10
3991.6292751246469379
 20
45.5829524445829719
 30
0.0
 11
3991.6194326050308518
 21
45.5726365127739399
 31
0.0
  0
LINE
  5
934C
  8
0
 10
3991.6194326050308518
 20
45.5726365127739399
 30
0.0
 11
3991.6292751246692205
 21
45.5633386759409973
 31
0.0
  0
LINE
  5
934D
  8
0
 10
3991.6292751246692205
 20
45.5633386759409973
 30
0.0
 11
3991.6489601640860201
 21
45.5633386759409973
 31
0.0
  0
LINE
  5
934E
  8
0
 10
3991.6489601640860201
 20
45.5633386759409973
 30
0.0
 11
3991.6588026837589496
 21
45.5745510218811418
 31
0.0
  0
LINE
  5
934F
  8
0
 10
3991.6866415333879559
 20
45.5944260645569912
 30
0.0
 11
3991.6767990137032029
 21
45.6042961005758087
 31
0.0
  0
LINE
  5
9350
  8
0
 10
3991.6767990137032029
 20
45.6042961005758087
 30
0.0
 11
3991.657113974350068
 21
45.6023112929469079
 31
0.0
  0
LINE
  5
9351
  8
0
 10
3991.657113974350068
 20
45.6023112929469079
 30
0.0
 11
3991.6472714546671341
 21
45.5905077362348408
 31
0.0
  0
LINE
  5
9352
  8
0
 10
3991.6472714546671341
 20
45.5905077362348408
 30
0.0
 11
3991.6571139743291496
 21
45.5807445925256474
 31
0.0
  0
LINE
  5
9353
  8
0
 10
3991.6571139743291496
 20
45.5807445925256474
 30
0.0
 11
3991.6767990136859225
 21
45.5826790628131704
 31
0.0
  0
LINE
  5
9354
  8
0
 10
3991.6767990136859225
 20
45.5826790628131704
 30
0.0
 11
3991.6866415333879559
 21
45.5944260645569912
 31
0.0
  0
LINE
  5
9355
  8
0
 10
3991.6588026837980578
 20
45.6097963148923924
 30
0.0
 11
3991.6489601641678746
 21
45.6211512006855315
 31
0.0
  0
LINE
  5
9356
  8
0
 10
3991.6489601641678746
 20
45.6211512006855315
 30
0.0
 11
3991.6292751247387969
 21
45.6201378275080529
 31
0.0
  0
LINE
  5
9357
  8
0
 10
3991.6292751247387969
 20
45.6201378275080529
 30
0.0
 11
3991.6194326050190284
 21
45.6078001921884919
 31
0.0
  0
LINE
  5
9358
  8
0
 10
3991.6194326050190284
 20
45.6078001921884919
 30
0.0
 11
3991.6292751247278829
 21
45.5965755380321767
 31
0.0
  0
LINE
  5
9359
  8
0
 10
3991.6292751247278829
 20
45.5965755380321767
 30
0.0
 11
3991.6489601641501395
 21
45.5975589587681966
 31
0.0
  0
LINE
  5
935A
  8
0
 10
3991.6489601641501395
 20
45.5975589587681966
 30
0.0
 11
3991.6588026837807774
 21
45.6097963148895715
 31
0.0
  0
LINE
  5
935B
  8
0
 10
3991.6211213143860732
 20
45.4797954088131604
 30
0.0
 11
3991.630963833495116
 21
45.4790419195939393
 31
0.0
  0
LINE
  5
935C
  8
0
 10
3991.630963833495116
 20
45.4790419195939393
 30
0.0
 11
3991.62112131438289
 21
45.478225648539599
 31
0.0
  0
LINE
  5
935D
  8
0
 10
3991.62112131438289
 20
45.478225648539599
 30
0.0
 11
3991.6112790885467803
 21
45.4781441300141083
 31
0.0
  0
LINE
  5
935E
  8
0
 10
3991.6194326049421761
 20
45.4807907206052136
 30
0.0
 11
3991.6292751247387969
 21
45.4796120562671007
 31
0.0
  0
LINE
  5
935F
  8
0
 10
3991.6292751247387969
 20
45.4796120562671007
 30
0.0
 11
3991.6489601640419096
 21
45.4805285486289534
 31
0.0
  0
LINE
  5
9360
  8
0
 10
3991.6489601640419096
 20
45.4805285486289534
 30
0.0
 11
3991.6588025640458
 21
45.4826159981006768
 31
0.0
  0
LINE
  5
9361
  8
0
 10
3991.6588025640458
 20
45.4826159981006768
 30
0.0
 11
3991.6489612606078481
 21
45.4819983221771977
 31
0.0
  0
LINE
  5
9362
  8
0
 10
3991.6489612606078481
 20
45.4819983221771977
 30
0.0
 11
3991.6292751246860462
 21
45.4810861541526634
 31
0.0
  0
LINE
  5
9363
  8
0
 10
3991.6292751246860462
 20
45.4810861541526634
 30
0.0
 11
3991.6194326049421761
 21
45.4807907206052136
 31
0.0
  0
LINE
  5
9364
  8
0
 10
3991.6472714546162024
 20
45.4798037154981571
 30
0.0
 11
3991.6571139743859931
 21
45.4799951596374186
 31
0.0
  0
LINE
  5
9365
  8
0
 10
3991.6472714546948737
 20
45.4798037155094974
 30
0.0
 11
3991.6571139743477943
 21
45.481549463422752
 31
0.0
  0
LINE
  5
9366
  8
0
 10
3991.6571139743477943
 20
45.481549463422752
 30
0.0
 11
3991.6767990137382185
 21
45.4833854577048626
 31
0.0
  0
LINE
  5
9367
  8
0
 10
3991.6767990137382185
 20
45.4833854577048626
 30
0.0
 11
3991.6866415334638987
 21
45.4834966013795992
 31
0.0
  0
LINE
  5
9368
  8
0
 10
3991.6866415334638987
 20
45.4834966013795992
 30
0.0
 11
3991.6769536411088666
 21
45.4817550038201901
 31
0.0
  0
LINE
  5
9369
  8
0
 10
3991.6751103043511648
 20
45.484132631331029
 30
0.0
 11
3991.6849528239799838
 21
45.4838927745430368
 31
0.0
  0
LINE
  5
936A
  8
0
 10
3991.6849528239799838
 20
45.4838927745430368
 30
0.0
 11
3991.704637863327207
 21
45.4866678465553278
 31
0.0
  0
LINE
  5
936B
  8
0
 10
3991.704637863327207
 20
45.4866678465553278
 30
0.0
 11
3991.7144803830269666
 21
45.4896591447125971
 31
0.0
  0
LINE
  5
936C
  8
0
 10
3991.7144803830269666
 20
45.4896591447125971
 30
0.0
 11
3991.7046378633867789
 21
45.4881076282818597
 31
0.0
  0
LINE
  5
936D
  8
0
 10
3991.7046378633867789
 20
45.4881076282818597
 30
0.0
 11
3991.6849528239858955
 21
45.48534610938718
 31
0.0
  0
LINE
  5
936E
  8
0
 10
3991.6849528239858955
 20
45.48534610938718
 30
0.0
 11
3991.6751103042852264
 21
45.4841326313131518
 31
0.0
  0
LINE
  5
936F
  8
0
 10
3991.7029491539738046
 20
45.4858034069862498
 30
0.0
 11
3991.7127916732920312
 21
45.4884519353448198
 31
0.0
  0
LINE
  5
9370
  8
0
 10
3991.7127916732920312
 20
45.4884519353448198
 30
0.0
 11
3991.7324767129862266
 21
45.4921757334611101
 31
0.0
  0
LINE
  5
9371
  8
0
 10
3991.7324767129862266
 20
45.4921757334611101
 30
0.0
 11
3991.7423192324868069
 21
45.4932947009477999
 31
0.0
  0
LINE
  5
9372
  8
0
 10
3991.7423192324868069
 20
45.4932947009477999
 30
0.0
 11
3991.7324767129862266
 21
45.4906681514892313
 31
0.0
  0
LINE
  5
9373
  8
0
 10
3991.7324767129862266
 20
45.4906681514892313
 30
0.0
 11
3991.7127916736499174
 21
45.4869003976534572
 31
0.0
  0
LINE
  5
9374
  8
0
 10
3991.7127916736499174
 20
45.4869003976534572
 30
0.0
 11
3991.7029491539969968
 21
45.4858034069364834
 31
0.0
  0
LINE
  5
9375
  8
0
 10
3991.7307880036678398
 20
45.4927348905462594
 30
0.0
 11
3991.7406305233389503
 21
45.4934917207776124
 31
0.0
  0
LINE
  5
9376
  8
0
 10
3991.7406305233389503
 20
45.4934917207776124
 30
0.0
 11
3991.7603155626861735
 21
45.4982058595495999
 31
0.0
  0
LINE
  5
9377
  8
0
 10
3991.7603155626861735
 20
45.4982058595495999
 30
0.0
 11
3991.770161306315913
 21
45.5021220180281389
 31
0.0
  0
LINE
  5
9378
  8
0
 10
3991.770161306315913
 20
45.5021220180281389
 30
0.0
 11
3991.7603155626861735
 21
45.4995902006131487
 31
0.0
  0
LINE
  5
9379
  8
0
 10
3991.7603155626861735
 20
45.4995902006131487
 30
0.0
 11
3991.7406305232848354
 21
45.4948997947131915
 31
0.0
  0
LINE
  5
937A
  8
0
 10
3991.7406305232848354
 20
45.4948997947131915
 30
0.0
 11
3991.7307880036678398
 21
45.4927348905462594
 31
0.0
  0
LINE
  5
937B
  8
0
 10
3991.7586268532540998
 20
45.4972138891552973
 30
0.0
 11
3991.7684693729847822
 21
45.5007820096978293
 31
0.0
  0
LINE
  5
937C
  8
0
 10
3991.7684693729847822
 20
45.5007820096978293
 30
0.0
 11
3991.7881544123702042
 21
45.5065048809567614
 31
0.0
  0
LINE
  5
937D
  8
0
 10
3991.7881544123702042
 20
45.5065048809567614
 30
0.0
 11
3991.7979969316388633
 21
45.508730443126332
 31
0.0
  0
LINE
  5
937E
  8
0
 10
3991.7979969316388633
 20
45.508730443126332
 30
0.0
 11
3991.7953726159221333
 21
45.507564471112957
 31
0.0
  0
LINE
  5
937F
  8
0
 10
3991.763477091922141
 20
45.4981370588215981
 30
0.0
 11
3991.7586268532540998
 21
45.4972138891552973
 31
0.0
  0
LINE
  5
9380
  8
0
 10
3991.7864657029372211
 20
45.5068478552173374
 30
0.0
 11
3991.7963082225860489
 21
45.5100210647616308
 31
0.0
  0
LINE
  5
9381
  8
0
 10
3991.7963082225860489
 20
45.5100210647616308
 30
0.0
 11
3991.8159932619860228
 21
45.5167883436131788
 31
0.0
  0
LINE
  5
9382
  8
0
 10
3991.8159932619860228
 20
45.5167883436131788
 30
0.0
 11
3991.8255935239221799
 21
45.5203300783022726
 31
0.0
  0
LINE
  5
9383
  8
0
 10
3991.8255935239221799
 20
45.5203300783022726
 30
0.0
 11
3991.8159932619860228
 21
45.515495420513183
 31
0.0
  0
LINE
  5
9384
  8
0
 10
3991.8159932619860228
 20
45.515495420513183
 30
0.0
 11
3991.7963082225919607
 21
45.5086944063752199
 31
0.0
  0
LINE
  5
9385
  8
0
 10
3991.7963082225919607
 20
45.5086944063752199
 30
0.0
 11
3991.7864657029758746
 21
45.506847855254918
 31
0.0
  0
LINE
  5
9386
  8
0
 10
3991.8536746313079675
 20
45.5303133651027707
 30
0.0
 11
3991.8517597489822037
 21
45.5292403312642335
 31
0.0
  0
LINE
  5
9387
  8
0
 10
3991.8536746313079675
 20
45.5303133651027707
 30
0.0
 11
3991.8438321115909275
 21
45.5268309474258288
 31
0.0
  0
LINE
  5
9388
  8
0
 10
3991.8438321115909275
 20
45.5268309474258288
 30
0.0
 11
3991.8241470723091879
 21
45.5189201515466166
 31
0.0
  0
LINE
  5
9389
  8
0
 10
3991.8241470723091879
 20
45.5189201515466166
 30
0.0
 11
3991.8143045528308903
 21
45.5143858216404027
 31
0.0
  0
LINE
  5
938A
  8
0
 10
3991.8143045528308903
 20
45.5143858216404027
 30
0.0
 11
3991.8163368951068151
 21
45.5148255327257019
 31
0.0
  0
LINE
  5
938B
  8
0
 10
3991.6489601641678746
 20
45.6211512006855315
 30
0.0
 11
3991.6489601641501395
 21
45.5975589587681966
 31
0.0
  0
LINE
  5
938C
  8
0
 10
3991.6292751247278829
 20
45.5965755380321767
 30
0.0
 11
3991.6292751247387969
 21
45.6201378275080529
 31
0.0
  0
LINE
  5
938D
  8
0
 10
3991.657113974350068
 20
45.6023112929469079
 30
0.0
 11
3991.6571139743291496
 21
45.5807445925256474
 31
0.0
  0
LINE
  5
938E
  8
0
 10
3991.6767990136859225
 20
45.5826790628131704
 30
0.0
 11
3991.6767990137032029
 21
45.6042961005758087
 31
0.0
  0
LINE
  5
938F
  8
0
 10
3991.6489601640760156
 20
45.5839201375644478
 30
0.0
 11
3991.6489601640760156
 21
45.5633386759409973
 31
0.0
  0
LINE
  5
9390
  8
0
 10
3991.6292751246692205
 20
45.5633386759409973
 30
0.0
 11
3991.6292751246469379
 21
45.5829524445829719
 31
0.0
  0
LINE
  5
9391
  8
0
 10
3991.6767990137118431
 20
45.5702186088851775
 30
0.0
 11
3991.6767990136850131
 21
45.552358065508237
 31
0.0
  0
LINE
  5
9392
  8
0
 10
3991.657113974314143
 20
45.5504838192944774
 30
0.0
 11
3991.6571139743859931
 21
45.5683104218954185
 31
0.0
  0
LINE
  5
9393
  8
0
 10
3991.6489601641537774
 20
45.5530101721601426
 30
0.0
 11
3991.6489601640860201
 21
45.5369342180871186
 31
0.0
  0
LINE
  5
9394
  8
0
 10
3991.6292751246860462
 20
45.5360111342503018
 30
0.0
 11
3991.6292751246369335
 21
45.55207364283158
 31
0.0
  0
LINE
  5
9395
  8
0
 10
3991.6489601640168985
 20
45.5278223494275807
 30
0.0
 11
3991.6489601640168985
 21
45.5214362174502085
 31
0.0
  0
LINE
  5
9396
  8
0
 10
3991.6292751247538035
 20
45.526905857136903
 30
0.0
 11
3991.6292751247538035
 21
45.5205235633003866
 31
0.0
  0
LINE
  5
9397
  8
0
 10
3991.657113974476033
 20
45.5403039810098065
 30
0.0
 11
3991.6571139743618915
 21
45.5259008657463227
 31
0.0
  0
LINE
  5
9398
  8
0
 10
3991.6767990136049775
 20
45.5277368599906609
 30
0.0
 11
3991.6767990136859225
 21
45.5421610378131589
 31
0.0
  0
LINE
  5
9399
  8
0
 10
3991.684952824031825
 20
45.5311865753056182
 30
0.0
 11
3991.6858332754568437
 21
45.524914367247213
 31
0.0
  0
LINE
  5
939A
  8
0
 10
3991.7049582749059482
 20
45.5337874863608505
 30
0.0
 11
3991.7058101860779971
 21
45.5277185949219501
 31
0.0
  0
LINE
  5
939B
  8
0
 10
3991.6849528239858955
 20
45.5564485294131671
 30
0.0
 11
3991.6849528239858955
 21
45.5403228267131581
 31
0.0
  0
LINE
  5
939C
  8
0
 10
3991.7046378633867789
 20
45.5431182349131731
 30
0.0
 11
3991.7046378633867789
 21
45.5592854456553269
 31
0.0
  0
LINE
  5
939D
  8
0
 10
3991.7046378633867789
 20
45.5904071242135132
 30
0.0
 11
3991.7046378633390304
 21
45.5706331770176192
 31
0.0
  0
LINE
  5
939E
  8
0
 10
3991.6849528240190921
 20
45.5874738668160688
 30
0.0
 11
3991.6849528239858955
 21
45.5677634659004482
 31
0.0
  0
LINE
  5
939F
  8
0
 10
3991.6849528239858955
 20
45.601170950013163
 30
0.0
 11
3991.6849528239858955
 21
45.624009154075722
 31
0.0
  0
LINE
  5
93A0
  8
0
 10
3991.7046378633690438
 20
45.6041529026701795
 30
0.0
 11
3991.7046378633690438
 21
45.6227149499953128
 31
0.0
  0
LINE
  5
93A1
  8
0
 10
3991.6767990136859225
 20
45.6192763027539314
 30
0.0
 11
3991.6767990136859225
 21
45.624444917872701
 31
0.0
  0
LINE
  5
93A2
  8
0
 10
3991.6571139743859931
 20
45.6172531545841267
 30
0.0
 11
3991.6571139743859931
 21
45.6252727033172008
 31
0.0
  0
LINE
  5
93A3
  8
0
 10
3991.7324767129862266
 20
45.6138142692858324
 30
0.0
 11
3991.7324767130671717
 21
45.5919506154071499
 31
0.0
  0
LINE
  5
93A4
  8
0
 10
3991.7127916735798863
 20
45.609778958163659
 30
0.0
 11
3991.7127916736981206
 21
45.5880209290929628
 31
0.0
  0
LINE
  5
93A5
  8
0
 10
3991.7603155626861735
 20
45.6026216004131726
 30
0.0
 11
3991.7603155626620719
 21
45.5825755260835734
 31
0.0
  0
LINE
  5
93A6
  8
0
 10
3991.7406305232848354
 20
45.5776940325772131
 30
0.0
 11
3991.7406305232848354
 21
45.597627348264453
 31
0.0
  0
LINE
  5
93A7
  8
0
 10
3991.7324767130589862
 20
45.579361558286088
 30
0.0
 11
3991.7324767130389773
 21
45.5613351069233801
 31
0.0
  0
LINE
  5
93A8
  8
0
 10
3991.7127916736849329
 20
45.557531448430538
 30
0.0
 11
3991.7127916736421867
 21
45.5754869186531408
 31
0.0
  0
LINE
  5
93A9
  8
0
 10
3991.7406305232848354
 20
45.5662641320496817
 30
0.0
 11
3991.7406305232848354
 21
45.549992996013188
 31
0.0
  0
LINE
  5
93AA
  8
0
 10
3991.7603155627348315
 20
45.5547430394798383
 30
0.0
 11
3991.7603155627921296
 21
45.5710875560945823
 31
0.0
  0
LINE
  5
93AB
  8
0
 10
3991.7684693729847822
 20
45.5883248292131569
 30
0.0
 11
3991.7684693730147956
 21
45.5701302625326008
 31
0.0
  0
LINE
  5
93AC
  8
0
 10
3991.7881544124229549
 20
45.5759821786825583
 30
0.0
 11
3991.7881544123861204
 21
45.5942917975909126
 31
0.0
  0
LINE
  5
93AD
  8
0
 10
3991.7881544123861204
 20
45.5655581733556829
 30
0.0
 11
3991.7881544123929416
 21
45.5508562833232276
 31
0.0
  0
LINE
  5
93AE
  8
0
 10
3991.7684693729502214
 20
45.5451334121063809
 30
0.0
 11
3991.7684693729847822
 21
45.5597643265724486
 31
0.0
  0
LINE
  5
93AF
  8
0
 10
3991.760315562607957
 20
45.5454996604113234
 30
0.0
 11
3991.760315562607957
 21
45.5390531489176027
 31
0.0
  0
LINE
  5
93B0
  8
0
 10
3991.740630523344862
 20
45.5407855214066686
 30
0.0
 11
3991.740630523344862
 21
45.534358653781382
 31
0.0
  0
LINE
  5
93B1
  8
0
 10
3991.7963082226779079
 20
45.555988207068971
 30
0.0
 11
3991.7963082226779079
 21
45.5495089914220301
 31
0.0
  0
LINE
  5
93B2
  8
0
 10
3991.8159921785932056
 20
45.5627896064316218
 30
0.0
 11
3991.8159921785932056
 21
45.5562778599267304
 31
0.0
  0
LINE
  5
93B3
  8
0
 10
3991.8241470722600752
 20
45.5781328162881181
 30
0.0
 11
3991.824147072247797
 21
45.5632715537136193
 31
0.0
  0
LINE
  5
93B4
  8
0
 10
3991.8438321116000225
 20
45.5711823496933235
 30
0.0
 11
3991.8438321116859697
 21
45.5861492137116571
 31
0.0
  0
LINE
  5
93B5
  8
0
 10
3991.8716709612608611
 20
45.586419766548353
 30
0.0
 11
3991.8716709613067906
 21
45.5731119186345666
 31
0.0
  0
LINE
  5
93B6
  8
0
 10
3991.8798247715858452
 20
45.5678492893131732
 30
0.0
 11
3991.8798247715858452
 21
45.5793964146131785
 31
0.0
  0
LINE
  5
93B7
  8
0
 10
3991.8995098108612183
 20
45.5718972043410773
 30
0.0
 11
3991.8995098109621722
 21
45.5638799192142727
 31
0.0
  0
LINE
  5
93B8
  8
0
 10
3991.8798247715858452
 20
45.5536450154113624
 30
0.0
 11
3991.8798247715858452
 21
45.5616500784705494
 31
0.0
  0
LINE
  5
93B9
  8
0
 10
3991.8995098109098763
 20
45.5599399178882294
 30
0.0
 11
3991.8995098109858191
 21
45.5555254717131533
 31
0.0
  0
LINE
  5
93BA
  8
0
 10
3991.8798247715621983
 20
45.5451947857020869
 30
0.0
 11
3991.8798247716331389
 21
45.5496822307140832
 31
0.0
  0
LINE
  5
93BB
  8
0
 10
3991.8519859219200043
 20
45.5867935913628699
 30
0.0
 11
3991.8519859219200043
 21
45.5997692218991304
 31
0.0
  0
LINE
  5
93BC
  8
0
 10
3991.8256275127191657
 20
45.5892967668359077
 30
0.0
 11
3991.8256275127191657
 21
45.606251820734947
 31
0.0
  0
LINE
  5
93BD
  8
0
 10
3991.8438321116941552
 20
45.5967903868304489
 30
0.0
 11
3991.8438321116941552
 21
45.6019628919062967
 31
0.0
  0
LINE
  5
93BE
  8
0
 10
3991.7963082226337974
 20
45.5934475663870273
 30
0.0
 11
3991.7963082226337974
 21
45.6119824172476171
 31
0.0
  0
LINE
  5
93BF
  8
0
 10
3991.8159932620078507
 20
45.6005058324396515
 30
0.0
 11
3991.8159932620078507
 21
45.6082910099728309
 31
0.0
  0
LINE
  5
93C0
  8
0
 10
3991.7881544124320499
 20
45.607100846326361
 30
0.0
 11
3991.7881544124320499
 21
45.6133266505531623
 31
0.0
  0
LINE
  5
93C1
  8
0
 10
3991.7684693729847822
 20
45.6010444180131884
 30
0.0
 11
3991.7684693729847822
 21
45.6161474868228325
 31
0.0
  0
LINE
  5
93C2
  8
0
 10
3991.7406305233339481
 20
45.6114953872201312
 30
0.0
 11
3991.7406305233339481
 21
45.6194593927132033
 31
0.0
  0
LINE
  5
93C3
  8
0
 10
3991.7324767129862266
 20
45.5510541241131719
 30
0.0
 11
3991.7324767129862266
 21
45.5365271357508021
 31
0.0
  0
LINE
  5
93C4
  8
0
 10
3991.7127916736849329
 20
45.5328033377131618
 30
0.0
 11
3991.7127916736849329
 21
45.5472863703384832
 31
0.0
  0
ARC
  5
93C5
  8
0
 10
3991.6116959485348161
 20
44.2708847023501875
 30
0.0
 40
1.456276216777989
 50
85.3881547690195646
 51
90.016400953354804
  0
ARC
  5
93C6
  8
0
 10
3991.6483905555710407
 20
44.7257793277124591
 30
0.0
 40
0.9999039845277348
 50
77.3094596193449348
 51
85.3881547690195646
  0
ARC
  5
93C7
  8
0
 10
3991.7999969225270434
 20
45.3990280939180622
 30
0.0
 40
0.3097964626888201
 50
65.0158688582289557
 51
77.3094596193449348
  0
ARC
  5
93C8
  8
0
 10
3991.8907421222820631
 20
45.5937726046026768
 30
0.0
 40
0.0949474093504723
 50
43.6119597957383789
 51
65.0158688582289557
  0
ARC
  5
93C9
  8
0
 10
3991.9433831393498622
 20
45.6439447173468835
 30
0.0
 40
0.0222265972563359
 50
359.737526879686186
 51
43.5712858773822092
  0
LINE
  5
93CA
  8
0
 10
3991.965609503386986
 20
45.6438428972130978
 30
0.0
 11
3991.965609503386986
 21
45.586987524213157
 31
0.0
  0
ARC
  5
93CB
  8
0
 10
3991.9084092333710032
 20
45.586987524213157
 30
0.0
 40
0.0572002700141861
 50
343.1214101870723994
 51
0.0
  0
ARC
  5
93CC
  8
0
 10
3991.9022636592239905
 20
45.5888521842345398
 30
0.0
 40
0.0636225000478887
 50
318.1899919277361732
 51
343.121410187073991
  0
ARC
  5
93CD
  8
0
 10
3991.844996999965133
 20
45.6400724894140666
 30
0.0
 40
0.140453417817401
 50
304.5874477543400758
 51
318.1899919277361732
  0
ARC
  5
93CE
  8
0
 10
3991.8786374840660756
 20
45.5912849681766801
 30
0.0
 40
0.081192094857019
 50
290.8501033317095903
 51
304.5874477543400758
  0
ARC
  5
93CF
  8
0
 10
3991.7708121198229492
 20
45.8398672750196994
 30
0.0
 40
0.3520880945457473
 50
282.1732200080886059
 51
292.8501385448806786
  0
ARC
  5
93D0
  8
0
 10
3991.5289238584268787
 20
48.2276103133104215
 30
0.0
 40
2.7562335142088599
 50
271.7123856202873071
 51
274.4878444454446935
  0
ARC
  5
93D1
  8
0
 10
3991.6591309870509576
 20
46.3468381891666326
 30
0.0
 40
0.8712124611658374
 50
275.629477653594904
 51
282.3222466630209055
  0
ARC
  5
93D2
  8
0
 10
3991.8475643564229358
 20
46.0028009310226622
 30
0.0
 40
0.4368397400084885
 50
285.6498230878386835
 51
297.1649268212519246
  0
ARC
  5
93D3
  8
0
 10
3991.8893731786961325
 20
45.9213271247726524
 30
0.0
 40
0.3452648595837748
 50
297.1649268212519246
 51
308.4833494941473191
  0
ARC
  5
93D4
  8
0
 10
3991.9621432629837727
 20
45.8297880000933802
 30
0.0
 40
0.2283251464221232
 50
308.4833494941473191
 51
317.6846935092243029
  0
ARC
  5
93D5
  8
0
 10
3990.7043168424302166
 20
46.9749363769350694
 30
0.0
 40
1.9293519272891
 50
317.6846935092243029
 51
332.085838868593612
  0
LINE
  5
93D6
  8
0
 10
3992.4091885771431407
 20
46.0717136870549169
 30
0.0
 11
3992.415898684793774
 21
46.2961991108427995
 31
0.0
  0
ARC
  5
93D7
  8
0
 10
3991.5346102706298552
 20
42.2988714488554223
 30
0.0
 40
3.465992671266354
 50
84.961791876050313
 51
88.7323738219624403
  0
ARC
  5
93D8
  8
0
 10
3991.8017986992190345
 20
45.1758910731181089
 30
0.0
 40
0.5767822462609989
 50
69.8636110368797745
 51
86.3025773874936561
  0
ARC
  5
93D9
  8
0
 10
3991.9498580960557774
 20
45.5701347102986034
 30
0.0
 40
0.1557008261659444
 50
50.5117215888129465
 51
71.0738710312495385
  0
ARC
  5
93DA
  8
0
 10
3992.018893404094797
 20
45.6539161514482288
 30
0.0
 40
0.0471411483970503
 50
23.1802526683300094
 51
50.5117215888129465
  0
ARC
  5
93DB
  8
0
 10
3992.0393586634809253
 20
45.6626792248720292
 30
0.0
 40
0.0248786620678465
 50
326.0111070239735227
 51
23.1802526683306382
  0
ARC
  5
93DC
  8
0
 10
3991.9844507874058763
 20
45.6996995701652935
 30
0.0
 40
0.0911008699799343
 50
318.0321699152526094
 51
326.0111070239735227
  0
ARC
  5
93DD
  8
0
 10
3991.8437309451651345
 20
46.0057871696128089
 30
0.0
 40
0.426950826154494
 50
286.586511534424119
 51
292.9622282989586779
  0
ARC
  5
93DE
  8
0
 10
3991.9418035918388341
 20
45.7743183513355589
 30
0.0
 40
0.1755625649728374
 50
292.9622282989586779
 51
304.6277540541266262
  0
ARC
  5
93DF
  8
0
 10
3991.9997838742638123
 20
45.6903581878107587
 30
0.0
 40
0.073528148184749
 50
304.6277540541266262
 51
315.4536415672722001
  0
ARC
  5
93E0
  8
0
 10
3992.2581811970439958
 20
45.4360205489033291
 30
0.0
 40
0.289041584397697
 50
131.0068491293374962
 51
135.4536415672723138
  0
ARC
  5
93E1
  8
0
 10
3992.032933737158146
 20
45.6950755605960381
 30
0.0
 40
0.0542453469997692
 50
311.0068491292757926
 51
327.3712996755941731
  0
ARC
  5
93E2
  8
0
 10
3992.0513897007908781
 20
45.6832594492893591
 30
0.0
 40
0.0323308978847463
 50
327.3712996755941731
 51
0.4176849409378264
  0
ARC
  5
93E3
  8
0
 10
3992.0593755344530109
 20
45.6833176668680281
 30
0.0
 40
0.024344852018686
 50
0.4176849409378264
 51
35.6048453583342024
  0
ARC
  5
93E4
  8
0
 10
3992.0141630722578157
 20
45.6509429395281217
 30
0.0
 40
0.0799532120744611
 50
35.6048453583342024
 51
65.4032434039515067
  0
ARC
  5
93E5
  8
0
 10
3991.7143176502859205
 20
45.9887046750425696
 30
0.0
 40
0.5175600726419285
 50
320.2367618205385043
 51
321.8402639270145187
  0
ARC
  5
93E6
  8
0
 10
3992.1022481085178697
 20
45.6858757940943079
 30
0.0
 40
0.0254777312477094
 50
318.2995466701378859
 51
353.3414834970383254
  0
ARC
  5
93E7
  8
0
 10
3991.6076802842590041
 20
44.0493787399822594
 30
0.0
 40
1.7333515615883679
 50
82.9925200807930139
 51
89.8807966108847438
  0
ARC
  5
93E8
  8
0
 10
3991.6158659386837826
 20
44.1159697814728773
 30
0.0
 40
1.6662592986592819
 50
78.2434443938326751
 51
82.9925363952799273
  0
ARC
  5
93E9
  8
0
 10
3991.7456641188050526
 20
44.739640675839297
 30
0.0
 40
1.0292248003450799
 50
73.158523648744989
 51
78.2434443938326751
  0
ARC
  5
93EA
  8
0
 10
3992.5028608859070118
 20
47.2410516751429697
 30
0.0
 40
1.5842793476424739
 50
253.158523648744989
 51
253.293973563598712
  0
ARC
  5
93EB
  8
0
 10
3991.7677324943238091
 20
44.7916771775661928
 30
0.0
 40
0.9730335353448346
 50
70.7967616255709942
 51
73.2939735635986551
  0
ARC
  5
93EC
  8
0
 10
3992.0211650457022188
 20
45.5193039117234974
 30
0.0
 40
0.2025345266764623
 50
61.3337602443144689
 51
70.7967616255709942
  0
ARC
  5
93ED
  8
0
 10
3992.107798720583105
 20
45.6777651465505272
 30
0.0
 40
0.0219373047538143
 50
34.9795498978743424
 51
61.3337602443144689
  0
ARC
  5
93EE
  8
0
 10
3992.1172375033711432
 20
45.6843692340166072
 30
0.0
 40
0.0104175568488933
 50
352.0123261045544041
 51
34.9795498978743424
  0
LINE
  5
93EF
  8
0
 10
3991.6211219020028693
 20
45.6154105242735994
 30
0.0
 11
3991.6211219020028693
 21
45.6260282135745427
 31
0.0
  0
LINE
  5
93F0
  8
0
 10
3987.3396258636062157
 20
46.2961991108427995
 30
0.0
 11
3995.8829330431499329
 21
46.2961991108427995
 31
0.0
  0
ARC
  5
93F1
  8
0
 10
3991.6111033627780671
 20
44.2412384375152925
 30
0.0
 40
1.388747821556906
 50
85.4798357607883332
 51
89.9924440712652256
  0
ARC
  5
93F2
  8
0
 10
3991.6487785319000068
 20
44.6827312640364624
 30
0.0
 40
0.9456630494470569
 50
79.2285820938621157
 51
85.6472988996585514
  0
ARC
  5
93F3
  8
0
 10
3991.7571726322098584
 20
45.2236767071933201
 30
0.0
 40
0.3940276429766695
 50
67.7082019057412197
 51
80.0118281480855558
  0
ARC
  5
93F4
  8
0
 10
3991.8662376684251285
 20
45.4894792545171498
 30
0.0
 40
0.1067191899003035
 50
49.1117497759812167
 51
67.7558481410911639
  0
ARC
  5
93F5
  8
0
 10
3991.9121527783368037
 20
45.5440122158478218
 30
0.0
 40
0.0354512552373187
 50
26.9393697453709891
 51
47.5192107889476176
  0
ARC
  5
93F6
  8
0
 10
3991.9250364723961866
 20
45.5509344700193211
 30
0.0
 40
0.0208321879964717
 50
4.3794278687133126
 51
26.0202413572253413
  0
ARC
  5
93F7
  8
0
 10
3991.9227451526330697
 20
45.5523053313425095
 30
0.0
 40
0.023274097195206
 50
317.987736836860222
 51
350.6074845158008202
  0
ARC
  5
93F8
  8
0
 10
3991.9323771426588792
 20
45.5508511798801266
 30
0.0
 40
0.0135346212612106
 50
350.0264306847006992
 51
7.1049413038488467
  0
ARC
  5
93F9
  8
0
 10
3994.6901671450841604
 20
73.8695578706708034
 30
0.0
 40
0.0945769115833745
 50
183.2956216892771124
 51
233.8887731189707893
  0
ARC
  5
93FA
  8
0
 10
3994.7480089525929543
 20
73.9488461482747539
 30
0.0
 40
0.1927212219702654
 50
233.8887731189707893
 51
249.5959041745792888
  0
ARC
  5
93FB
  8
0
 10
3994.7200820057578312
 20
73.8969173860037358
 30
0.0
 40
0.1345564348014765
 50
253.0344150096834142
 51
320.5905378375455257
  0
ARC
  5
93FC
  8
0
 10
3994.741529595036809
 20
73.8882718911506231
 30
0.0
 40
0.1127103912008994
 50
317.0622136725078803
 51
358.3736838634628725
  0
ARC
  5
93FD
  8
0
 10
3994.7610545616739728
 20
73.885805278300495
 30
0.0
 40
0.0931429010610233
 50
359.549594863994173
 51
60.4324810411395816
  0
ARC
  5
93FE
  8
0
 10
3994.7331048876098976
 20
73.8382529434017556
 30
0.0
 40
0.1482968680058802
 50
60.105899400905173
 51
118.1608143081104032
  0
ARC
  5
93FF
  8
0
 10
3994.7272084172718678
 20
73.8462943827383356
 30
0.0
 40
0.1384316090014412
 50
117.5799712284181027
 51
147.7447744487797934
  0
ARC
  5
9400
  8
0
 10
3994.7624472584871
 20
73.8511909755052329
 30
0.0
 40
0.1672013063958065
 50
155.633259009930299
 51
175.5648189629696105
  0
ARC
  5
9401
  8
0
 10
3994.7159585883191539
 20
73.8654214157660363
 30
0.0
 40
0.108950425064008
 50
198.1924222418311103
 51
221.5541429014729999
  0
ARC
  5
9402
  8
0
 10
3994.6829396662301406
 20
73.8545701853857963
 30
0.0
 40
0.0741941534469695
 50
152.0412261700739123
 51
198.1924222418311103
  0
ARC
  5
9403
  8
0
 10
3994.7263745079480941
 20
73.8315155434590906
 30
0.0
 40
0.1233683538929919
 50
106.0461722685250976
 51
152.0412261700739123
  0
ARC
  5
9404
  8
0
 10
3994.7323917140020058
 20
73.8105946963168549
 30
0.0
 40
0.1451373367322628
 50
68.7540027997912802
 51
106.0461722685250976
  0
ARC
  5
9405
  8
0
 10
3994.7506761226441085
 20
73.8576227010988191
 30
0.0
 40
0.0946799008766993
 50
28.3092983593876717
 51
68.7540027997912802
  0
ARC
  5
9406
  8
0
 10
3994.7657695306052119
 20
73.8657528238508121
 30
0.0
 40
0.0775361014188389
 50
346.3323038312843778
 51
28.3092983593876717
  0
ARC
  5
9407
  8
0
 10
3994.7360259341830897
 20
73.872985767292775
 30
0.0
 40
0.1081465081289044
 50
327.9755421626366001
 51
346.3323038312843778
  0
ARC
  5
9408
  8
0
 10
3994.7262047814019752
 20
73.8520938120520327
 30
0.0
 40
0.0595811846425356
 50
220.148965509648292
 51
300.7099326844224265
  0
ARC
  5
9409
  8
0
 10
3994.7275990961529715
 20
73.8497464454474652
 30
0.0
 40
0.056850938572897
 50
300.7099326844224265
 51
351.5123909565826921
  0
ARC
  5
940A
  8
0
 10
3994.7405430786138822
 20
73.8400209686125777
 30
0.0
 40
0.0433048817352876
 50
1.7659721626275919
 51
75.4015763368606713
  0
ARC
  5
940B
  8
0
 10
3994.7322325084169279
 20
73.822291485590938
 30
0.0
 40
0.0626586010366448
 50
72.1319812549549511
 51
148.9696241777814976
  0
ARC
  5
940C
  8
0
 10
3994.7110318909521993
 20
73.8357644491386935
 30
0.0
 40
0.0375517607630362
 50
149.9097695828903056
 51
216.0280108066525031
  0
ARC
  5
940D
  8
0
 10
3994.1655545714202162
 20
74.661422011434297
 30
0.0
 40
0.177882960600706
 50
97.0528380313421621
 51
160.6470656535404942
  0
ARC
  5
940E
  8
0
 10
3994.167546929006221
 20
74.6453183481685869
 30
0.0
 40
0.194109403813036
 50
39.3739457143106719
 51
97.0528380313421621
  0
ARC
  5
940F
  8
0
 10
3994.23639862643995
 20
74.7018213557838067
 30
0.0
 40
0.1050411933834529
 50
358.082317125933514
 51
39.3739457143106719
  0
ARC
  5
9410
  8
0
 10
3994.1574494314709227
 20
74.7044647630293071
 30
0.0
 40
0.1840346297445655
 50
322.6823091168778888
 51
358.082317125933514
  0
ARC
  5
9411
  8
0
 10
3994.1661173484071696
 20
74.7176760489110734
 30
0.0
 40
0.1858199503913451
 50
282.1982907030571255
 51
317.8165442683928745
  0
ARC
  5
9412
  8
0
 10
3994.162191100275777
 20
74.7248596238761706
 30
0.0
 40
0.1936848272965836
 50
245.0779664027577951
 51
282.8845329971649107
  0
ARC
  5
9413
  8
0
 10
3994.143606282806104
 20
74.6887358443275957
 30
0.0
 40
0.1531021657744578
 50
197.4528249694685087
 51
245.688812285688897
  0
ARC
  5
9414
  8
0
 10
3994.1705785691488018
 20
74.6812133317793609
 30
0.0
 40
0.1772352702222621
 50
167.2363207404380034
 51
192.511663709790497
  0
ARC
  5
9415
  8
0
 10
3994.1350254610770207
 20
74.6708480416423868
 30
0.0
 40
0.0945769115833745
 50
183.2956216892771124
 51
233.8887731189707893
  0
ARC
  5
9416
  8
0
 10
3994.1928672685849051
 20
74.7501363192463373
 30
0.0
 40
0.1927212219702654
 50
233.8887731189707893
 51
249.5959041745792888
  0
ARC
  5
9417
  8
0
 10
3994.1649403217511463
 20
74.6982075569753761
 30
0.0
 40
0.1345564348014765
 50
253.0344150096834142
 51
320.5905378375455257
  0
ARC
  5
9418
  8
0
 10
3994.1863879110301241
 20
74.6895620621222065
 30
0.0
 40
0.1127103912008994
 50
317.0622136725078803
 51
358.3736838634628725
  0
ARC
  5
9419
  8
0
 10
3994.2059128776668331
 20
74.6870954492721353
 30
0.0
 40
0.0931429010610233
 50
359.549594863994173
 51
60.4324810411395816
  0
ARC
  5
941A
  8
0
 10
3994.1779632036032126
 20
74.6395431143733248
 30
0.0
 40
0.1482968680058802
 50
60.105899400905173
 51
118.1608143081104032
  0
ARC
  5
941B
  8
0
 10
3994.1720667332651828
 20
74.647584553709919
 30
0.0
 40
0.1384316090014412
 50
117.5799712284181027
 51
147.7447744487797934
  0
ARC
  5
941C
  8
0
 10
3994.2073055744799603
 20
74.6524811464768732
 30
0.0
 40
0.1672013063958065
 50
155.633259009930299
 51
175.5648189629696105
  0
ARC
  5
941D
  8
0
 10
3994.1608169043111047
 20
74.6667115867376765
 30
0.0
 40
0.108950425064008
 50
198.1924222418311103
 51
221.5541429014729999
  0
ARC
  5
941E
  8
0
 10
3994.1277979822211819
 20
74.6558603563574366
 30
0.0
 40
0.0741941534469695
 50
152.0412261700739123
 51
198.1924222418311103
  0
ARC
  5
941F
  8
0
 10
3994.1712328239409544
 20
74.6328057144307309
 30
0.0
 40
0.1233683538929919
 50
106.0461722685250976
 51
152.0412261700739123
  0
ARC
  5
9420
  8
0
 10
3994.1772500299948661
 20
74.6118848672884241
 30
0.0
 40
0.1451373367322628
 50
68.7540027997912802
 51
106.0461722685250976
  0
ARC
  5
9421
  8
0
 10
3994.1955344386369688
 20
74.6589128720704593
 30
0.0
 40
0.0946799008766993
 50
28.3092983593876717
 51
68.7540027997912802
  0
ARC
  5
9422
  8
0
 10
3994.2106278465980722
 20
74.6670429948224523
 30
0.0
 40
0.0775361014188389
 50
346.3323038312843778
 51
28.3092983593876717
  0
ARC
  5
9423
  8
0
 10
3994.18088425017595
 20
74.6742759382644152
 30
0.0
 40
0.1081465081289044
 50
327.9755421626366001
 51
346.3323038312843778
  0
ARC
  5
9424
  8
0
 10
3994.1710630973948355
 20
74.6533839830236161
 30
0.0
 40
0.0595811846425356
 50
220.148965509648292
 51
300.7099326844224265
  0
ARC
  5
9425
  8
0
 10
3994.1724574121449223
 20
74.6510366164190344
 30
0.0
 40
0.056850938572897
 50
300.7099326844224265
 51
351.5123909565826921
  0
ARC
  5
9426
  8
0
 10
3994.185401394605833
 20
74.6413111395841611
 30
0.0
 40
0.0433048817352876
 50
1.7659721626275919
 51
75.4015763368606713
  0
ARC
  5
9427
  8
0
 10
3994.1770908244097882
 20
74.6235816565625214
 30
0.0
 40
0.0626586010366448
 50
72.1319812549549511
 51
148.9696241777814976
  0
ARC
  5
9428
  8
0
 10
3994.1558902069450596
 20
74.6370546201102911
 30
0.0
 40
0.0375517607630362
 50
149.9097695828903056
 51
216.0280108066525031
  0
ARC
  5
9429
  8
0
 10
3994.1652727892251278
 20
73.0451059119886139
 30
0.0
 40
0.177882960600706
 50
97.0528380313421621
 51
160.6470656535404942
  0
ARC
  5
942A
  8
0
 10
3994.1672651468102231
 20
73.0290022487228612
 30
0.0
 40
0.194109403813036
 50
39.3739457143106719
 51
97.0528380313421621
  0
ARC
  5
942B
  8
0
 10
3994.2361168442439521
 20
73.0855052563381946
 30
0.0
 40
0.1050411933834529
 50
358.082317125933514
 51
39.3739457143106719
  0
ARC
  5
942C
  8
0
 10
3994.1571676492740153
 20
73.0881486635835813
 30
0.0
 40
0.1840346297445655
 50
322.6823091168778888
 51
358.082317125933514
  0
ARC
  5
942D
  8
0
 10
3994.1658355662098074
 20
73.1013599494654613
 30
0.0
 40
0.1858199503913451
 50
282.1982907030571255
 51
317.8165442683928745
  0
ARC
  5
942E
  8
0
 10
3994.161909318079779
 20
73.1085435244304449
 30
0.0
 40
0.1936848272965836
 50
245.0779664027577951
 51
282.8845329971649107
  0
ARC
  5
942F
  8
0
 10
3994.143324500610106
 20
73.0724197448819837
 30
0.0
 40
0.1531021657744578
 50
197.4528249694685087
 51
245.688812285688897
  0
ARC
  5
9430
  8
0
 10
3994.1702967869528038
 20
73.0648972323337489
 30
0.0
 40
0.1772352702222621
 50
167.2363207404380034
 51
192.511663709790497
  0
ARC
  5
9431
  8
0
 10
3994.1347436788810228
 20
73.0545319421967179
 30
0.0
 40
0.0945769115833745
 50
183.2956216892771124
 51
233.8887731189707893
  0
ARC
  5
9432
  8
0
 10
3994.1925854863898167
 20
73.1338202198006684
 30
0.0
 40
0.1927212219702654
 50
233.8887731189707893
 51
249.5959041745792888
  0
ARC
  5
9433
  8
0
 10
3994.1646585395551483
 20
73.0818914575297072
 30
0.0
 40
0.1345564348014765
 50
253.0344150096834142
 51
320.5905378375455257
  0
ARC
  5
9434
  8
0
 10
3994.1861061288341261
 20
73.0732459626765944
 30
0.0
 40
0.1127103912008994
 50
317.0622136725078803
 51
358.3736838634628725
  0
ARC
  5
9435
  8
0
 10
3994.2056310954708351
 20
73.0707793498264095
 30
0.0
 40
0.0931429010610233
 50
359.549594863994173
 51
60.4324810411395816
  0
ARC
  5
9436
  8
0
 10
3994.1776814214072147
 20
73.0232270149276701
 30
0.0
 40
0.1482968680058802
 50
60.105899400905173
 51
118.1608143081104032
  0
ARC
  5
9437
  8
0
 10
3994.1717849510678207
 20
73.0312684542642501
 30
0.0
 40
0.1384316090014412
 50
117.5799712284181027
 51
147.7447744487797934
  0
ARC
  5
9438
  8
0
 10
3994.2070237922839624
 20
73.0361650470311332
 30
0.0
 40
0.1672013063958065
 50
155.633259009930299
 51
175.5648189629696105
  0
ARC
  5
9439
  8
0
 10
3994.1605351221151068
 20
73.0503954872919508
 30
0.0
 40
0.108950425064008
 50
198.1924222418311103
 51
221.5541429014729999
  0
ARC
  5
943A
  8
0
 10
3994.1275162000251839
 20
73.0395442569117108
 30
0.0
 40
0.0741941534469695
 50
152.0412261700739123
 51
198.1924222418311103
  0
ARC
  5
943B
  8
0
 10
3994.1709510417449565
 20
73.0164896149850051
 30
0.0
 40
0.1233683538929919
 50
106.0461722685250976
 51
152.0412261700739123
  0
ARC
  5
943C
  8
0
 10
3994.1769682477997776
 20
72.9955687678428262
 30
0.0
 40
0.1451373367322628
 50
68.7540027997912802
 51
106.0461722685250976
  0
ARC
  5
943D
  8
0
 10
3994.1952526564409709
 20
73.0425967726247904
 30
0.0
 40
0.0946799008766993
 50
28.3092983593876717
 51
68.7540027997912802
  0
ARC
  5
943E
  8
0
 10
3994.2103460644020743
 20
73.0507268953767834
 30
0.0
 40
0.0775361014188389
 50
346.3323038312843778
 51
28.3092983593876717
  0
ARC
  5
943F
  8
0
 10
3994.1806024679799521
 20
73.0579598388187037
 30
0.0
 40
0.1081465081289044
 50
327.9755421626366001
 51
346.3323038312843778
  0
ARC
  5
9440
  8
0
 10
3994.1707813151988375
 20
73.0370678835780041
 30
0.0
 40
0.0595811846425356
 50
220.148965509648292
 51
300.7099326844224265
  0
ARC
  5
9441
  8
0
 10
3994.1721756299498338
 20
73.0347205169733797
 30
0.0
 40
0.056850938572897
 50
300.7099326844224265
 51
351.5123909565826921
  0
ARC
  5
9442
  8
0
 10
3994.1851196124098351
 20
73.024995040138549
 30
0.0
 40
0.0433048817352876
 50
1.7659721626275919
 51
75.4015763368606713
  0
ARC
  5
9443
  8
0
 10
3994.1768090422137902
 20
73.0072655571168525
 30
0.0
 40
0.0626586010366448
 50
72.1319812549549511
 51
148.9696241777814976
  0
ARC
  5
9444
  8
0
 10
3994.1556084247481522
 20
73.0207385206646791
 30
0.0
 40
0.0375517607630362
 50
149.9097695828903056
 51
216.0280108066525031
  0
ARC
  5
9445
  8
0
 10
3993.0549155029930262
 20
73.0432534888635701
 30
0.0
 40
0.177882960600706
 50
97.0528380313421621
 51
160.6470656535404942
  0
ARC
  5
9446
  8
0
 10
3993.056907860577212
 20
73.0271498255978599
 30
0.0
 40
0.194109403813036
 50
39.3739457143106719
 51
97.0528380313421621
  0
ARC
  5
9447
  8
0
 10
3993.1257595580118505
 20
73.0836528332130655
 30
0.0
 40
0.1050411933834529
 50
358.082317125933514
 51
39.3739457143106719
  0
ARC
  5
9448
  8
0
 10
3993.0468103630419137
 20
73.0862962404585801
 30
0.0
 40
0.1840346297445655
 50
322.6823091168778888
 51
358.082317125933514
  0
ARC
  5
9449
  8
0
 10
3993.0554782799790701
 20
73.0995075263403464
 30
0.0
 40
0.1858199503913451
 50
282.1982907030571255
 51
317.8165442683928745
  0
ARC
  5
944A
  8
0
 10
3993.0515520318481322
 20
73.1066911013054437
 30
0.0
 40
0.1936848272965836
 50
245.0779664027577951
 51
282.8845329971649107
  0
ARC
  5
944B
  8
0
 10
3993.0329672143780044
 20
73.0705673217568688
 30
0.0
 40
0.1531021657744578
 50
197.4528249694685087
 51
245.688812285688897
  0
ARC
  5
944C
  8
0
 10
3993.0599395007211569
 20
73.063044809208634
 30
0.0
 40
0.1772352702222621
 50
167.2363207404380034
 51
192.511663709790497
  0
ARC
  5
944D
  8
0
 10
3993.0243863926489212
 20
73.0526795190716598
 30
0.0
 40
0.0945769115833745
 50
183.2956216892771124
 51
233.8887731189707893
  0
ARC
  5
944E
  8
0
 10
3993.0822282001581698
 20
73.1319677966756103
 30
0.0
 40
0.1927212219702654
 50
233.8887731189707893
 51
249.5959041745792888
  0
ARC
  5
944F
  8
0
 10
3993.0543012533221372
 20
73.0800390344046349
 30
0.0
 40
0.1345564348014765
 50
253.0344150096834142
 51
320.5905378375455257
  0
ARC
  5
9450
  8
0
 10
3993.0757488426020245
 20
73.0713935395514795
 30
0.0
 40
0.1127103912008994
 50
317.0622136725078803
 51
358.3736838634628725
  0
ARC
  5
9451
  8
0
 10
3993.0952738092391883
 20
73.0689269267014083
 30
0.0
 40
0.0931429010610233
 50
359.549594863994173
 51
60.4324810411395816
  0
ARC
  5
9452
  8
0
 10
3993.067324135175113
 20
73.021374591802612
 30
0.0
 40
0.1482968680058802
 50
60.105899400905173
 51
118.1608143081104032
  0
ARC
  5
9453
  8
0
 10
3993.0614276648361738
 20
73.029416031139192
 30
0.0
 40
0.1384316090014412
 50
117.5799712284181027
 51
147.7447744487797934
  0
ARC
  5
9454
  8
0
 10
3993.0966665060518608
 20
73.0343126239061462
 30
0.0
 40
0.1672013063958065
 50
155.633259009930299
 51
175.5648189629696105
  0
ARC
  5
9455
  8
0
 10
3993.0501778358830052
 20
73.0485430641669495
 30
0.0
 40
0.108950425064008
 50
198.1924222418311103
 51
221.5541429014729999
  0
ARC
  5
9456
  8
0
 10
3993.0171589137939918
 20
73.0376918337867096
 30
0.0
 40
0.0741941534469695
 50
152.0412261700739123
 51
198.1924222418311103
  0
ARC
  5
9457
  8
0
 10
3993.0605937555119453
 20
73.0146371918600039
 30
0.0
 40
0.1233683538929919
 50
106.0461722685250976
 51
152.0412261700739123
  0
ARC
  5
9458
  8
0
 10
3993.0666109615672212
 20
72.9937163447177113
 30
0.0
 40
0.1451373367322628
 50
68.7540027997912802
 51
106.0461722685250976
  0
ARC
  5
9459
  8
0
 10
3993.0848953702079598
 20
73.0407443494997324
 30
0.0
 40
0.0946799008766993
 50
28.3092983593876717
 51
68.7540027997912802
  0
ARC
  5
945A
  8
0
 10
3993.0999887781690632
 20
73.0488744722517254
 30
0.0
 40
0.0775361014188389
 50
346.3323038312843778
 51
28.3092983593876717
  0
ARC
  5
945B
  8
0
 10
3993.0702451817478504
 20
73.0561074156937025
 30
0.0
 40
0.1081465081289044
 50
327.9755421626366001
 51
346.3323038312843778
  0
ARC
  5
945C
  8
0
 10
3993.0604240289658264
 20
73.0352154604528749
 30
0.0
 40
0.0595811846425356
 50
220.148965509648292
 51
300.7099326844224265
  0
ARC
  5
945D
  8
0
 10
3993.0618183437168227
 20
73.0328680938483217
 30
0.0
 40
0.056850938572897
 50
300.7099326844224265
 51
351.5123909565826921
  0
ARC
  5
945E
  8
0
 10
3993.0747623261781882
 20
73.0231426170134341
 30
0.0
 40
0.0433048817352876
 50
1.7659721626275919
 51
75.4015763368606713
  0
ARC
  5
945F
  8
0
 10
3993.0664517559807791
 20
73.0054131339917944
 30
0.0
 40
0.0626586010366448
 50
72.1319812549549511
 51
148.9696241777814976
  0
ARC
  5
9460
  8
0
 10
3993.0452511385160506
 20
73.0188860975395642
 30
0.0
 40
0.0375517607630362
 50
149.9097695828903056
 51
216.0280108066525031
  0
ARC
  5
9461
  8
0
 10
3992.5023986598289412
 20
73.8598736999664425
 30
0.0
 40
0.177882960600706
 50
97.0528380313421621
 51
160.6470656535404942
  0
ARC
  5
9462
  8
0
 10
3992.504391017413127
 20
73.8437700367007324
 30
0.0
 40
0.194109403813036
 50
39.3739457143106719
 51
97.0528380313421621
  0
ARC
  5
9463
  8
0
 10
3992.573242714846856
 20
73.9002730443159521
 30
0.0
 40
0.1050411933834529
 50
358.082317125933514
 51
39.3739457143106719
  0
ARC
  5
9464
  8
0
 10
3992.4942935198791929
 20
73.9029164515614525
 30
0.0
 40
0.1840346297445655
 50
322.6823091168778888
 51
358.082317125933514
  0
ARC
  5
9465
  8
0
 10
3992.5029614368149851
 20
73.9161277374432188
 30
0.0
 40
0.1858199503913451
 50
282.1982907030571255
 51
317.8165442683928745
  0
ARC
  5
9466
  8
0
 10
3992.4990351886840472
 20
73.9233113124083161
 30
0.0
 40
0.1936848272965836
 50
245.0779664027577951
 51
282.8845329971649107
  0
ARC
  5
9467
  8
0
 10
3992.4804503712139194
 20
73.8871875328597412
 30
0.0
 40
0.1531021657744578
 50
197.4528249694685087
 51
245.688812285688897
  0
ARC
  5
9468
  8
0
 10
3992.5074226575570719
 20
73.8796650203115064
 30
0.0
 40
0.1772352702222621
 50
167.2363207404380034
 51
192.511663709790497
  0
ARC
  5
9469
  8
0
 10
3992.4718695494839267
 20
73.8692997301745322
 30
0.0
 40
0.0945769115833745
 50
183.2956216892771124
 51
233.8887731189707893
  0
ARC
  5
946A
  8
0
 10
3992.5297113569931753
 20
73.9485880077784827
 30
0.0
 40
0.1927212219702654
 50
233.8887731189707893
 51
249.5959041745792888
  0
ARC
  5
946B
  8
0
 10
3992.5017844101580522
 20
73.8966592455075215
 30
0.0
 40
0.1345564348014765
 50
253.0344150096834142
 51
320.5905378375455257
  0
ARC
  5
946C
  8
0
 10
3992.5232319994379395
 20
73.888013750654352
 30
0.0
 40
0.1127103912008994
 50
317.0622136725078803
 51
358.3736838634628725
  0
ARC
  5
946D
  8
0
 10
3992.5427569660751033
 20
73.8855471378042807
 30
0.0
 40
0.0931429010610233
 50
359.549594863994173
 51
60.4324810411395816
  0
ARC
  5
946E
  8
0
 10
3992.514807292011028
 20
73.8379948029054844
 30
0.0
 40
0.1482968680058802
 50
60.105899400905173
 51
118.1608143081104032
  0
ARC
  5
946F
  8
0
 10
3992.5089108216729983
 20
73.8460362422420644
 30
0.0
 40
0.1384316090014412
 50
117.5799712284181027
 51
147.7447744487797934
  0
ARC
  5
9470
  8
0
 10
3992.5441496628868663
 20
73.8509328350090186
 30
0.0
 40
0.1672013063958065
 50
155.633259009930299
 51
175.5648189629696105
  0
ARC
  5
9471
  8
0
 10
3992.4976609927180107
 20
73.865163275269822
 30
0.0
 40
0.108950425064008
 50
198.1924222418311103
 51
221.5541429014729999
  0
ARC
  5
9472
  8
0
 10
3992.4646420706289973
 20
73.854312044889582
 30
0.0
 40
0.0741941534469695
 50
152.0412261700739123
 51
198.1924222418311103
  0
ARC
  5
9473
  8
0
 10
3992.5080769123478603
 20
73.8312574029628763
 30
0.0
 40
0.1233683538929919
 50
106.0461722685250976
 51
152.0412261700739123
  0
ARC
  5
9474
  8
0
 10
3992.5140941184031362
 20
73.8103365558205837
 30
0.0
 40
0.1451373367322628
 50
68.7540027997912802
 51
106.0461722685250976
  0
ARC
  5
9475
  8
0
 10
3992.5323785270438748
 20
73.8573645606026048
 30
0.0
 40
0.0946799008766993
 50
28.3092983593876717
 51
68.7540027997912802
  0
ARC
  5
9476
  8
0
 10
3992.5474719350058876
 20
73.8654946833545836
 30
0.0
 40
0.0775361014188389
 50
346.3323038312843778
 51
28.3092983593876717
  0
ARC
  5
9477
  8
0
 10
3992.5177283385828559
 20
73.8727276267965749
 30
0.0
 40
0.1081465081289044
 50
327.9755421626366001
 51
346.3323038312843778
  0
ARC
  5
9478
  8
0
 10
3992.5079071858021962
 20
73.8518356715557616
 30
0.0
 40
0.0595811846425356
 50
220.148965509648292
 51
300.7099326844224265
  0
ARC
  5
9479
  8
0
 10
3992.5093015005531925
 20
73.8494883049511941
 30
0.0
 40
0.056850938572897
 50
300.7099326844224265
 51
351.5123909565826921
  0
ARC
  5
947A
  8
0
 10
3992.5222454830141032
 20
73.8397628281163065
 30
0.0
 40
0.0433048817352876
 50
1.7659721626275919
 51
75.4015763368606713
  0
ARC
  5
947B
  8
0
 10
3992.5139349128180584
 20
73.8220333450946669
 30
0.0
 40
0.0626586010366448
 50
72.1319812549549511
 51
148.9696241777814976
  0
ARC
  5
947C
  8
0
 10
3992.4927342953510561
 20
73.8355063086424366
 30
0.0
 40
0.0375517607630362
 50
149.9097695828903056
 51
216.0280108066525031
  0
ARC
  5
947D
  8
0
 10
3993.0541872349231198
 20
74.6614821648776541
 30
0.0
 40
0.177882960600706
 50
97.0528380313421621
 51
160.6470656535404942
  0
ARC
  5
947E
  8
0
 10
3993.0561795925068509
 20
74.6453785016119014
 30
0.0
 40
0.194109403813036
 50
39.3739457143106719
 51
97.0528380313421621
  0
ARC
  5
947F
  8
0
 10
3993.1250312899419441
 20
74.7018815092272348
 30
0.0
 40
0.1050411933834529
 50
358.082317125933514
 51
39.3739457143106719
  0
ARC
  5
9480
  8
0
 10
3993.0460820949729168
 20
74.7045249164726215
 30
0.0
 40
0.1840346297445655
 50
322.6823091168778888
 51
358.082317125933514
  0
ARC
  5
9481
  8
0
 10
3993.0547500119091637
 20
74.7177362023545015
 30
0.0
 40
0.1858199503913451
 50
282.1982907030571255
 51
317.8165442683928745
  0
ARC
  5
9482
  8
0
 10
3993.0508237637782258
 20
74.7249197773194851
 30
0.0
 40
0.1936848272965836
 50
245.0779664027577951
 51
282.8845329971649107
  0
ARC
  5
9483
  8
0
 10
3993.0322389463080981
 20
74.6887959977710238
 30
0.0
 40
0.1531021657744578
 50
197.4528249694685087
 51
245.688812285688897
  0
ARC
  5
9484
  8
0
 10
3993.0592112326507959
 20
74.6812734852227891
 30
0.0
 40
0.1772352702222621
 50
167.2363207404380034
 51
192.511663709790497
  0
ARC
  5
9485
  8
0
 10
3993.0236581245790148
 20
74.6709081950857581
 30
0.0
 40
0.0945769115833745
 50
183.2956216892771124
 51
233.8887731189707893
  0
ARC
  5
9486
  8
0
 10
3993.0814999320878087
 20
74.7501964726897086
 30
0.0
 40
0.1927212219702654
 50
233.8887731189707893
 51
249.5959041745792888
  0
ARC
  5
9487
  8
0
 10
3993.0535729852517761
 20
74.6982677104187474
 30
0.0
 40
0.1345564348014765
 50
253.0344150096834142
 51
320.5905378375455257
  0
ARC
  5
9488
  8
0
 10
3993.0750205745321182
 20
74.6896222155656346
 30
0.0
 40
0.1127103912008994
 50
317.0622136725078803
 51
358.3736838634628725
  0
ARC
  5
9489
  8
0
 10
3993.0945455411688272
 20
74.6871556027154497
 30
0.0
 40
0.0931429010610233
 50
359.549594863994173
 51
60.4324810411395816
  0
ARC
  5
948A
  8
0
 10
3993.0665958671052067
 20
74.6396032678167103
 30
0.0
 40
0.1482968680058802
 50
60.105899400905173
 51
118.1608143081104032
  0
ARC
  5
948B
  8
0
 10
3993.0606993967671769
 20
74.6476447071532903
 30
0.0
 40
0.1384316090014412
 50
117.5799712284181027
 51
147.7447744487797934
  0
ARC
  5
948C
  8
0
 10
3993.0959382379819544
 20
74.6525412999201734
 30
0.0
 40
0.1672013063958065
 50
155.633259009930299
 51
175.5648189629696105
  0
ARC
  5
948D
  8
0
 10
3993.0494495678130988
 20
74.6667717401809909
 30
0.0
 40
0.108950425064008
 50
198.1924222418311103
 51
221.5541429014729999
  0
ARC
  5
948E
  8
0
 10
3993.0164306457240855
 20
74.655920509800751
 30
0.0
 40
0.0741941534469695
 50
152.0412261700739123
 51
198.1924222418311103
  0
ARC
  5
948F
  8
0
 10
3993.059865487442039
 20
74.6328658678740453
 30
0.0
 40
0.1233683538929919
 50
106.0461722685250976
 51
152.0412261700739123
  0
ARC
  5
9490
  8
0
 10
3993.0658826934982244
 20
74.6119450207318664
 30
0.0
 40
0.1451373367322628
 50
68.7540027997912802
 51
106.0461722685250976
  0
ARC
  5
9491
  8
0
 10
3993.0841671021380535
 20
74.6589730255138306
 30
0.0
 40
0.0946799008766993
 50
28.3092983593876717
 51
68.7540027997912802
  0
ARC
  5
9492
  8
0
 10
3993.0992605101000663
 20
74.6671031482658236
 30
0.0
 40
0.0775361014188389
 50
346.3323038312843778
 51
28.3092983593876717
  0
ARC
  5
9493
  8
0
 10
3993.0695169136779441
 20
74.6743360917077439
 30
0.0
 40
0.1081465081289044
 50
327.9755421626366001
 51
346.3323038312843778
  0
ARC
  5
9494
  8
0
 10
3993.0596957608959201
 20
74.6534441364670442
 30
0.0
 40
0.0595811846425356
 50
220.148965509648292
 51
300.7099326844224265
  0
ARC
  5
9495
  8
0
 10
3993.0610900756469164
 20
74.6510967698624199
 30
0.0
 40
0.056850938572897
 50
300.7099326844224265
 51
351.5123909565826921
  0
ARC
  5
9496
  8
0
 10
3993.0740340581078271
 20
74.6413712930275892
 30
0.0
 40
0.0433048817352876
 50
1.7659721626275919
 51
75.4015763368606713
  0
ARC
  5
9497
  8
0
 10
3993.0657234879108728
 20
74.6236418100058927
 30
0.0
 40
0.0626586010366448
 50
72.1319812549549511
 51
148.9696241777814976
  0
ARC
  5
9498
  8
0
 10
3993.0445228704470537
 20
74.6371147735537193
 30
0.0
 40
0.0375517607630362
 50
149.9097695828903056
 51
216.0280108066525031
  0
ARC
  5
9499
  8
0
 10
3993.1407182135440053
 20
73.6119911344540583
 30
0.0
 40
0.1615246148499113
 50
84.0896544954623124
 51
126.5142130468883011
  0
ARC
  5
949A
  8
0
 10
3993.1041861335579597
 20
73.6613358024397371
 30
0.0
 40
0.1001284494426123
 50
126.5142130468883011
 51
153.4264048516052981
  0
ARC
  5
949B
  8
0
 10
3993.1061739672859403
 20
73.660341515015034
 30
0.0
 40
0.1023510808586421
 50
153.4264048516052981
 51
204.9432064790381958
  0
ARC
  5
949C
  8
0
 10
3993.1291135732981274
 20
73.6710107589109384
 30
0.0
 40
0.1276504541573414
 50
204.9432064790381958
 51
246.969109440174492
  0
ARC
  5
949D
  8
0
 10
3993.1545818851609511
 20
73.7309205169073607
 30
0.0
 40
0.1927489488582302
 50
246.969109440174492
 51
287.125128638958472
  0
ARC
  5
949E
  8
0
 10
3993.1774444490938549
 20
73.6567203994621735
 30
0.0
 40
0.1151064717052715
 50
287.125128638958472
 51
338.0566292607110768
  0
ARC
  5
949F
  8
0
 10
3993.1907180530911319
 20
73.6513727699824017
 30
0.0
 40
0.100796136135264
 50
338.0566292607110768
 51
31.1976469621346908
  0
ARC
  5
94A0
  8
0
 10
3993.1624168764069509
 20
73.6342345566826566
 30
0.0
 40
0.1338820085999631
 50
31.1976469621346908
 51
63.9984721503972409
  0
ARC
  5
94A1
  8
0
 10
3993.1387542401739665
 20
73.585722246033356
 30
0.0
 40
0.1878576015845608
 50
63.9984721503972409
 51
84.318838205238805
  0
ARC
  5
94A2
  8
0
 10
3993.1440085661120065
 20
73.694702740537366
 30
0.0
 40
0.0933689128342034
 50
134.8315354248030928
 51
252.6955893336651968
  0
ARC
  5
94A3
  8
0
 10
3993.1440085661120065
 20
73.694702740537366
 30
0.0
 40
0.0933689128342034
 50
317.8158279364960208
 51
43.2892718396821792
  0
ARC
  5
94A4
  8
0
 10
3993.1446711398662046
 20
73.7219091136529983
 30
0.0
 40
0.1454744011224272
 50
197.0459658415271917
 51
345.5358593766176227
  0
ARC
  5
94A5
  8
0
 10
3993.141981176373065
 20
74.0751422393354346
 30
0.0
 40
0.053340073914535
 50
86.5436946793946333
 51
198.4023246923713941
  0
ARC
  5
94A6
  8
0
 10
3993.1403223358011019
 20
74.0745903417696354
 30
0.0
 40
0.051591833952649
 50
198.4023246923713941
 51
275.4215915704173199
  0
ARC
  5
94A7
  8
0
 10
3993.1466472872430131
 20
74.0795872097090182
 30
0.0
 40
0.0563765618802766
 50
268.525813511788499
 51
343.790375536273018
  0
ARC
  5
94A8
  8
0
 10
3993.1477349928159128
 20
74.0743649988898483
 30
0.0
 40
0.0540798839809999
 50
348.7878264914709803
 51
92.6900029226422788
  0
ARC
  5
94A9
  8
0
 10
3993.1437266686821204
 20
74.085922216537881
 30
0.0
 40
0.087455636302521
 50
211.7766659779182987
 51
270.9632640099114838
  0
ARC
  5
94AA
  8
0
 10
3993.1353920063320402
 20
74.0807592049823711
 30
0.0
 40
0.0776513879982672
 50
169.6510366562785919
 51
211.7766659779182987
  0
ARC
  5
94AB
  8
0
 10
3993.143406450558814
 20
74.0707544244032192
 30
0.0
 40
0.0877360013887729
 50
95.5539989263954368
 51
164.1555240633734059
  0
ARC
  5
94AC
  8
0
 10
3993.1465287348742095
 20
74.0858782557319842
 30
0.0
 40
0.087409462993095
 50
269.1269752902226173
 51
331.0644360775921768
  0
ARC
  5
94AD
  8
0
 10
3993.1698845331989105
 20
74.0759775473982813
 30
0.0
 40
0.0622349069558286
 50
328.6374736489843826
 51
6.9540997524238568
  0
ARC
  5
94AE
  8
0
 10
3993.1520311334497819
 20
74.0768967517799979
 30
0.0
 40
0.0799048281514303
 50
4.7493232466000279
 51
64.1234310398365324
  0
ARC
  5
94AF
  8
0
 10
3993.1452171593091407
 20
74.0656008395869208
 30
0.0
 40
0.0930497691628509
 50
63.3839751870512416
 51
96.3566142337626133
  0
ARC
  5
94B0
  8
0
 10
3993.1407182135440053
 20
74.0093308098641387
 30
0.0
 40
0.1615246148499113
 50
84.0896544954623124
 51
126.5142130468883011
  0
ARC
  5
94B1
  8
0
 10
3993.1041861335579597
 20
74.0586754778498175
 30
0.0
 40
0.1001284494426123
 50
126.5142130468883011
 51
153.4264048516052981
  0
ARC
  5
94B2
  8
0
 10
3993.1061739672859403
 20
74.0576811904251713
 30
0.0
 40
0.1023510808586421
 50
153.4264048516052981
 51
204.9432064790381958
  0
ARC
  5
94B3
  8
0
 10
3993.1291135732981274
 20
74.0683504343210757
 30
0.0
 40
0.1276504541573414
 50
204.9432064790381958
 51
246.969109440174492
  0
ARC
  5
94B4
  8
0
 10
3993.1545818851609511
 20
74.1282601923174411
 30
0.0
 40
0.1927489488582302
 50
246.969109440174492
 51
287.125128638958472
  0
ARC
  5
94B5
  8
0
 10
3993.1774444490938549
 20
74.054060074872325
 30
0.0
 40
0.1151064717052715
 50
287.125128638958472
 51
338.0566292607110768
  0
ARC
  5
94B6
  8
0
 10
3993.1907180530911319
 20
74.0487124453925389
 30
0.0
 40
0.100796136135264
 50
338.0566292607110768
 51
31.1976469621346908
  0
ARC
  5
94B7
  8
0
 10
3993.1624168764069509
 20
74.031574232092737
 30
0.0
 40
0.1338820085999631
 50
31.1976469621346908
 51
63.9984721503972409
  0
ARC
  5
94B8
  8
0
 10
3993.1387542401739665
 20
73.9830619214434932
 30
0.0
 40
0.1878576015845608
 50
63.9984721503972409
 51
84.318838205238805
  0
ARC
  5
94B9
  8
0
 10
3993.1440085661120065
 20
74.0920424159474464
 30
0.0
 40
0.0933689128342034
 50
134.8315354248030928
 51
252.6955893336651968
  0
ARC
  5
94BA
  8
0
 10
3993.1440085661120065
 20
74.0920424159474464
 30
0.0
 40
0.0933689128342034
 50
317.8158279364960208
 51
43.2892718396821792
  0
ARC
  5
94BB
  8
0
 10
3993.1446711398662046
 20
74.1192487890630787
 30
0.0
 40
0.1454744011224272
 50
197.0459658415271917
 51
345.5358593766176227
  0
ARC
  5
94BC
  8
0
 10
3993.6097629381929437
 20
73.6778025639253542
 30
0.0
 40
0.053340073914535
 50
86.5436946793946333
 51
198.4023246923713941
  0
ARC
  5
94BD
  8
0
 10
3993.6081040976209806
 20
73.6772506663594982
 30
0.0
 40
0.051591833952649
 50
198.4023246923713941
 51
275.4215915704173199
  0
ARC
  5
94BE
  8
0
 10
3993.6144290490628919
 20
73.6822475342989378
 30
0.0
 40
0.0563765618802766
 50
268.525813511788499
 51
343.790375536273018
  0
ARC
  5
94BF
  8
0
 10
3993.6155167546357916
 20
73.6770253234797536
 30
0.0
 40
0.0540798839809999
 50
348.7878264914709803
 51
92.6900029226422788
  0
ARC
  5
94C0
  8
0
 10
3993.6115084305019991
 20
73.6885825411277438
 30
0.0
 40
0.087455636302521
 50
211.7766659779182987
 51
270.9632640099114838
  0
ARC
  5
94C1
  8
0
 10
3993.6031737681519189
 20
73.6834195295722907
 30
0.0
 40
0.0776513879982672
 50
169.6510366562785919
 51
211.7766659779182987
  0
ARC
  5
94C2
  8
0
 10
3993.6111882123800569
 20
73.6734147489931388
 30
0.0
 40
0.0877360013887729
 50
95.5539989263954368
 51
164.1555240633734059
  0
ARC
  5
94C3
  8
0
 10
3993.6143104966940882
 20
73.6885385803219037
 30
0.0
 40
0.087409462993095
 50
269.1269752902226173
 51
331.0644360775921768
  0
ARC
  5
94C4
  8
0
 10
3993.6376662950201535
 20
73.6786378719882009
 30
0.0
 40
0.0622349069558286
 50
328.6374736489843826
 51
6.9540997524238568
  0
ARC
  5
94C5
  8
0
 10
3993.6198128952701154
 20
73.6795570763699033
 30
0.0
 40
0.0799048281514303
 50
4.7493232466000279
 51
64.1234310398365324
  0
ARC
  5
94C6
  8
0
 10
3993.6129989211299289
 20
73.6682611641768403
 30
0.0
 40
0.0930497691628509
 50
63.3839751870512416
 51
96.3566142337626133
  0
ARC
  5
94C7
  8
0
 10
3993.6084999753647935
 20
73.6119911344540583
 30
0.0
 40
0.1615246148499113
 50
84.0896544954623124
 51
126.5142130468883011
  0
ARC
  5
94C8
  8
0
 10
3993.5719678953792027
 20
73.6613358024397371
 30
0.0
 40
0.1001284494426123
 50
126.5142130468883011
 51
153.4264048516052981
  0
ARC
  5
94C9
  8
0
 10
3993.573955729105819
 20
73.660341515015034
 30
0.0
 40
0.1023510808586421
 50
153.4264048516052981
 51
204.9432064790381958
  0
ARC
  5
94CA
  8
0
 10
3993.5968953351180062
 20
73.6710107589109384
 30
0.0
 40
0.1276504541573414
 50
204.9432064790381958
 51
246.969109440174492
  0
ARC
  5
94CB
  8
0
 10
3993.6223636469808298
 20
73.7309205169073607
 30
0.0
 40
0.1927489488582302
 50
246.969109440174492
 51
287.125128638958472
  0
ARC
  5
94CC
  8
0
 10
3993.6452262109141884
 20
73.6567203994621735
 30
0.0
 40
0.1151064717052715
 50
287.125128638958472
 51
338.0566292607110768
  0
ARC
  5
94CD
  8
0
 10
3993.6584998149110106
 20
73.6513727699824017
 30
0.0
 40
0.100796136135264
 50
338.0566292607110768
 51
31.1976469621346908
  0
ARC
  5
94CE
  8
0
 10
3993.6301986382281939
 20
73.6342345566826566
 30
0.0
 40
0.1338820085999631
 50
31.1976469621346908
 51
63.9984721503972409
  0
ARC
  5
94CF
  8
0
 10
3993.6065360019938453
 20
73.585722246033356
 30
0.0
 40
0.1878576015845608
 50
63.9984721503972409
 51
84.318838205238805
  0
ARC
  5
94D0
  8
0
 10
3993.6117903279327948
 20
73.694702740537366
 30
0.0
 40
0.0933689128342034
 50
134.8315354248030928
 51
252.6955893336651968
  0
ARC
  5
94D1
  8
0
 10
3993.6117903279327948
 20
73.694702740537366
 30
0.0
 40
0.0933689128342034
 50
317.8158279364960208
 51
43.2892718396821792
  0
ARC
  5
94D2
  8
0
 10
3993.6124529016869928
 20
73.7219091136529983
 30
0.0
 40
0.1454744011224272
 50
197.0459658415271917
 51
345.5358593766176227
  0
ARC
  5
94D3
  8
0
 10
3993.6097629381929437
 20
74.0751422393354346
 30
0.0
 40
0.053340073914535
 50
86.5436946793946333
 51
198.4023246923713941
  0
ARC
  5
94D4
  8
0
 10
3993.6081040976209806
 20
74.0745903417696354
 30
0.0
 40
0.051591833952649
 50
198.4023246923713941
 51
275.4215915704173199
  0
ARC
  5
94D5
  8
0
 10
3993.6144290490628919
 20
74.0795872097090182
 30
0.0
 40
0.0563765618802766
 50
268.525813511788499
 51
343.790375536273018
  0
ARC
  5
94D6
  8
0
 10
3993.6155167546357916
 20
74.0743649988898483
 30
0.0
 40
0.0540798839809999
 50
348.7878264914709803
 51
92.6900029226422788
  0
ARC
  5
94D7
  8
0
 10
3993.6115084305019991
 20
74.085922216537881
 30
0.0
 40
0.087455636302521
 50
211.7766659779182987
 51
270.9632640099114838
  0
ARC
  5
94D8
  8
0
 10
3993.6031737681519189
 20
74.0807592049823711
 30
0.0
 40
0.0776513879982672
 50
169.6510366562785919
 51
211.7766659779182987
  0
ARC
  5
94D9
  8
0
 10
3993.6111882123800569
 20
74.0707544244032192
 30
0.0
 40
0.0877360013887729
 50
95.5539989263954368
 51
164.1555240633734059
  0
ARC
  5
94DA
  8
0
 10
3993.6143104966940882
 20
74.0858782557319842
 30
0.0
 40
0.087409462993095
 50
269.1269752902226173
 51
331.0644360775921768
  0
ARC
  5
94DB
  8
0
 10
3993.6376662950201535
 20
74.0759775473982813
 30
0.0
 40
0.0622349069558286
 50
328.6374736489843826
 51
6.9540997524238568
  0
ARC
  5
94DC
  8
0
 10
3993.6198128952701154
 20
74.0768967517799979
 30
0.0
 40
0.0799048281514303
 50
4.7493232466000279
 51
64.1234310398365324
  0
ARC
  5
94DD
  8
0
 10
3993.6129989211299289
 20
74.0656008395869208
 30
0.0
 40
0.0930497691628509
 50
63.3839751870512416
 51
96.3566142337626133
  0
ARC
  5
94DE
  8
0
 10
3993.6084999753647935
 20
74.0093308098641387
 30
0.0
 40
0.1615246148499113
 50
84.0896544954623124
 51
126.5142130468883011
  0
ARC
  5
94DF
  8
0
 10
3993.5719678953792027
 20
74.0586754778498175
 30
0.0
 40
0.1001284494426123
 50
126.5142130468883011
 51
153.4264048516052981
  0
ARC
  5
94E0
  8
0
 10
3993.573955729105819
 20
74.0576811904251713
 30
0.0
 40
0.1023510808586421
 50
153.4264048516052981
 51
204.9432064790381958
  0
ARC
  5
94E1
  8
0
 10
3993.5968953351180062
 20
74.0683504343210757
 30
0.0
 40
0.1276504541573414
 50
204.9432064790381958
 51
246.969109440174492
  0
ARC
  5
94E2
  8
0
 10
3993.6223636469808298
 20
74.1282601923174411
 30
0.0
 40
0.1927489488582302
 50
246.969109440174492
 51
287.125128638958472
  0
ARC
  5
94E3
  8
0
 10
3993.6452262109141884
 20
74.054060074872325
 30
0.0
 40
0.1151064717052715
 50
287.125128638958472
 51
338.0566292607110768
  0
ARC
  5
94E4
  8
0
 10
3993.6584998149110106
 20
74.0487124453925389
 30
0.0
 40
0.100796136135264
 50
338.0566292607110768
 51
31.1976469621346908
  0
ARC
  5
94E5
  8
0
 10
3993.6301986382281939
 20
74.031574232092737
 30
0.0
 40
0.1338820085999631
 50
31.1976469621346908
 51
63.9984721503972409
  0
ARC
  5
94E6
  8
0
 10
3993.6065360019938453
 20
73.9830619214434932
 30
0.0
 40
0.1878576015845608
 50
63.9984721503972409
 51
84.318838205238805
  0
ARC
  5
94E7
  8
0
 10
3993.6117903279327948
 20
74.0920424159474464
 30
0.0
 40
0.0933689128342034
 50
134.8315354248030928
 51
252.6955893336651968
  0
ARC
  5
94E8
  8
0
 10
3993.6117903279327948
 20
74.0920424159474464
 30
0.0
 40
0.0933689128342034
 50
317.8158279364960208
 51
43.2892718396821792
  0
ARC
  5
94E9
  8
0
 10
3993.6124529016869928
 20
74.1192487890630787
 30
0.0
 40
0.1454744011224272
 50
197.0459658415271917
 51
345.5358593766176227
  0
ARC
  5
94EA
  8
0
 10
3994.0878307423581646
 20
73.6778025639253542
 30
0.0
 40
0.053340073914535
 50
86.5436946793946333
 51
198.4023246923713941
  0
ARC
  5
94EB
  8
0
 10
3994.0861719017862015
 20
73.6772506663594982
 30
0.0
 40
0.051591833952649
 50
198.4023246923713941
 51
275.4215915704173199
  0
ARC
  5
94EC
  8
0
 10
3994.0924968532290222
 20
73.6822475342989378
 30
0.0
 40
0.0563765618802766
 50
268.525813511788499
 51
343.790375536273018
  0
ARC
  5
94ED
  8
0
 10
3994.093584558801922
 20
73.6770253234797536
 30
0.0
 40
0.0540798839809999
 50
348.7878264914709803
 51
92.6900029226422788
  0
ARC
  5
94EE
  8
0
 10
3994.0895762346681295
 20
73.6885825411277438
 30
0.0
 40
0.087455636302521
 50
211.7766659779182987
 51
270.9632640099114838
  0
ARC
  5
94EF
  8
0
 10
3994.0812415723171398
 20
73.6834195295722907
 30
0.0
 40
0.0776513879982672
 50
169.6510366562785919
 51
211.7766659779182987
  0
ARC
  5
94F0
  8
0
 10
3994.0892560165448231
 20
73.6734147489931388
 30
0.0
 40
0.0877360013887729
 50
95.5539989263954368
 51
164.1555240633734059
  0
ARC
  5
94F1
  8
0
 10
3994.0923783008588543
 20
73.6885385803219037
 30
0.0
 40
0.087409462993095
 50
269.1269752902226173
 51
331.0644360775921768
  0
ARC
  5
94F2
  8
0
 10
3994.1157340991858291
 20
73.6786378719882009
 30
0.0
 40
0.0622349069558286
 50
328.6374736489843826
 51
6.9540997524238568
  0
ARC
  5
94F3
  8
0
 10
3994.097880699435791
 20
73.6795570763699033
 30
0.0
 40
0.0799048281514303
 50
4.7493232466000279
 51
64.1234310398365324
  0
ARC
  5
94F4
  8
0
 10
3994.0910667252951498
 20
73.6682611641768403
 30
0.0
 40
0.0930497691628509
 50
63.3839751870512416
 51
96.3566142337626133
  0
ARC
  5
94F5
  8
0
 10
3994.0865677795291049
 20
73.6119911344540583
 30
0.0
 40
0.1615246148499113
 50
84.0896544954623124
 51
126.5142130468883011
  0
ARC
  5
94F6
  8
0
 10
3994.0500356995439688
 20
73.6613358024397371
 30
0.0
 40
0.1001284494426123
 50
126.5142130468883011
 51
153.4264048516052981
  0
ARC
  5
94F7
  8
0
 10
3994.0520235332710399
 20
73.660341515015034
 30
0.0
 40
0.1023510808586421
 50
153.4264048516052981
 51
204.9432064790381958
  0
ARC
  5
94F8
  8
0
 10
3994.0749631392832271
 20
73.6710107589109384
 30
0.0
 40
0.1276504541573414
 50
204.9432064790381958
 51
246.969109440174492
  0
ARC
  5
94F9
  8
0
 10
3994.1004314511460507
 20
73.7309205169073607
 30
0.0
 40
0.1927489488582302
 50
246.969109440174492
 51
287.125128638958472
  0
ARC
  5
94FA
  8
0
 10
3994.1232940150789545
 20
73.6567203994621735
 30
0.0
 40
0.1151064717052715
 50
287.125128638958472
 51
338.0566292607110768
  0
ARC
  5
94FB
  8
0
 10
3994.1365676190757767
 20
73.6513727699824017
 30
0.0
 40
0.100796136135264
 50
338.0566292607110768
 51
31.1976469621346908
  0
ARC
  5
94FC
  8
0
 10
3994.1082664423938695
 20
73.6342345566826566
 30
0.0
 40
0.1338820085999631
 50
31.1976469621346908
 51
63.9984721503972409
  0
ARC
  5
94FD
  8
0
 10
3994.0846038061599756
 20
73.585722246033356
 30
0.0
 40
0.1878576015845608
 50
63.9984721503972409
 51
84.318838205238805
  0
ARC
  5
94FE
  8
0
 10
3994.0898581320989251
 20
73.694702740537366
 30
0.0
 40
0.0933689128342034
 50
134.8315354248030928
 51
252.6955893336651968
  0
ARC
  5
94FF
  8
0
 10
3994.0898581320989251
 20
73.694702740537366
 30
0.0
 40
0.0933689128342034
 50
317.8158279364960208
 51
43.2892718396821792
  0
ARC
  5
9500
  8
0
 10
3994.0905207058531232
 20
73.7219091136529983
 30
0.0
 40
0.1454744011224272
 50
197.0459658415271917
 51
345.5358593766176227
  0
ARC
  5
9501
  8
0
 10
3994.0878307423581646
 20
74.0751422393354346
 30
0.0
 40
0.053340073914535
 50
86.5436946793946333
 51
198.4023246923713941
  0
ARC
  5
9502
  8
0
 10
3994.0861719017862015
 20
74.0745903417696354
 30
0.0
 40
0.051591833952649
 50
198.4023246923713941
 51
275.4215915704173199
  0
ARC
  5
9503
  8
0
 10
3994.0924968532290222
 20
74.0795872097090182
 30
0.0
 40
0.0563765618802766
 50
268.525813511788499
 51
343.790375536273018
  0
ARC
  5
9504
  8
0
 10
3994.093584558801922
 20
74.0743649988898483
 30
0.0
 40
0.0540798839809999
 50
348.7878264914709803
 51
92.6900029226422788
  0
ARC
  5
9505
  8
0
 10
3994.0895762346681295
 20
74.085922216537881
 30
0.0
 40
0.087455636302521
 50
211.7766659779182987
 51
270.9632640099114838
  0
ARC
  5
9506
  8
0
 10
3994.0812415723171398
 20
74.0807592049823711
 30
0.0
 40
0.0776513879982672
 50
169.6510366562785919
 51
211.7766659779182987
  0
ARC
  5
9507
  8
0
 10
3994.0892560165448231
 20
74.0707544244032192
 30
0.0
 40
0.0877360013887729
 50
95.5539989263954368
 51
164.1555240633734059
  0
ARC
  5
9508
  8
0
 10
3994.0923783008588543
 20
74.0858782557319842
 30
0.0
 40
0.087409462993095
 50
269.1269752902226173
 51
331.0644360775921768
  0
ARC
  5
9509
  8
0
 10
3994.097880699435791
 20
74.0768967517799979
 30
0.0
 40
0.0799048281514303
 50
4.7493232466000279
 51
64.1234310398365324
  0
ARC
  5
950A
  8
0
 10
3994.1157340991858291
 20
74.0759775473982813
 30
0.0
 40
0.0622349069558286
 50
328.6374736489843826
 51
6.9540997524238568
  0
ARC
  5
950B
  8
0
 10
3994.0865677795291049
 20
74.0093308098641387
 30
0.0
 40
0.1615246148499113
 50
84.0896544954623124
 51
126.5142130468883011
  0
ARC
  5
950C
  8
0
 10
3994.0846038061599756
 20
73.9830619214434932
 30
0.0
 40
0.1878576015845608
 50
63.9984721503972409
 51
84.318838205238805
  0
ARC
  5
950D
  8
0
 10
3994.0910667252951498
 20
74.0656008395869208
 30
0.0
 40
0.0930497691628509
 50
63.3839751870512416
 51
96.3566142337626133
  0
ARC
  5
950E
  8
0
 10
3994.0898581320989251
 20
74.0920424159474464
 30
0.0
 40
0.0933689128342034
 50
134.8315354248030928
 51
252.6955893336651968
  0
ARC
  5
950F
  8
0
 10
3994.0500356995439688
 20
74.0586754778498175
 30
0.0
 40
0.1001284494426123
 50
126.5142130468883011
 51
153.4264048516052981
  0
ARC
  5
9510
  8
0
 10
3994.0520235332710399
 20
74.0576811904251713
 30
0.0
 40
0.1023510808586421
 50
153.4264048516052981
 51
204.9432064790381958
  0
ARC
  5
9511
  8
0
 10
3994.0749631392832271
 20
74.0683504343210757
 30
0.0
 40
0.1276504541573414
 50
204.9432064790381958
 51
246.969109440174492
  0
ARC
  5
9512
  8
0
 10
3994.1004314511460507
 20
74.1282601923174411
 30
0.0
 40
0.1927489488582302
 50
246.969109440174492
 51
287.125128638958472
  0
ARC
  5
9513
  8
0
 10
3994.1232940150789545
 20
74.054060074872325
 30
0.0
 40
0.1151064717052715
 50
287.125128638958472
 51
338.0566292607110768
  0
ARC
  5
9514
  8
0
 10
3994.1365676190757767
 20
74.0487124453925389
 30
0.0
 40
0.100796136135264
 50
338.0566292607110768
 51
31.1976469621346908
  0
ARC
  5
9515
  8
0
 10
3994.1082664423938695
 20
74.031574232092737
 30
0.0
 40
0.1338820085999631
 50
31.1976469621346908
 51
63.9984721503972409
  0
ARC
  5
9516
  8
0
 10
3994.0898581320989251
 20
74.0920424159474464
 30
0.0
 40
0.0933689128342034
 50
317.8158279364960208
 51
43.2892718396821792
  0
ARC
  5
9517
  8
0
 10
3994.0905207058531232
 20
74.1192487890630787
 30
0.0
 40
0.1454744011224272
 50
197.0459658415271917
 51
345.5358593766176227
  0
LINE
  5
9518
  8
0
 10
3986.6776033489691144
 20
88.213443580523176
 30
0.0
 11
3996.5449555577888532
 21
88.2134435805232044
 31
0.0
  0
LINE
  5
9519
  8
0
 10
3991.2175786659781807
 20
90.7162388439130325
 30
0.0
 11
3991.2175786659781807
 21
93.6197821632231779
 31
0.0
  0
LINE
  5
951A
  8
0
 10
3992.0049802405778792
 20
90.7162388441131782
 30
0.0
 11
3992.0049802405778792
 21
93.6197696116216633
 31
0.0
  0
ARC
  5
951B
  8
0
 10
3991.6112794533778469
 20
93.6197821632231779
 30
0.0
 40
0.3937007873999967
 50
359.9981733493619913
 51
180.0
  0
LINE
  5
951C
  8
0
 10
3992.4812794533781926
 20
68.2811994860232403
 30
0.0
 11
3993.0808694037477835
 21
68.2811994860232687
 31
0.0
  0
LINE
  5
951D
  8
0
 10
3991.6572931919240546
 20
88.154388462423185
 30
0.0
 11
3991.5652554325952224
 21
88.154388462423185
 31
0.0
  0
LINE
  5
951E
  8
0
 10
3991.6652088329228718
 20
88.1612297443609236
 30
0.0
 11
3991.6728520692781785
 21
88.2134435805232329
 31
0.0
  0
LINE
  5
951F
  8
0
 10
3991.5573397915918576
 20
88.1612297443785451
 30
0.0
 11
3991.549696555358878
 21
88.2134435805232329
 31
0.0
  0
ARC
  5
9520
  8
0
 10
3991.6572931919240546
 20
88.1623884624231664
 30
0.0
 40
0.008
 50
270.0
 51
351.6719999699856203
  0
ARC
  5
9521
  8
0
 10
3991.5652554325952224
 20
88.1623884624231664
 30
0.0
 40
0.008
 50
188.3279999023876883
 51
270.0
  0
LINE
  5
9522
  8
0
 10
3987.3120668549281618
 20
46.2976327498271019
 30
0.0
 11
3987.3120668549281618
 21
44.3264367887839796
 31
0.0
  0
LINE
  5
9523
  8
0
 10
3987.3396258636062157
 20
46.2961991108427995
 30
0.0
 11
3987.3396258636062157
 21
44.3278704277520532
 31
0.0
  0
LINE
  5
9524
  8
0
 10
3985.2453095033288264
 20
45.8571545528129434
 30
0.0
 11
3985.2453095033288264
 21
44.7669149857819235
 31
0.0
  0
LINE
  5
9525
  8
0
 10
3992.4380511068770829
 20
68.1749002735231784
 30
0.0
 11
3992.4812794534291243
 21
68.1749002735231784
 31
0.0
  0
LINE
  5
9526
  8
0
 10
3992.4380511068770829
 20
66.8126955490231751
 30
0.0
 11
3992.4812794534291243
 21
66.8126955490231751
 31
0.0
  0
ARC
  5
9527
  8
0
 10
3990.9223048949479562
 20
46.4922728662051412
 30
0.0
 40
0.1968485906615469
 50
275.0853252254441941
 51
359.9429099418899227
  0
ARC
  5
9528
  8
0
 10
3992.3002538493337852
 20
46.4922728660892588
 30
0.0
 40
0.1968485906615469
 50
180.0570900581093099
 51
264.9146747745556922
  0
LINE
  5
9529
  8
0
 10
3987.3120668549281618
 20
46.1217506671231803
 30
0.0
 11
3987.3396259101291434
 21
46.1217506671231803
 31
0.0
  0
LINE
  5
952A
  8
0
 10
3987.3120668549281618
 20
44.503640430923177
 30
0.0
 11
3987.3396259101291434
 21
44.503640430923177
 31
0.0
  0
LINE
  5
952B
  8
0
 10
3985.2648375102139653
 20
45.8768538019958001
 30
0.0
 11
3986.070837603127984
 21
45.8838909466231826
 31
0.0
  0
ARC
  5
952C
  8
0
 10
3986.0556789576007759
 20
47.6200879909503172
 30
0.0
 40
1.7362632177364401
 50
270.5002337416253226
 51
274.8660352140720988
  0
ARC
  5
952D
  8
0
 10
3986.1309580413021649
 20
46.7358365315052993
 30
0.0
 40
0.8488131718333884
 50
274.8660352140720988
 51
291.366762683131185
  0
ARC
  5
952E
  8
0
 10
3986.3045262898249348
 20
46.292185163782392
 30
0.0
 40
0.3724178811578301
 50
291.366762683131185
 51
313.2108322826871927
  0
ARC
  5
952F
  8
0
 10
3985.4494647614178575
 20
47.2023883024608821
 30
0.0
 40
1.621257330815868
 50
313.2108322826871927
 51
319.2844641629877174
  0
ARC
  5
9530
  8
0
 10
3986.9956038097930104
 20
45.8717693438694809
 30
0.0
 40
0.4186183442861885
 50
113.3642051638728958
 51
139.284464162987689
  0
ARC
  5
9531
  8
0
 10
3986.9802269448227889
 20
45.9073641764365803
 30
0.0
 40
0.3798441249931295
 50
101.9594843556995016
 51
113.3642051638728958
  0
ARC
  5
9532
  8
0
 10
3987.0584680595429745
 20
45.5379844961324594
 30
0.0
 40
0.7574193098956848
 50
90.1616457725196483
 51
101.9594843556995016
  0
ARC
  5
9533
  8
0
 10
3228.9021269039672006
 20
86929.5434134243259905
 30
0.0
 40
86886.5558243742998457
 50
270.4999575247247776
 51
270.5001261714527914
  0
ARC
  5
9534
  8
0
 10
3985.2650095033282014
 20
45.8571545528129434
 30
0.0
 40
0.0197
 50
90.5002337416253368
 51
180.0
  0
LINE
  5
9535
  8
0
 10
3985.2648375102139653
 20
44.7472157365990526
 30
0.0
 11
3986.070837603127984
 21
44.7401785919716772
 31
0.0
  0
ARC
  5
9536
  8
0
 10
3986.0556789576007759
 20
43.0039815476445426
 30
0.0
 40
1.7362632177364401
 50
85.1339647859279438
 51
89.4997662583746774
  0
ARC
  5
9537
  8
0
 10
3986.1309580413021649
 20
43.8882330070895534
 30
0.0
 40
0.8488131718333884
 50
68.6332373168687155
 51
85.1339647859279438
  0
ARC
  5
9538
  8
0
 10
3986.3045262898249348
 20
44.331884374812482
 30
0.0
 40
0.3724178811578301
 50
46.7891677173128997
 51
68.6332373168687155
  0
ARC
  5
9539
  8
0
 10
3985.4494647614178575
 20
43.4216812361339706
 30
0.0
 40
1.621257330815868
 50
40.7155358370122684
 51
46.7891677173128997
  0
ARC
  5
953A
  8
0
 10
3986.9956038097930104
 20
44.7523001947253789
 30
0.0
 40
0.4186183442861885
 50
220.715535837012311
 51
246.6357948361271895
  0
ARC
  5
953B
  8
0
 10
3986.9802269448227889
 20
44.7167053621582724
 30
0.0
 40
0.3798441249931295
 50
246.6357948361271895
 51
258.0405156443005126
  0
ARC
  5
953C
  8
0
 10
3987.0584680595429745
 20
45.0860850424624005
 30
0.0
 40
0.7574193098956848
 50
258.0405156443005126
 51
269.8383542274802949
  0
ARC
  5
953D
  8
0
 10
3228.9021269039672006
 20
-86838.9193438857328147
 30
0.0
 40
86886.5558243742998457
 50
89.4998738285470949
 51
89.500042475275194
  0
ARC
  5
953E
  8
0
 10
3985.2650095033282014
 20
44.7669149857819235
 30
0.0
 40
0.0197
 50
180.0
 51
269.4997662583746774
  0
LINE
  5
953F
  8
0
 10
3991.0600983510280457
 20
44.1906483049231866
 30
0.0
 11
3992.1624605557290124
 21
44.1906483049231866
 31
0.0
  0
LINE
  5
9540
  8
0
 10
3991.1388385085278969
 20
43.8441916120231809
 30
0.0
 11
3992.083720398227797
 21
43.8441916120231809
 31
0.0
  0
LINE
  5
9541
  8
0
 10
3991.29265257308316
 20
42.6575878766231824
 30
0.0
 11
3991.9299063336738982
 21
42.6575878766231824
 31
0.0
  0
LINE
  5
9542
  8
0
 10
3991.2140371356699688
 20
42.7326405487700285
 30
0.0
 11
3991.1624672241277949
 21
43.8441916120231809
 31
0.0
  0
ARC
  5
9543
  8
0
 10
3991.29265257308316
 20
42.7362878766231802
 30
0.0
 40
0.0787
 50
182.656307148487798
 51
270.0
  0
LINE
  5
9544
  8
0
 10
3991.1388385085278969
 20
44.1906483049231866
 30
0.0
 11
3991.1388385085278969
 21
43.8441916120231809
 31
0.0
  0
LINE
  5
9545
  8
0
 10
3991.0600983510280457
 20
44.1906483049231866
 30
0.0
 11
3991.0600983510280457
 21
44.3282236089967583
 31
0.0
  0
ARC
  5
9546
  8
0
 10
3991.6168554827440857
 20
43.5614661927784397
 30
0.0
 40
0.9360491966487779
 50
90.3413120162721555
 51
115.8697208765995015
  0
ARC
  5
9547
  8
0
 10
3993.0958974238169503
 20
40.5113983882065085
 30
0.0
 40
4.3258100548713916
 50
115.8697208765995015
 51
118.0743446197134006
  0
LINE
  5
9548
  8
0
 10
3995.8829330431499329
 20
44.3278704277520532
 30
0.0
 11
3992.1624605557290124
 21
44.3282236089967583
 31
0.0
  0
ARC
  5
9549
  8
0
 10
3994.5640354303518507
 20
45.3121554923851377
 30
0.0
 40
1.191006219259457
 50
235.7510014803291938
 51
304.2483842221911914
  0
ARC
  5
954A
  8
0
 10
3994.5640354299539467
 20
45.3121551540255965
 30
0.0
 40
1.1908838829171911
 50
55.7219319245038633
 51
124.278068075496094
  0
LINE
  5
954B
  8
0
 10
3995.9104920518279869
 20
46.2976327498271019
 30
0.0
 11
3995.9104920518279869
 21
44.3264367887839796
 31
0.0
  0
LINE
  5
954C
  8
0
 10
3995.8829330431499329
 20
46.2961991108427995
 30
0.0
 11
3995.8829330431499329
 21
44.3278704277520532
 31
0.0
  0
LINE
  5
954D
  8
0
 10
3997.9772494034291412
 20
45.8571545528129434
 30
0.0
 11
3997.9772494034291412
 21
44.7669149857819235
 31
0.0
  0
LINE
  5
954E
  8
0
 10
3995.9104920518279869
 20
46.1217506671231803
 30
0.0
 11
3995.8829329966279147
 21
46.1217506671231803
 31
0.0
  0
LINE
  5
954F
  8
0
 10
3995.9104920518279869
 20
44.503640430923177
 30
0.0
 11
3995.8829329966279147
 21
44.503640430923177
 31
0.0
  0
LINE
  5
9550
  8
0
 10
3997.9577213965421834
 20
45.8768538019958001
 30
0.0
 11
3997.1517213036290741
 21
45.8838909466231826
 31
0.0
  0
ARC
  5
9551
  8
0
 10
3997.1668799491540085
 20
47.6200879909503172
 30
0.0
 40
1.7362632177364401
 50
265.1339647859280149
 51
269.4997662583746774
  0
ARC
  5
9552
  8
0
 10
3997.0916008654548932
 20
46.7358365315052993
 30
0.0
 40
0.8488131718333884
 50
248.6332373168687013
 51
265.1339647859280149
  0
ARC
  5
9553
  8
0
 10
3996.9180326169321233
 20
46.292185163782392
 30
0.0
 40
0.3724178811578301
 50
226.7891677173128926
 51
248.6332373168687013
  0
ARC
  5
9554
  8
0
 10
3997.7730941453378364
 20
47.2023883024608821
 30
0.0
 40
1.621257330815868
 50
220.7155358370121121
 51
226.7891677173128926
  0
ARC
  5
9555
  8
0
 10
3996.2269550969631382
 20
45.8717693438694809
 30
0.0
 40
0.4186183442861885
 50
40.7155358370122684
 51
66.63579483612709
  0
ARC
  5
9556
  8
0
 10
3996.2423319619338145
 20
45.9073641764365803
 30
0.0
 40
0.3798441249931295
 50
66.63579483612709
 51
78.0405156443004415
  0
ARC
  5
9557
  8
0
 10
3996.1640908472140836
 20
45.5379844961324594
 30
0.0
 40
0.7574193098956848
 50
78.0405156443004557
 51
89.8383542274803659
  0
ARC
  5
9558
  8
0
 10
4754.3204320027880385
 20
86929.5434134243259905
 30
0.0
 40
86886.5558243742998457
 50
269.4998738285470949
 51
269.5000424752752224
  0
ARC
  5
9559
  8
0
 10
3997.9575494034279473
 20
45.8571545528129434
 30
0.0
 40
0.0197
 50
0.0
 51
89.4997662583746774
  0
LINE
  5
955A
  8
0
 10
3997.9577213965421834
 20
44.7472157365990526
 30
0.0
 11
3997.1517213036290741
 21
44.7401785919716772
 31
0.0
  0
ARC
  5
955B
  8
0
 10
3997.1668799491540085
 20
43.0039815476445426
 30
0.0
 40
1.7362632177364401
 50
90.5002337416253368
 51
94.8660352140720704
  0
ARC
  5
955C
  8
0
 10
3997.0916008654548932
 20
43.8882330070895534
 30
0.0
 40
0.8488131718333884
 50
94.8660352140720704
 51
111.3667626831312987
  0
ARC
  5
955D
  8
0
 10
3996.9180326169321233
 20
44.331884374812482
 30
0.0
 40
0.3724178811578301
 50
111.3667626831312987
 51
133.2108322826871927
  0
ARC
  5
955E
  8
0
 10
3997.7730941453378364
 20
43.4216812361339706
 30
0.0
 40
1.621257330815868
 50
133.2108322826871927
 51
139.284464162987689
  0
ARC
  5
955F
  8
0
 10
3996.2269550969631382
 20
44.7523001947253789
 30
0.0
 40
0.4186183442861885
 50
293.3642051638728958
 51
319.2844641629877174
  0
ARC
  5
9560
  8
0
 10
3996.2423319619338145
 20
44.7167053621582724
 30
0.0
 40
0.3798441249931295
 50
281.9594843556994874
 51
293.3642051638728958
  0
ARC
  5
9561
  8
0
 10
3996.1640908472140836
 20
45.0860850424624005
 30
0.0
 40
0.7574193098956848
 50
270.1616457725195914
 51
281.9594843556994874
  0
ARC
  5
9562
  8
0
 10
4754.3204320027880385
 20
-86838.9193438857328147
 30
0.0
 40
86886.5558243742998457
 50
90.499957524724806
 51
90.5001261714529051
  0
ARC
  5
9563
  8
0
 10
3997.9575494034279473
 20
44.7669149857819235
 30
0.0
 40
0.0197
 50
270.5002337416253226
 51
0.0
  0
LINE
  5
9564
  8
0
 10
3992.0085217710870893
 20
42.7326405487700285
 30
0.0
 11
3992.060091682627899
 21
43.8441916120231809
 31
0.0
  0
ARC
  5
9565
  8
0
 10
3991.9299063336738982
 20
42.7362878766231802
 30
0.0
 40
0.0787
 50
270.0
 51
357.3436928515121735
  0
LINE
  5
9566
  8
0
 10
3992.083720398227797
 20
44.1906483049231866
 30
0.0
 11
3992.083720398227797
 21
43.8441916120231809
 31
0.0
  0
LINE
  5
9567
  8
0
 10
3992.1624605557290124
 20
44.1906483049231866
 30
0.0
 11
3992.1624605557290124
 21
44.3282236089967583
 31
0.0
  0
ARC
  5
9568
  8
0
 10
3991.6057034240129724
 20
43.5614661927784397
 30
0.0
 40
0.9360491966487779
 50
64.1302791234005269
 51
89.6586879837278445
  0
ARC
  5
9569
  8
0
 10
3990.1266614829391983
 20
40.5113983882065085
 30
0.0
 40
4.3258100548713916
 50
61.9256553802865426
 51
64.1302791234005269
  0
ARC
  5
956A
  8
0
 10
3993.6064506066450122
 20
63.7353877188141666
 30
0.0
 40
2.9811110258240658
 50
85.8482561654404179
 51
94.6809780370277139
  0
LINE
  5
956B
  8
0
 10
3993.363169217127961
 20
66.7065754520231877
 30
0.0
 11
3993.3631692172289149
 21
56.7151220619231822
 31
0.0
  0
LINE
  5
956C
  8
0
 10
3993.8749802408278811
 20
66.7094686596730355
 30
0.0
 11
3993.8749802408278811
 21
56.7151220619231822
 31
0.0
  0
ARC
  5
956D
  8
0
 10
4021.1781298471278205
 20
56.7151220619231893
 30
0.0
 40
27.303149606300039
 50
180.0
 51
198.6050159046147883
  0
ARC
  5
956E
  8
0
 10
3977.0800666816758167
 20
41.8701862982333779
 30
0.0
 40
19.2265322405848984
 50
13.3090461913925608
 51
18.6050159046148806
  0
ARC
  5
956F
  8
0
 10
4021.1781298471278205
 20
56.7151220619231822
 30
0.0
 40
27.8149606298999501
 50
180.0
 51
198.6050159047989041
  0
ARC
  5
9570
  8
0
 10
3977.080066709168932
 20
41.8701863073295186
 30
0.0
 40
18.7147211880255817
 50
13.6800000408555196
 51
18.6050159047989503
  0
LINE
  5
9571
  8
0
 10
3991.3552952014279072
 20
42.6575878766231824
 30
0.0
 11
3991.3552952014279072
 21
40.6890839396231812
 31
0.0
  0
ARC
  5
9572
  8
0
 10
3994.080255788931936
 20
40.6890839396231883
 30
0.0
 40
2.7249605875033871
 50
180.0
 51
223.4510805982044985
  0
ARC
  5
9573
  8
0
 10
3993.8283295656801783
 20
40.4504233462599885
 30
0.0
 40
2.3779365238043391
 50
223.4510805982044985
 51
299.523957859034681
  0
ARC
  5
9574
  8
0
 10
3993.7300507339950855
 20
40.6239612425316423
 30
0.0
 40
2.577371049902069
 50
299.5239578590346241
 51
1.44785238824978
  0
ARC
  5
9575
  8
0
 10
3977.0800699158239695
 20
41.8701864464381117
 30
0.0
 40
19.2265290059043714
 50
0.0
 51
7.3460258388153488
  0
LINE
  5
9576
  8
0
 10
3996.3065989217279821
 20
41.870186446438062
 30
0.0
 11
3996.3065989216279377
 21
40.6890839396231812
 31
0.0
  0
ARC
  5
9577
  8
0
 10
3977.0800666926311351
 20
41.8701863018233098
 30
0.0
 40
18.7147212053979501
 50
0.0
 51
7.5461567986353071
  0
LINE
  5
9578
  8
0
 10
3995.7947878980289715
 20
41.8701863018231819
 30
0.0
 11
3995.7947878980289715
 21
40.6890839396231812
 31
0.0
  0
ARC
  5
9579
  8
0
 10
3993.5853129760907905
 20
40.6890839396232025
 30
0.0
 40
2.2094749219372889
 50
314.752164680351882
 51
359.9999999999992042
  0
ARC
  5
957A
  8
0
 10
3993.8337772779150328
 20
40.4384608004827584
 30
0.0
 40
1.8565635064895281
 50
235.5135649559103115
 51
314.752164680351882
  0
ARC
  5
957B
  8
0
 10
3993.9780082920037785
 20
40.6484247032826076
 30
0.0
 40
2.1112936105294811
 50
178.8965311838188086
 51
235.5135649559101978
  0
LINE
  5
957C
  8
0
 10
3991.8671062250277828
 20
40.6890839396231812
 30
0.0
 11
3991.8671062250277828
 21
42.6575878766231824
 31
0.0
  0
LINE
  5
957D
  8
0
 10
3991.2471062250278919
 20
90.7457664246231843
 30
0.0
 11
3991.975452681727802
 21
90.7457664246231843
 31
0.0
  0
LINE
  5
957E
  8
0
 10
3991.1978936266277742
 20
90.6965537901231897
 30
0.0
 11
3992.0246652801279197
 21
90.6965537901231897
 31
0.0
  0
LINE
  5
957F
  8
0
 10
3991.1388385085278969
 20
90.6583254703231773
 30
0.0
 11
3992.083720398227797
 21
90.6583254703231773
 31
0.0
  0
LINE
  5
9580
  8
0
 10
3991.2175786659781807
 20
90.8638766514231833
 30
0.0
 11
3992.0049802405778792
 21
90.8638766514231833
 31
0.0
  0
LINE
  5
9581
  8
0
 10
3991.1978936266277742
 20
90.6583254703231773
 30
0.0
 11
3991.1978936266277742
 21
90.6965537901231755
 31
0.0
  0
LINE
  5
9582
  8
0
 10
3991.1978936266277742
 20
90.6965537901231755
 30
0.0
 11
3991.2471062250278919
 21
90.7457664246231843
 31
0.0
  0
LINE
  5
9583
  8
0
 10
3991.2471062250278919
 20
90.7457664246231843
 30
0.0
 11
3991.2471062250278919
 21
90.8638766514231833
 31
0.0
  0
LINE
  5
9584
  8
0
 10
3991.1388385085278969
 20
90.6583254703231773
 30
0.0
 11
3991.1388385085278969
 21
89.8709343710116855
 31
0.0
  0
LINE
  5
9585
  8
0
 10
3991.1518007117101661
 20
89.8524224263802154
 30
0.0
 11
3991.2439963853248628
 21
89.8188659454872464
 31
0.0
  0
ARC
  5
9586
  8
0
 10
3991.1585385085281814
 20
89.8709343710116855
 30
0.0
 40
0.0197
 50
180.0
 51
250.0000000170088015
  0
ARC
  5
9587
  8
0
 10
3991.2357718524481243
 20
89.7984238386909652
 30
0.0
 40
0.022034578991321
 50
5.0818951134735739
 51
68.0834527090229784
  0
LINE
  5
9588
  8
0
 10
3991.2577198158310239
 20
89.8003756518603637
 30
0.0
 11
3991.2569487446899075
 21
89.6728215117231855
 31
0.0
  0
ARC
  5
9589
  8
0
 10
3991.2372637049688819
 20
89.6728215117290688
 30
0.0
 40
0.0196850397208006
 50
316.4847265706118264
 51
359.9999999828859245
  0
ARC
  5
958A
  8
0
 10
3991.6049046913890379
 20
89.3237569378533038
 30
0.0
 40
0.4872725242141726
 50
136.4847265706115138
 51
142.6444734329460005
  0
ARC
  5
958B
  8
0
 10
3991.618182806079858
 20
89.3136213742016167
 30
0.0
 40
0.5039769541740444
 50
142.6444734329454036
 51
158.6675640467217079
  0
LINE
  5
958C
  8
0
 10
3990.9571761284000786
 20
89.496908147523186
 30
0.0
 11
3992.26538277835607
 21
89.496908147523186
 31
0.0
  0
ARC
  5
958D
  8
0
 10
4003.0230455868700119
 20
88.4992667348680015
 30
0.0
 40
12.1614165456924894
 50
175.5522144233131883
 51
179.0651055803577094
  0
LINE
  5
958E
  8
0
 10
3990.8238778786289913
 20
88.697695549023166
 30
0.0
 11
3992.3986810281289763
 21
88.697695549023166
 31
0.0
  0
LINE
  5
958F
  8
0
 10
3986.6272558894188478
 20
88.6858845254231767
 30
0.0
 11
3996.5953030173382103
 21
88.6858845254231767
 31
0.0
  0
LINE
  5
9590
  8
0
 10
3990.8238778786289913
 20
88.697695549023166
 30
0.0
 11
3990.8120668549281618
 21
88.6858845254231767
 31
0.0
  0
LINE
  5
9591
  8
0
 10
3986.6115582806050952
 20
88.6699105226420699
 30
0.0
 11
3986.6185123501850285
 21
88.2715121433025445
 31
0.0
  0
ARC
  5
9592
  8
0
 10
3986.6272558894188478
 20
88.6701845254231955
 30
0.0
 40
0.0157
 50
90.0
 51
181.00000000020691
  0
ARC
  5
9593
  8
0
 10
3986.6776033489691144
 20
88.2725435805231768
 30
0.0
 40
0.0591
 50
181.0000000001791989
 51
270.0
  0
LINE
  5
9594
  8
0
 10
3987.2997093819280963
 20
88.213443580523176
 30
0.0
 11
3987.3051752396140728
 21
88.161439419423175
 31
0.0
  0
ARC
  5
9595
  8
0
 10
3987.313006120603859
 20
88.1622624781965953
 30
0.0
 40
0.0078740156734226
 50
186.0000001121757123
 51
270.0000001741262849
  0
LINE
  5
9596
  8
0
 10
3987.3130061206279606
 20
88.1543884625231868
 30
0.0
 11
3987.4701825599281619
 21
88.1543884630008563
 31
0.0
  0
ARC
  5
9597
  8
0
 10
3987.4701825599040603
 20
88.1622960550829475
 30
0.0
 40
0.0079075920821055
 50
270.0000001741262849
 51
353.780898415166007
  0
LINE
  5
9598
  8
0
 10
3987.4780436150431342
 20
88.161439419423175
 30
0.0
 11
3987.4837082983790424
 21
88.2134222986581449
 31
0.0
  0
LINE
  5
9599
  8
0
 10
3987.3643063376280224
 20
88.213443580523176
 30
0.0
 11
3987.369772195225778
 21
88.1614394194508435
 31
0.0
  0
ARC
  5
959A
  8
0
 10
3987.3776412974029881
 20
88.1622664954200417
 30
0.0
 40
0.0079124473927708
 50
186.0000000184735995
 51
264.654235489495079
  0
LINE
  5
959B
  8
0
 10
3987.5561344589291366
 20
88.213443580523176
 30
0.0
 11
3987.5616003166101109
 21
88.161439419462269
 31
0.0
  0
ARC
  5
959C
  8
0
 10
3987.5694311976440076
 20
88.1622624782402795
 30
0.0
 40
0.007874015717092
 50
186.0000001121755986
 51
269.9999998880151111
  0
LINE
  5
959D
  8
0
 10
3987.5694311976280915
 20
88.1543884625231868
 30
0.0
 11
3987.6620408552289518
 21
88.1543884623421832
 31
0.0
  0
ARC
  5
959E
  8
0
 10
3987.662040855243049
 20
88.1622624780994499
 30
0.0
 40
0.007874015757281
 50
269.9999998880151111
 51
354.0000008651730923
  0
LINE
  5
959F
  8
0
 10
3987.6698717363310607
 20
88.1614394194508435
 30
0.0
 11
3987.6753375931270966
 21
88.2134435806074748
 31
0.0
  0
LINE
  5
95A0
  8
0
 10
3987.869365145428219
 20
88.213443580523176
 30
0.0
 11
3987.8748310031101028
 21
88.161439419462269
 31
0.0
  0
ARC
  5
95A1
  8
0
 10
3987.8826618841439995
 20
88.1622624782402795
 30
0.0
 40
0.007874015717092
 50
186.0000001121755986
 51
269.9999998880151111
  0
LINE
  5
95A2
  8
0
 10
3987.8826618841280833
 20
88.1543884625231868
 30
0.0
 11
3987.9752715417280342
 21
88.1543884623421832
 31
0.0
  0
ARC
  5
95A3
  8
0
 10
3987.9752715417439504
 20
88.1622624780994499
 30
0.0
 40
0.007874015757281
 50
269.9999998880151111
 51
354.0000008651730923
  0
LINE
  5
95A4
  8
0
 10
3987.9831024228310525
 20
88.1614394194508435
 30
0.0
 11
3987.9885682796270885
 21
88.2134435806074748
 31
0.0
  0
LINE
  5
95A5
  8
0
 10
3988.0280264244279351
 20
88.213443580523176
 30
0.0
 11
3988.0334922821098189
 21
88.161439419462269
 31
0.0
  0
ARC
  5
95A6
  8
0
 10
3988.0413231631441704
 20
88.1622624782402653
 30
0.0
 40
0.007874015717092
 50
186.0000001121755986
 51
269.9999998880151111
  0
LINE
  5
95A7
  8
0
 10
3988.0413231631277995
 20
88.1543884625231868
 30
0.0
 11
3988.1339328207282051
 21
88.154388462342169
 31
0.0
  0
ARC
  5
95A8
  8
0
 10
3988.1339328207432118
 20
88.1622624780994499
 30
0.0
 40
0.007874015757281
 50
269.9999998880151111
 51
354.0000008651730923
  0
LINE
  5
95A9
  8
0
 10
3988.1417637018312234
 20
88.1614394194508293
 30
0.0
 11
3988.1472295586258952
 21
88.2134435806074748
 31
0.0
  0
LINE
  5
95AA
  8
0
 10
3988.1820376101281909
 20
88.213443580523176
 30
0.0
 11
3988.1875034678109841
 21
88.161439419462269
 31
0.0
  0
ARC
  5
95AB
  8
0
 10
3988.1953343488430619
 20
88.1622624782402653
 30
0.0
 40
0.007874015717092
 50
186.0000001121755986
 51
269.9999998880151111
  0
LINE
  5
95AC
  8
0
 10
3988.1953343488289647
 20
88.1543884625231868
 30
0.0
 11
3988.2879440064280061
 21
88.154388462342169
 31
0.0
  0
ARC
  5
95AD
  8
0
 10
3988.2879440064439223
 20
88.1622624780994499
 30
0.0
 40
0.007874015757281
 50
269.9999998880151111
 51
354.0000008651730923
  0
LINE
  5
95AE
  8
0
 10
3988.2957748875310244
 20
88.1614394194508293
 30
0.0
 11
3988.297860892999779
 21
88.1812864386187272
 31
0.0
  0
LINE
  5
95AF
  8
0
 10
3988.2944810411281651
 20
88.213443580523176
 30
0.0
 11
3988.2999468988109584
 21
88.161439419462269
 31
0.0
  0
ARC
  5
95B0
  8
0
 10
3988.3077777798430361
 20
88.1622624782402653
 30
0.0
 40
0.007874015717092
 50
186.0000001121755986
 51
269.9999998880151111
  0
LINE
  5
95B1
  8
0
 10
3988.3077777798289389
 20
88.1543884625231868
 30
0.0
 11
3988.4003874374279803
 21
88.154388462342169
 31
0.0
  0
ARC
  5
95B2
  8
0
 10
3988.4003874374438965
 20
88.1622624780994499
 30
0.0
 40
0.007874015757281
 50
269.9999998880151111
 51
354.0000008651730923
  0
LINE
  5
95B3
  8
0
 10
3988.4082183185309987
 20
88.1614394194508293
 30
0.0
 11
3988.4136841753261251
 21
88.2134435806074748
 31
0.0
  0
LINE
  5
95B4
  8
0
 10
3988.4833289536281882
 20
88.213443580523176
 30
0.0
 11
3988.488794811310072
 21
88.161439419462269
 31
0.0
  0
ARC
  5
95B5
  8
0
 10
3988.4966256923439687
 20
88.1622624782402653
 30
0.0
 40
0.007874015717092
 50
186.0000001121755986
 51
269.9999998880151111
  0
LINE
  5
95B6
  8
0
 10
3988.496625692328962
 20
88.1543884625231868
 30
0.0
 11
3988.5892353499280034
 21
88.154388462342169
 31
0.0
  0
ARC
  5
95B7
  8
0
 10
3988.5892353499439196
 20
88.1622624780994499
 30
0.0
 40
0.007874015757281
 50
269.9999998880151111
 51
354.0000008651730923
  0
LINE
  5
95B8
  8
0
 10
3988.5970662310319312
 20
88.1614394194508293
 30
0.0
 11
3988.6025320878261482
 21
88.2134435806074748
 31
0.0
  0
LINE
  5
95B9
  8
0
 10
3988.7170322166289225
 20
88.213443580523176
 30
0.0
 11
3988.7224980743098968
 21
88.161439419462269
 31
0.0
  0
ARC
  5
95BA
  8
0
 10
3988.7303289553437935
 20
88.1622624782402653
 30
0.0
 40
0.007874015717092
 50
186.0000001121755986
 51
269.9999998880151111
  0
LINE
  5
95BB
  8
0
 10
3988.7303289553278773
 20
88.1543884625231868
 30
0.0
 11
3988.8229386129278282
 21
88.154388462342169
 31
0.0
  0
ARC
  5
95BC
  8
0
 10
3988.8229386129428349
 20
88.1622624780994499
 30
0.0
 40
0.007874015757281
 50
269.9999998880151111
 51
354.0000008651730923
  0
LINE
  5
95BD
  8
0
 10
3988.8307694940308465
 20
88.1614394194508293
 30
0.0
 11
3988.8328554995000559
 21
88.1812864386187272
 31
0.0
  0
LINE
  5
95BE
  8
0
 10
3988.8294756476279872
 20
88.213443580523176
 30
0.0
 11
3988.834941505309871
 21
88.161439419462269
 31
0.0
  0
ARC
  5
95BF
  8
0
 10
3988.8427723863442225
 20
88.1622624782402653
 30
0.0
 40
0.007874015717092
 50
186.0000001121755986
 51
269.9999998880151111
  0
LINE
  5
95C0
  8
0
 10
3988.8427723863278516
 20
88.1543884625231868
 30
0.0
 11
3989.0241489383301996
 21
88.1543884621686686
 31
0.0
  0
ARC
  5
95C1
  8
0
 10
3988.9353820439428091
 20
88.1622624780994499
 30
0.0
 40
0.007874015757281
 50
269.9999998880151111
 51
354.0000008651730923
  0
LINE
  5
95C2
  8
0
 10
3988.9432129250308208
 20
88.1614394194508293
 30
0.0
 11
3988.9486787818259472
 21
88.2134435806074748
 31
0.0
  0
ARC
  5
95C3
  8
0
 10
3989.0241489383461158
 20
88.1622624780151369
 30
0.0
 40
0.007874015757281
 50
269.9999998880151111
 51
354.0000008651730923
  0
LINE
  5
95C4
  8
0
 10
3989.0319798194332179
 20
88.1614394193665589
 30
0.0
 11
3989.0374456762278896
 21
88.213443580523176
 31
0.0
  0
LINE
  5
95C5
  8
0
 10
3989.0968027255289599
 20
88.213443580523176
 30
0.0
 11
3989.1022685832099341
 21
88.161439419462269
 31
0.0
  0
ARC
  5
95C6
  8
0
 10
3989.1100994642438309
 20
88.1622624782402653
 30
0.0
 40
0.007874015717092
 50
186.0000001121755986
 51
269.9999998880151111
  0
LINE
  5
95C7
  8
0
 10
3989.1100994642279147
 20
88.1543884625231868
 30
0.0
 11
3989.2027091218278656
 21
88.154388462342169
 31
0.0
  0
ARC
  5
95C8
  8
0
 10
3989.2027091218428723
 20
88.1622624780994499
 30
0.0
 40
0.007874015757281
 50
269.9999998880151111
 51
354.0000008651730923
  0
LINE
  5
95C9
  8
0
 10
3989.2105400029308839
 20
88.1614394194508293
 30
0.0
 11
3989.2160058597260104
 21
88.2134435806074748
 31
0.0
  0
LINE
  5
95CA
  8
0
 10
3989.710766533828064
 20
88.213443580523176
 30
0.0
 11
3989.7162323915099478
 21
88.161439419462269
 31
0.0
  0
ARC
  5
95CB
  8
0
 10
3989.724063272542935
 20
88.1622624782402653
 30
0.0
 40
0.007874015717092
 50
186.0000001121755986
 51
269.9999998880151111
  0
LINE
  5
95CC
  8
0
 10
3989.7240632725279283
 20
88.1543884625231868
 30
0.0
 11
3989.8166729301278792
 21
88.154388462342169
 31
0.0
  0
ARC
  5
95CD
  8
0
 10
3989.8166729301437954
 20
88.1622624780994499
 30
0.0
 40
0.007874015757281
 50
269.9999998880151111
 51
354.0000008651730923
  0
LINE
  5
95CE
  8
0
 10
3989.8245038112308976
 20
88.1614394194508293
 30
0.0
 11
3989.829969668026024
 21
88.2134435806074748
 31
0.0
  0
LINE
  5
95CF
  8
0
 10
3989.4256936339279491
 20
88.213443580523176
 30
0.0
 11
3989.4311594916098329
 21
88.161439419462269
 31
0.0
  0
ARC
  5
95D0
  8
0
 10
3989.4389903726441844
 20
88.1622624782402653
 30
0.0
 40
0.007874015717092
 50
186.0000001121755986
 51
269.9999998880151111
  0
LINE
  5
95D1
  8
0
 10
3989.4389903726291777
 20
88.1543884625231868
 30
0.0
 11
3989.6531637107941606
 21
88.1543884621045777
 31
0.0
  0
ARC
  5
95D2
  8
0
 10
3989.5316000302441353
 20
88.1622624780994499
 30
0.0
 40
0.007874015757281
 50
269.9999998880151111
 51
354.0000008651730923
  0
LINE
  5
95D3
  8
0
 10
3989.5394309113307827
 20
88.1614394194508293
 30
0.0
 11
3989.5448967681259091
 21
88.2134435806074748
 31
0.0
  0
ARC
  5
95D4
  8
0
 10
3989.5746356141439719
 20
88.1622624780994499
 30
0.0
 40
0.007874015757281
 50
269.9999998880151111
 51
354.0000008651730923
  0
LINE
  5
95D5
  8
0
 10
3989.5824664952319836
 20
88.1614394194508293
 30
0.0
 11
3989.5879323520262005
 21
88.2134435806074748
 31
0.0
  0
LINE
  5
95D6
  8
0
 10
3989.6610204337957839
 20
88.1614626873633966
 30
0.0
 11
3989.6664838450260504
 21
88.213443580523176
 31
0.0
  0
ARC
  5
95D7
  8
0
 10
3989.6531637108100767
 20
88.1622884621045841
 30
0.0
 40
0.0079
 50
269.9999998880151111
 51
354.0000008651738881
  0
LINE
  5
95D8
  8
0
 10
3990.3824919086277987
 20
88.213443580523176
 30
0.0
 11
3990.3879577663110467
 21
88.161439419462269
 31
0.0
  0
ARC
  5
95D9
  8
0
 10
3990.395788647344034
 20
88.1622624782402795
 30
0.0
 40
0.007874015717092
 50
186.0000001121755986
 51
269.9999998880151111
  0
LINE
  5
95DA
  8
0
 10
3990.3957886473281178
 20
88.1543884625231868
 30
0.0
 11
3990.4883983049280687
 21
88.1543884623421832
 31
0.0
  0
ARC
  5
95DB
  8
0
 10
3990.4883983049439848
 20
88.1622624780994499
 30
0.0
 40
0.007874015757281
 50
269.9999998880151111
 51
354.0000008651730923
  0
LINE
  5
95DC
  8
0
 10
3990.4962291860319965
 20
88.1614394194508435
 30
0.0
 11
3990.5016950428262135
 21
88.2134435806074748
 31
0.0
  0
LINE
  5
95DD
  8
0
 10
3990.0974190087281386
 20
88.213443580523176
 30
0.0
 11
3990.1028848664109319
 21
88.161439419462269
 31
0.0
  0
ARC
  5
95DE
  8
0
 10
3990.1107157474439191
 20
88.1622624782402795
 30
0.0
 40
0.007874015717092
 50
186.0000001121755986
 51
269.9999998880151111
  0
LINE
  5
95DF
  8
0
 10
3990.1107157474280029
 20
88.1543884625231868
 30
0.0
 11
3990.3248890855938953
 21
88.1543884621045777
 31
0.0
  0
ARC
  5
95E0
  8
0
 10
3990.20332540504387
 20
88.1622624780994499
 30
0.0
 40
0.007874015757281
 50
269.9999998880151111
 51
354.0000008651730923
  0
LINE
  5
95E1
  8
0
 10
3990.2111562861309721
 20
88.1614394194508435
 30
0.0
 11
3990.2166221429260986
 21
88.2134435806074748
 31
0.0
  0
ARC
  5
95E2
  8
0
 10
3990.2463609889427971
 20
88.1622624780994499
 30
0.0
 40
0.007874015757281
 50
269.9999998880151111
 51
354.0000008651730923
  0
LINE
  5
95E3
  8
0
 10
3990.2541918700308088
 20
88.1614394194508435
 30
0.0
 11
3990.2596577268259352
 21
88.2134435806074748
 31
0.0
  0
LINE
  5
95E4
  8
0
 10
3990.3327458085959734
 20
88.1614626873634109
 30
0.0
 11
3990.3382092198257851
 21
88.2134435805232044
 31
0.0
  0
ARC
  5
95E5
  8
0
 10
3990.3248890856098114
 20
88.1622884621045841
 30
0.0
 40
0.0079
 50
269.9999998880151111
 51
354.0000008651738881
  0
LINE
  5
95E6
  8
0
 10
3990.813331303727864
 20
88.2134435805232044
 30
0.0
 11
3990.8187971614138405
 21
88.1614394194231892
 31
0.0
  0
ARC
  5
95E7
  8
0
 10
3990.8266280424040815
 20
88.1622624781966238
 30
0.0
 40
0.0078740156734226
 50
186.0000001121755986
 51
270.0000001741262849
  0
LINE
  5
95E8
  8
0
 10
3990.8266280424290926
 20
88.1543884625231868
 30
0.0
 11
3990.9838044817279297
 21
88.1543884630008847
 31
0.0
  0
ARC
  5
95E9
  8
0
 10
3990.9838044817038281
 20
88.162296055082976
 30
0.0
 40
0.0079075920821055
 50
270.0000001741262849
 51
353.780898415166007
  0
LINE
  5
95EA
  8
0
 10
3990.9916655368419924
 20
88.1614394194231892
 30
0.0
 11
3990.9973302201788101
 21
88.2134222986581591
 31
0.0
  0
LINE
  5
95EB
  8
0
 10
3990.8779282594277902
 20
88.2134435805232044
 30
0.0
 11
3990.883394117025091
 21
88.1614394194508435
 31
0.0
  0
ARC
  5
95EC
  8
0
 10
3990.8912632192032106
 20
88.1622664954200559
 30
0.0
 40
0.0079124473927708
 50
186.0000000184735995
 51
264.654235489495079
  0
ARC
  5
95ED
  8
0
 10
3990.9571761284000786
 20
89.4378081475231852
 30
0.0
 40
0.0591
 50
90.0
 51
175.5522144233108008
  0
LINE
  5
95EE
  8
0
 10
3991.2175786660291124
 20
89.8284812089596443
 30
0.0
 11
3991.2175786660291124
 21
89.6194139400231791
 31
0.0
  0
LINE
  5
95EF
  8
0
 10
3991.4224671887282057
 20
90.3433648404231775
 30
0.0
 11
3991.800091718027943
 21
90.3433648404231775
 31
0.0
  0
LINE
  5
95F0
  8
0
 10
3991.4224671887282057
 20
90.3433648404231775
 30
0.0
 11
3991.4224671887282057
 21
89.870243057587345
 31
0.0
  0
ARC
  5
95F1
  8
0
 10
3991.6125879115679709
 20
91.0947152774334938
 30
0.0
 40
1.251904774947376
 50
262.8941434006767963
 51
269.9401159360356246
  0
ARC
  5
95F2
  8
0
 10
3991.4701851490581248
 20
89.9523896014757725
 30
0.0
 40
0.1007373254757959
 50
249.2423260618720917
 51
262.8941434006767963
  0
ARC
  5
95F3
  8
0
 10
3991.4418020697557949
 20
89.8775040190684251
 30
0.0
 40
0.0206533093233449
 50
200.5830104875421114
 51
249.2423260618728875
  0
LINE
  5
95F4
  8
0
 10
3992.0246652801279197
 20
90.6583254703231773
 30
0.0
 11
3992.0246652801279197
 21
90.6965537901231755
 31
0.0
  0
LINE
  5
95F5
  8
0
 10
3992.0246652801279197
 20
90.6965537901231755
 30
0.0
 11
3991.975452681727802
 21
90.7457664246231843
 31
0.0
  0
LINE
  5
95F6
  8
0
 10
3991.975452681727802
 20
90.7457664246231843
 30
0.0
 11
3991.975452681727802
 21
90.8638766514231833
 31
0.0
  0
LINE
  5
95F7
  8
0
 10
3992.083720398227797
 20
90.6583254703231773
 30
0.0
 11
3992.083720398227797
 21
89.8709343710116855
 31
0.0
  0
LINE
  5
95F8
  8
0
 10
3992.0707581950459826
 20
89.8524224263802154
 30
0.0
 11
3991.9785625214308311
 21
89.8188659454872464
 31
0.0
  0
ARC
  5
95F9
  8
0
 10
3992.0640203982279672
 20
89.8709343710116855
 30
0.0
 40
0.0197
 50
289.9999999829911985
 51
0.0
  0
ARC
  5
95FA
  8
0
 10
3991.9867870543089339
 20
89.7984238386909652
 30
0.0
 40
0.022034578991309
 50
111.9165472909758989
 51
174.9181048865426078
  0
LINE
  5
95FB
  8
0
 10
3991.9648390909251248
 20
89.8003756518603637
 30
0.0
 11
3991.9656101620657864
 21
89.6728215117231855
 31
0.0
  0
ARC
  5
95FC
  8
0
 10
3991.985295201786812
 20
89.6728215117290688
 30
0.0
 40
0.0196850397208006
 50
180.0000000171133081
 51
223.515273429388202
  0
ARC
  5
95FD
  8
0
 10
3991.6176542153671107
 20
89.3237569378533038
 30
0.0
 40
0.4872725242141726
 50
37.3555265670539995
 51
43.515273429388472
  0
ARC
  5
95FE
  8
0
 10
3991.6043761006758359
 20
89.3136213742016167
 30
0.0
 40
0.5039769541740444
 50
21.3324359532783312
 51
37.3555265670545609
  0
ARC
  5
95FF
  8
0
 10
3980.1995133198852272
 20
88.4992667348680015
 30
0.0
 40
12.1614165456924894
 50
0.9348944196422742
 51
4.4477855766867682
  0
LINE
  5
9600
  8
0
 10
3992.3986810281289763
 20
88.697695549023166
 30
0.0
 11
3992.4104920518279869
 21
88.6858845254231767
 31
0.0
  0
LINE
  5
9601
  8
0
 10
3996.6110006261519629
 20
88.6699105226420699
 30
0.0
 11
3996.6040465565720297
 21
88.2715121433025445
 31
0.0
  0
ARC
  5
9602
  8
0
 10
3996.5953030173382103
 20
88.6701845254231955
 30
0.0
 40
0.0157
 50
358.9999999997929763
 51
90.0
  0
ARC
  5
9603
  8
0
 10
3996.5449555577888532
 20
88.2725435805231768
 30
0.0
 40
0.0591
 50
270.0
 51
358.9999999998207159
  0
LINE
  5
9604
  8
0
 10
3995.9228495248280524
 20
88.213443580523176
 30
0.0
 11
3995.9173836671420759
 21
88.161439419423175
 31
0.0
  0
ARC
  5
9605
  8
0
 10
3995.9095527861518349
 20
88.1622624781965953
 30
0.0
 40
0.0078740156734226
 50
269.9999998258737151
 51
353.999999887824174
  0
LINE
  5
9606
  8
0
 10
3995.909552786128188
 20
88.1543884625231868
 30
0.0
 11
3995.7523763468279867
 21
88.1543884630008563
 31
0.0
  0
ARC
  5
9607
  8
0
 10
3995.7523763468520883
 20
88.1622960550829475
 30
0.0
 40
0.0079075920821055
 50
186.219101584833993
 51
269.9999998258737151
  0
LINE
  5
9608
  8
0
 10
3995.7445152917139239
 20
88.161439419423175
 30
0.0
 11
3995.7388506083780157
 21
88.2134222986581449
 31
0.0
  0
LINE
  5
9609
  8
0
 10
3995.8582525691281262
 20
88.213443580523176
 30
0.0
 11
3995.8527867115308254
 21
88.1614394194508435
 31
0.0
  0
ARC
  5
960A
  8
0
 10
3995.8449176093531605
 20
88.1622664954200417
 30
0.0
 40
0.0079124473927708
 50
275.345764510504921
 51
353.9999999815262868
  0
LINE
  5
960B
  8
0
 10
3995.6664244478279215
 20
88.213443580523176
 30
0.0
 11
3995.6609585901460377
 21
88.161439419462269
 31
0.0
  0
ARC
  5
960C
  8
0
 10
3995.6531277091130505
 20
88.1622624782402795
 30
0.0
 40
0.007874015717092
 50
270.0000001119847752
 51
353.9999998878242877
  0
LINE
  5
960D
  8
0
 10
3995.6531277091280572
 20
88.1543884625231868
 30
0.0
 11
3995.5605180515290158
 21
88.1543884623421832
 31
0.0
  0
ARC
  5
960E
  8
0
 10
3995.5605180515130996
 20
88.1622624780994499
 30
0.0
 40
0.007874015757281
 50
185.9999991348269077
 51
270.0000001119847752
  0
LINE
  5
960F
  8
0
 10
3995.552687170425088
 20
88.1614394194508435
 30
0.0
 11
3995.547221313630871
 21
88.2134435806074748
 31
0.0
  0
LINE
  5
9610
  8
0
 10
3995.3531937613279297
 20
88.213443580523176
 30
0.0
 11
3995.3477279036460459
 21
88.161439419462269
 31
0.0
  0
ARC
  5
9611
  8
0
 10
3995.3398970226130587
 20
88.1622624782402795
 30
0.0
 40
0.007874015717092
 50
270.0000001119847752
 51
353.9999998878242877
  0
LINE
  5
9612
  8
0
 10
3995.3398970226280653
 20
88.1543884625231868
 30
0.0
 11
3995.2472873650281144
 21
88.1543884623421832
 31
0.0
  0
ARC
  5
9613
  8
0
 10
3995.2472873650131078
 20
88.1622624780994499
 30
0.0
 40
0.007874015757281
 50
185.9999991348269077
 51
270.0000001119847752
  0
LINE
  5
9614
  8
0
 10
3995.2394564839250961
 20
88.1614394194508435
 30
0.0
 11
3995.2339906271299697
 21
88.2134435806074748
 31
0.0
  0
LINE
  5
9615
  8
0
 10
3995.194532482329123
 20
88.213443580523176
 30
0.0
 11
3995.1890666246467845
 21
88.161439419462269
 31
0.0
  0
ARC
  5
9616
  8
0
 10
3995.1812357436128877
 20
88.1622624782402653
 30
0.0
 40
0.007874015717092
 50
270.0000001119847752
 51
353.9999998878242877
  0
LINE
  5
9617
  8
0
 10
3995.1812357436278944
 20
88.1543884625231868
 30
0.0
 11
3995.0886260860279435
 21
88.154388462342169
 31
0.0
  0
ARC
  5
9618
  8
0
 10
3995.0886260860120274
 20
88.1622624780994499
 30
0.0
 40
0.007874015757281
 50
185.9999991348269077
 51
270.0000001119847752
  0
LINE
  5
9619
  8
0
 10
3995.0807952049258347
 20
88.1614394194508293
 30
0.0
 11
3995.075329348131163
 21
88.2134435806074748
 31
0.0
  0
LINE
  5
961A
  8
0
 10
3995.0405212966279578
 20
88.213443580523176
 30
0.0
 11
3995.035055438946074
 21
88.161439419462269
 31
0.0
  0
ARC
  5
961B
  8
0
 10
3995.0272245579130868
 20
88.1622624782402653
 30
0.0
 40
0.007874015717092
 50
270.0000001119847752
 51
353.9999998878242877
  0
LINE
  5
961C
  8
0
 10
3995.0272245579290029
 20
88.1543884625231868
 30
0.0
 11
3994.9346149003281425
 21
88.154388462342169
 31
0.0
  0
ARC
  5
961D
  8
0
 10
3994.9346149003131359
 20
88.1622624780994499
 30
0.0
 40
0.007874015757281
 50
185.9999991348269077
 51
270.0000001119847752
  0
LINE
  5
961E
  8
0
 10
3994.9267840192251242
 20
88.1614394194508293
 30
0.0
 11
3994.9246980137568244
 21
88.1812864386187272
 31
0.0
  0
LINE
  5
961F
  8
0
 10
3994.9280778656279836
 20
88.213443580523176
 30
0.0
 11
3994.9226120079460998
 21
88.161439419462269
 31
0.0
  0
ARC
  5
9620
  8
0
 10
3994.9147811269131125
 20
88.1622624782402653
 30
0.0
 40
0.007874015717092
 50
270.0000001119847752
 51
353.9999998878242877
  0
LINE
  5
9621
  8
0
 10
3994.9147811269281192
 20
88.1543884625231868
 30
0.0
 11
3994.8221714693281683
 21
88.154388462342169
 31
0.0
  0
ARC
  5
9622
  8
0
 10
3994.8221714693117974
 20
88.1622624780994499
 30
0.0
 40
0.007874015757281
 50
185.9999991348269077
 51
270.0000001119847752
  0
LINE
  5
9623
  8
0
 10
3994.8143405882260595
 20
88.1614394194508293
 30
0.0
 11
3994.8088747314300235
 21
88.2134435806074748
 31
0.0
  0
LINE
  5
9624
  8
0
 10
3994.7392299531279605
 20
88.213443580523176
 30
0.0
 11
3994.7337640954460767
 21
88.161439419462269
 31
0.0
  0
ARC
  5
9625
  8
0
 10
3994.7259332144130894
 20
88.1622624782402653
 30
0.0
 40
0.007874015717092
 50
270.0000001119847752
 51
353.9999998878242877
  0
LINE
  5
9626
  8
0
 10
3994.7259332144290056
 20
88.1543884625231868
 30
0.0
 11
3994.6333235568281452
 21
88.154388462342169
 31
0.0
  0
ARC
  5
9627
  8
0
 10
3994.6333235568131386
 20
88.1622624780994499
 30
0.0
 40
0.007874015757281
 50
185.9999991348269077
 51
270.0000001119847752
  0
LINE
  5
9628
  8
0
 10
3994.6254926757260364
 20
88.1614394194508293
 30
0.0
 11
3994.6200268189300004
 21
88.2134435806074748
 31
0.0
  0
LINE
  5
9629
  8
0
 10
3994.5055266901290452
 20
88.213443580523176
 30
0.0
 11
3994.5000608324471614
 21
88.161439419462269
 31
0.0
  0
ARC
  5
962A
  8
0
 10
3994.4922299514128099
 20
88.1622624782402653
 30
0.0
 40
0.007874015717092
 50
270.0000001119847752
 51
353.9999998878242877
  0
LINE
  5
962B
  8
0
 10
3994.4922299514278166
 20
88.1543884625231868
 30
0.0
 11
3994.3996202938278657
 21
88.154388462342169
 31
0.0
  0
ARC
  5
962C
  8
0
 10
3994.399620293812859
 20
88.1622624780994499
 30
0.0
 40
0.007874015757281
 50
185.9999991348269077
 51
270.0000001119847752
  0
LINE
  5
962D
  8
0
 10
3994.3917894127262116
 20
88.1614394194508293
 30
0.0
 11
3994.3897034072560928
 21
88.1812864386187272
 31
0.0
  0
LINE
  5
962E
  8
0
 10
3994.3930832591290709
 20
88.213443580523176
 30
0.0
 11
3994.3876174014458229
 21
88.161439419462269
 31
0.0
  0
ARC
  5
962F
  8
0
 10
3994.3797865204128357
 20
88.1622624782402653
 30
0.0
 40
0.007874015717092
 50
270.0000001119847752
 51
353.9999998878242877
  0
LINE
  5
9630
  8
0
 10
3994.3797865204278423
 20
88.1543884625231868
 30
0.0
 11
3994.198409968425949
 21
88.1543884621686686
 31
0.0
  0
ARC
  5
9631
  8
0
 10
3994.2871768628128848
 20
88.1622624780994499
 30
0.0
 40
0.007874015757281
 50
185.9999991348269077
 51
270.0000001119847752
  0
LINE
  5
9632
  8
0
 10
3994.2793459817248731
 20
88.1614394194508293
 30
0.0
 11
3994.2738801249311109
 21
88.2134435806074748
 31
0.0
  0
ARC
  5
9633
  8
0
 10
3994.1984099684109424
 20
88.1622624780151369
 30
0.0
 40
0.007874015757281
 50
185.9999991348269077
 51
270.0000001119847752
  0
LINE
  5
9634
  8
0
 10
3994.1905790873229307
 20
88.1614394193665589
 30
0.0
 11
3994.1851132305278043
 21
88.213443580523176
 31
0.0
  0
LINE
  5
9635
  8
0
 10
3994.1257561812280983
 20
88.213443580523176
 30
0.0
 11
3994.120290323547124
 21
88.161439419462269
 31
0.0
  0
ARC
  5
9636
  8
0
 10
3994.1124594425132273
 20
88.1622624782402653
 30
0.0
 40
0.007874015717092
 50
270.0000001119847752
 51
353.9999998878242877
  0
LINE
  5
9637
  8
0
 10
3994.1124594425277792
 20
88.1543884625231868
 30
0.0
 11
3994.0198497849278283
 21
88.154388462342169
 31
0.0
  0
ARC
  5
9638
  8
0
 10
3994.0198497849128216
 20
88.1622624780994499
 30
0.0
 40
0.007874015757281
 50
185.9999991348269077
 51
270.0000001119847752
  0
LINE
  5
9639
  8
0
 10
3994.0120189038261742
 20
88.1614394194508293
 30
0.0
 11
3994.0065530470301383
 21
88.2134435806074748
 31
0.0
  0
LINE
  5
963A
  8
0
 10
3993.5117923729280847
 20
88.213443580523176
 30
0.0
 11
3993.5063265152471104
 21
88.161439419462269
 31
0.0
  0
ARC
  5
963B
  8
0
 10
3993.4984956342132136
 20
88.1622624782402653
 30
0.0
 40
0.007874015717092
 50
270.0000001119847752
 51
353.9999998878242877
  0
LINE
  5
963C
  8
0
 10
3993.4984956342291298
 20
88.1543884625231868
 30
0.0
 11
3993.4058859766278147
 21
88.154388462342169
 31
0.0
  0
ARC
  5
963D
  8
0
 10
3993.405885976612808
 20
88.1622624780994499
 30
0.0
 40
0.007874015757281
 50
185.9999991348269077
 51
270.0000001119847752
  0
LINE
  5
963E
  8
0
 10
3993.3980550955247963
 20
88.1614394194508293
 30
0.0
 11
3993.3925892387301246
 21
88.2134435806074748
 31
0.0
  0
LINE
  5
963F
  8
0
 10
3993.7968652728281995
 20
88.213443580523176
 30
0.0
 11
3993.7913994151472252
 21
88.161439419462269
 31
0.0
  0
ARC
  5
9640
  8
0
 10
3993.7835685341128737
 20
88.1622624782402653
 30
0.0
 40
0.007874015717092
 50
270.0000001119847752
 51
353.9999998878242877
  0
LINE
  5
9641
  8
0
 10
3993.7835685341278804
 20
88.1543884625231868
 30
0.0
 11
3993.5693951959619881
 21
88.1543884621045777
 31
0.0
  0
ARC
  5
9642
  8
0
 10
3993.6909588765129229
 20
88.1622624780994499
 30
0.0
 40
0.007874015757281
 50
185.9999991348269077
 51
270.0000001119847752
  0
LINE
  5
9643
  8
0
 10
3993.6831279954249112
 20
88.1614394194508293
 30
0.0
 11
3993.6776621386297847
 21
88.2134435806074748
 31
0.0
  0
ARC
  5
9644
  8
0
 10
3993.6479232926130862
 20
88.1622624780994499
 30
0.0
 40
0.007874015757281
 50
185.9999991348269077
 51
270.0000001119847752
  0
LINE
  5
9645
  8
0
 10
3993.6400924115259841
 20
88.1614394194508293
 30
0.0
 11
3993.6346265547299481
 21
88.2134435806074748
 31
0.0
  0
LINE
  5
9646
  8
0
 10
3993.56153847295991
 20
88.1614626873633966
 30
0.0
 11
3993.5560750617300982
 21
88.213443580523176
 31
0.0
  0
ARC
  5
9647
  8
0
 10
3993.5693951959469814
 20
88.1622884621045841
 30
0.0
 40
0.0079
 50
185.9999991348261119
 51
270.0000001119847752
  0
LINE
  5
9648
  8
0
 10
3992.8400669981278952
 20
88.213443580523176
 30
0.0
 11
3992.8346011404460114
 21
88.161439419462269
 31
0.0
  0
ARC
  5
9649
  8
0
 10
3992.8267702594130242
 20
88.1622624782402795
 30
0.0
 40
0.007874015717092
 50
270.0000001119847752
 51
353.9999998878242877
  0
LINE
  5
964A
  8
0
 10
3992.8267702594289403
 20
88.1543884625231868
 30
0.0
 11
3992.73416060182808
 21
88.1543884623421832
 31
0.0
  0
ARC
  5
964B
  8
0
 10
3992.7341606018130733
 20
88.1622624780994499
 30
0.0
 40
0.007874015757281
 50
185.9999991348269077
 51
270.0000001119847752
  0
LINE
  5
964C
  8
0
 10
3992.7263297207259711
 20
88.1614394194508435
 30
0.0
 11
3992.7208638639299352
 21
88.2134435806074748
 31
0.0
  0
LINE
  5
964D
  8
0
 10
3993.1251398980280101
 20
88.213443580523176
 30
0.0
 11
3993.1196740403470358
 21
88.161439419462269
 31
0.0
  0
ARC
  5
964E
  8
0
 10
3993.111843159313139
 20
88.1622624782402795
 30
0.0
 40
0.007874015717092
 50
270.0000001119847752
 51
353.9999998878242877
  0
LINE
  5
964F
  8
0
 10
3993.1118431593281457
 20
88.1543884625231868
 30
0.0
 11
3992.8976698211617986
 21
88.1543884621045777
 31
0.0
  0
ARC
  5
9650
  8
0
 10
3993.0192335017118239
 20
88.1622624780994499
 30
0.0
 40
0.007874015757281
 50
185.9999991348269077
 51
270.0000001119847752
  0
LINE
  5
9651
  8
0
 10
3993.011402620626086
 20
88.1614394194508435
 30
0.0
 11
3993.00593676383005
 21
88.2134435806074748
 31
0.0
  0
ARC
  5
9652
  8
0
 10
3992.9761979178119873
 20
88.1622624780994499
 30
0.0
 40
0.007874015757281
 50
185.9999991348269077
 51
270.0000001119847752
  0
LINE
  5
9653
  8
0
 10
3992.9683670367257946
 20
88.1614394194508435
 30
0.0
 11
3992.9629011799302134
 21
88.2134435806074748
 31
0.0
  0
LINE
  5
9654
  8
0
 10
3992.8898130981610848
 20
88.1614626873634109
 30
0.0
 11
3992.8843496869299088
 21
88.2134435805232044
 31
0.0
  0
ARC
  5
9655
  8
0
 10
3992.8976698211467919
 20
88.1622884621045841
 30
0.0
 40
0.0079
 50
185.9999991348261119
 51
270.0000001119847752
  0
LINE
  5
9656
  8
0
 10
3992.4092276030278299
 20
88.2134435805232044
 30
0.0
 11
3992.4037617453418534
 21
88.1614394194231892
 31
0.0
  0
ARC
  5
9657
  8
0
 10
3992.3959308643529766
 20
88.1622624781966238
 30
0.0
 40
0.0078740156734226
 50
269.9999998258737151
 51
353.9999998878242877
  0
LINE
  5
9658
  8
0
 10
3992.3959308643279655
 20
88.1543884625231868
 30
0.0
 11
3992.2387544250291285
 21
88.1543884630008847
 31
0.0
  0
ARC
  5
9659
  8
0
 10
3992.2387544250518658
 20
88.162296055082976
 30
0.0
 40
0.0079075920821055
 50
186.219101584833993
 51
269.9999998258737151
  0
LINE
  5
965A
  8
0
 10
3992.2308933699141562
 20
88.1614394194231892
 30
0.0
 11
3992.2252286865777933
 21
88.2134222986581591
 31
0.0
  0
LINE
  5
965B
  8
0
 10
3992.3446306473279037
 20
88.2134435805232044
 30
0.0
 11
3992.3391647897310577
 21
88.1614394194508435
 31
0.0
  0
ARC
  5
965C
  8
0
 10
3992.331295687552938
 20
88.1622664954200559
 30
0.0
 40
0.0079124473927708
 50
275.345764510504921
 51
353.9999999815262868
  0
ARC
  5
965D
  8
0
 10
3992.26538277835607
 20
89.4378081475231852
 30
0.0
 40
0.0591
 50
4.4477855766891912
 51
90.0
  0
LINE
  5
965E
  8
0
 10
3992.0049802407279458
 20
89.8284812089596443
 30
0.0
 11
3992.0049802407279458
 21
89.6194139400231791
 31
0.0
  0
LINE
  5
965F
  8
0
 10
3991.800091718027943
 20
90.3433648404231775
 30
0.0
 11
3991.800091718027943
 21
89.870243057587345
 31
0.0
  0
ARC
  5
9660
  8
0
 10
3991.6099709951881778
 20
91.0947152774334938
 30
0.0
 40
1.251904774947376
 50
270.0598840639643754
 51
277.10585659932309
  0
ARC
  5
9661
  8
0
 10
3991.7523737576980238
 20
89.9523896014757725
 30
0.0
 40
0.1007373254757959
 50
277.10585659932309
 51
290.7576739381278799
  0
ARC
  5
9662
  8
0
 10
3991.780756836999899
 20
89.8775040190684251
 30
0.0
 40
0.0206533093233449
 50
290.7576739381270272
 51
339.4169895124578034
  0
CIRCLE
  5
9663
  8
0
 10
3991.6112794534278692
 20
89.7331286199231641
 30
0.0
 40
0.0236220472
  0
LINE
  5
9664
  8
0
 10
3991.9710197910540046
 20
89.6592674187231893
 30
0.0
 11
3991.251539115702144
 21
89.6592674187231751
 31
0.0
  0
LINE
  5
9665
  8
0
 10
3991.978562521529966
 20
89.8188659455231857
 30
0.0
 11
3991.2439963852270921
 21
89.8188659455231857
 31
0.0
  0
LINE
  5
9666
  8
0
 10
3992.0837203983278414
 20
89.8709238955231768
 30
0.0
 11
3991.800091718027943
 21
89.8709238955231768
 31
0.0
  0
LINE
  5
9667
  8
0
 10
3991.4224671887282057
 20
89.870923895523191
 30
0.0
 11
3991.1388385084278525
 21
89.8709238955231768
 31
0.0
  0
ENDSEC
  0
EOF
