  0
SECTION
  2
HEADER
  9
$ACADVER
  1
AC1009
  9
$INSBASE
 10
4078.6702775529538485
 20
74.2954881980630404
 30
0.0
  9
$EXTMIN
 10
4054.394011384480109
 20
51.429601125080687
 30
-0.0000000349181948
  9
$EXTMAX
 10
4078.9781619673499335
 20
107.3765782486719047
 30
0.0000000814935746
  9
$LIMMIN
 10
0.0
 20
0.0
  9
$LIMMAX
 10
11.6929133858000007
 20
8.2677165353999982
  9
$ORTHOMODE
 70
     0
  9
$REGENMODE
 70
     1
  9
$FILLMODE
 70
     1
  9
$QTEXTMODE
 70
     0
  9
$MIRRTEXT
 70
     0
  9
$DRAGMODE
 70
     2
  9
$LTSCALE
 40
0.6431102362
  9
$OSMODE
 70
  4095
  9
$ATTMODE
 70
     1
  9
$TEXTSIZE
 40
0.2
  9
$TRACEWID
 40
0.05
  9
$TEXTSTYLE
  7
STANDARD
  9
$CLAYER
  8
0
  9
$CELTYPE
  6
BYLAYER
  9
$CECOLOR
 62
   256
  9
$DIMSCALE
 40
1.0
  9
$DIMASZ
 40
0.1875
  9
$DIMEXO
 40
0.0625
  9
$DIMDLI
 40
0.4443307087
  9
$DIMRND
 40
0.0
  9
$DIMDLE
 40
0.0
  9
$DIMEXE
 40
0.125
  9
$DIMTP
 40
0.01
  9
$DIMTM
 40
0.01
  9
$DIMTXT
 40
2.0
  9
$DIMCEN
 40
0.1052362205
  9
$DIMTSZ
 40
0.0
  9
$DIMTOL
 70
     1
  9
$DIMLIM
 70
     0
  9
$DIMTIH
 70
     1
  9
$DIMTOH
 70
     1
  9
$DIMSE1
 70
     0
  9
$DIMSE2
 70
     0
  9
$DIMTAD
 70
     0
  9
$DIMZIN
 70
     0
  9
$DIMBLK
  1

  9
$DIMASO
 70
     1
  9
$DIMSHO
 70
     1
  9
$DIMPOST
  1
\X
  9
$DIMAPOST
  1

  9
$DIMALT
 70
     1
  9
$DIMALTD
 70
     2
  9
$DIMALTF
 40
25.3999999999999986
  9
$DIMLFAC
 40
1.0
  9
$DIMTOFL
 70
     0
  9
$DIMTVP
 40
0.0
  9
$DIMTIX
 70
     0
  9
$DIMSOXD
 70
     0
  9
$DIMSAH
 70
     0
  9
$DIMBLK1
  1

  9
$DIMBLK2
  1

  9
$DIMSTYLE
  2
STANDARD
  9
$DIMCLRD
 70
     0
  9
$DIMCLRE
 70
     0
  9
$DIMCLRT
 70
     0
  9
$DIMTFAC
 40
1.0
  9
$DIMGAP
 40
0.09
  9
$LUNITS
 70
     2
  9
$LUPREC
 70
     4
  9
$SKETCHINC
 40
0.1
  9
$FILLETRAD
 40
0.0
  9
$AUNITS
 70
     0
  9
$AUPREC
 70
     0
  9
$MENU
  1
.
  9
$ELEVATION
 40
0.0
  9
$PELEVATION
 40
0.0
  9
$THICKNESS
 40
0.0
  9
$LIMCHECK
 70
     0
  9
$BLIPMODE
 70
     0
  9
$CHAMFERA
 40
0.0
  9
$CHAMFERB
 40
0.0
  9
$SKPOLY
 70
     0
  9
$TDCREATE
 40
2458060.468368056230247
  9
$TDUPDATE
 40
2460243.6074652778916061
  9
$TDINDWG
 40
0.4230741898
  9
$TDUSRTIMER
 40
0.4230741898
  9
$USRTIMER
 70
     1
  9
$ANGBASE
 50
0.0
  9
$ANGDIR
 70
     0
  9
$PDMODE
 70
     0
  9
$PDSIZE
 40
0.3125
  9
$PLINEWID
 40
0.0
  9
$COORDS
 70
     1
  9
$SPLFRAME
 70
     0
  9
$SPLINETYPE
 70
     6
  9
$SPLINESEGS
 70
     8
  9
$ATTDIA
 70
     1
  9
$ATTREQ
 70
     1
  9
$HANDLING
 70
     1
  9
$HANDSEED
  5
98CB
  9
$SURFTAB1
 70
     6
  9
$SURFTAB2
 70
     6
  9
$SURFTYPE
 70
     6
  9
$SURFU
 70
     6
  9
$SURFV
 70
     6
  9
$UCSNAME
  2

  9
$UCSORG
 10
0.0
 20
0.0
 30
0.0
  9
$UCSXDIR
 10
1.0
 20
0.0
 30
0.0
  9
$UCSYDIR
 10
0.0
 20
1.0
 30
0.0
  9
$PUCSNAME
  2

  9
$PUCSORG
 10
0.0
 20
0.0
 30
0.0
  9
$PUCSXDIR
 10
1.0
 20
0.0
 30
0.0
  9
$PUCSYDIR
 10
0.0
 20
1.0
 30
0.0
  9
$USERI1
 70
     0
  9
$USERI2
 70
     0
  9
$USERI3
 70
     0
  9
$USERI4
 70
     0
  9
$USERI5
 70
     0
  9
$USERR1
 40
0.0
  9
$USERR2
 40
0.0
  9
$USERR3
 40
0.0
  9
$USERR4
 40
0.0
  9
$USERR5
 40
0.0
  9
$WORLDVIEW
 70
     1
  9
$SHADEDGE
 70
     3
  9
$SHADEDIF
 70
    70
  9
$TILEMODE
 70
     1
  9
$MAXACTVP
 70
    64
  9
$PLIMCHECK
 70
     0
  9
$PEXTMIN
 10
1.0000000000000000E+20
 20
1.0000000000000000E+20
 30
1.0000000000000000E+20
  9
$PEXTMAX
 10
-1.0000000000000000E+20
 20
-1.0000000000000000E+20
 30
-1.0000000000000000E+20
  9
$PLIMMIN
 10
0.0
 20
0.0
  9
$PLIMMAX
 10
12.0
 20
9.0
  9
$UNITMODE
 70
     0
  9
$VISRETAIN
 70
     1
  9
$PLINEGEN
 70
     0
  9
$PSLTSCALE
 70
     1
  0
ENDSEC
  0
SECTION
  2
TABLES
  0
TABLE
  2
VPORT
 70
     1
  0
VPORT
  2
*ACTIVE
 70
     0
 10
0.0
 20
0.0
 11
1.0
 21
1.0
 12
274.3281765196651918
 22
-40.7775667462291835
 13
0.0
 23
0.0
 14
1.0
 24
1.0
 15
0.0
 25
0.0
 16
0.0
 26
0.0
 36
5.1040778033513332
 17
3792.35791015625
 27
120.1806564331053977
 37
0.0
 40
56.3880833821214722
 41
2.498684210526315
 42
50.0
 43
0.0
 44
0.0
 50
0.0
 51
0.0
 71
     0
 72
   100
 73
     1
 74
     1
 75
     0
 76
     0
 77
     0
 78
     0
  0
ENDTAB
  0
TABLE
  2
LTYPE
 70
     2
  0
LTYPE
  2
CONTINUOUS
 70
     0
  3
Solid line
 72
    65
 73
     0
 40
0.0
  0
LTYPE
  2
PHANTOM2
 70
     0
  3
___ _ _ ___ _ _ ___ _ _ ___ _ _
 72
    65
 73
     6
 40
1.25
 49
0.625
 49
-0.125
 49
0.125
 49
-0.125
 49
0.125
 49
-0.125
  0
ENDTAB
  0
TABLE
  2
LAYER
 70
     2
  0
LAYER
  2
0
 70
     0
 62
   255
  6
CONTINUOUS
  0
LAYER
  2
DEFPOINTS
 70
     0
 62
     7
  6
CONTINUOUS
  0
ENDTAB
  0
TABLE
  2
STYLE
 70
     1
  0
STYLE
  2
STANDARD
 70
     0
 40
0.0
 41
0.8
 50
0.0
 71
     0
 42
0.2
  3
txt
  4

  0
ENDTAB
  0
TABLE
  2
VIEW
 70
     0
  0
ENDTAB
  0
TABLE
  2
UCS
 70
     0
  0
ENDTAB
  0
TABLE
  2
APPID
 70
     9
  0
APPID
  2
ACAD
 70
     0
  0
APPID
  2
ACAD_MLEADERVER
 70
     0
  0
APPID
  2
ACAD_EXEMPT_FROM_CAD_STANDARDS
 70
     0
  0
APPID
  2
ACAD_NAV_VCDISPLAY
 70
     0
  0
APPID
  2
ACAECLAYERSTANDARD
 70
     0
  0
APPID
  2
ACCMTRANSPARENCY
 70
     0
  0
APPID
  2
ACAD_DSTYLE_DIMJAG
 70
     0
  0
APPID
  2
ACAD_DSTYLE_DIMTALN
 70
     0
  0
APPID
  2
ACDBATTR
 70
     0
  0
ENDTAB
  0
TABLE
  2
DIMSTYLE
 70
     1
  0
DIMSTYLE
  2
STANDARD
 70
     0
  3

  4

  5

  6

  7

 40
1.0
 41
0.1875
 42
0.0625
 43
0.38
 44
0.125
 45
0.0
 46
0.0
 47
0.01
 48
0.01
140
0.15625
141
0.09
142
0.0
143
25.3999999999999986
144
1.0
145
0.0
146
1.0
147
0.09
 71
     1
 72
     0
 73
     1
 74
     1
 75
     0
 76
     0
 77
     0
 78
     4
170
     0
171
     2
172
     0
173
     0
174
     0
175
     0
176
     0
177
     0
178
     0
  0
ENDTAB
  0
ENDSEC
  0
SECTION
  2
BLOCKS
  0
BLOCK
  8
0
  2
$MODEL_SPACE
 70
     0
 10
0.0
 20
0.0
 30
0.0
  3
$MODEL_SPACE
  1

  0
ENDBLK
  5
21
  8
0
  0
BLOCK
 67
     1
  8
0
  2
$PAPER_SPACE
 70
     0
 10
0.0
 20
0.0
 30
0.0
  3
$PAPER_SPACE
  1

  0
ENDBLK
  5
1D
 67
     1
  8
0
  0
BLOCK
  8
0
  2
_FILLED
 70
     0
 10
0.0
 20
0.0
 30
0.0
  3
_FILLED
  1

  0
SOLID
  5
69B4
  8
0
  6
BYBLOCK
 62
     0
 10
0.0
 20
0.0
 30
0.0
 11
-1.0
 21
0.1666666667
 31
0.0
 12
-1.0
 22
-0.1666666667
 32
0.0
 13
-1.0
 23
-0.1666666667
 33
0.0
  0
ENDBLK
  5
69B5
  8
0
  6
BYBLOCK
 62
     0
  0
BLOCK
  8
0
  2
A$CDFAF6206
 70
     0
 10
0.0
 20
0.0
 30
0.0
  3
A$CDFAF6206
  1

  0
LINE
  5
6A0E
  8
0
 10
7.4646650085734834
 20
10.9287685970688493
 30
0.0
 11
7.4646650085734896
 21
10.8905784766688498
 31
0.0
  0
ARC
  5
6A0F
  8
0
 10
7.7269027075262349
 20
10.8926811525838598
 30
0.0
 40
0.2622461286616791
 50
180.4593995232625048
 51
217.0214027758331099
  0
LINE
  5
6A10
  8
0
 10
9.767814609867095
 20
10.9287685970688493
 30
0.0
 11
9.767814609867095
 21
10.8905433757650094
 31
0.0
  0
ARC
  5
6A11
  8
0
 10
9.5068669568548287
 20
10.8922438613003703
 30
0.0
 40
0.2609531936261092
 50
322.8847083717149076
 51
359.6266329125650145
  0
LINE
  5
6A12
  8
0
 10
7.517522606271406
 20
10.7347792678688396
 30
0.0
 11
9.7149570120691777
 21
10.7347792678688396
 31
0.0
  0
LINE
  5
6A13
  8
0
 10
7.4646650085734834
 20
10.9287685970688493
 30
0.0
 11
9.7678146123202936
 21
10.9287685970688493
 31
0.0
  0
ARC
  5
6A14
  8
0
 10
4.0826771419203629
 20
8.527951346868889
 30
0.0
 40
4.0826771653999172
 50
13.3117747050523896
 51
32.7200330051415591
  0
ARC
  5
6A15
  8
0
 10
4.0826771460567306
 20
8.5279513475907933
 30
0.0
 40
4.0826771612084691
 50
359.6656501984817851
 51
13.3117747085593798
  0
ARC
  5
6A16
  8
0
 10
13.1498041284835097
 20
8.5279508235212234
 30
0.0
 40
4.0826788382043553
 50
147.2799733478981068
 51
166.6882233021349862
  0
ARC
  5
6A17
  8
0
 10
13.1498064934207992
 20
8.5279506557033251
 30
0.0
 40
4.0826811782395342
 50
166.688228652086309
 51
180.3343397625230011
  0
LINE
  5
6A18
  8
0
 10
8.1652847935202928
 20
8.504127000268852
 30
0.0
 11
9.0671948248202892
 21
8.5041270002687881
 31
0.0
  0
LINE
  5
6A19
  8
0
 10
8.1652847935202786
 20
8.5041270002667204
 30
0.0
 11
8.1652847935202928
 21
8.3607006934688481
 31
0.0
  0
ARC
  5
6A1A
  8
0
 10
5.6196779630382627
 20
8.3631022096452732
 30
0.0
 40
2.545607963272567
 50
342.0511668832173768
 51
359.945947387132378
  0
LINE
  5
6A1B
  8
0
 10
9.0671948248202892
 20
8.5041270002687881
 30
0.0
 11
9.0671948248202892
 21
8.2885990108688503
 31
0.0
  0
ARC
  5
6A1C
  8
0
 10
9.4521885297801163
 20
7.9614488056228501
 30
0.0
 40
0.5052201595850959
 50
139.6436242991769916
 51
174.6757930071850069
  0
ARC
  5
6A1D
  8
0
 10
9.9238413395551746
 20
8.1492417579399508
 30
0.0
 40
0.9848265662939324
 50
188.2263441834095943
 51
209.5593615864376034
  0
ARC
  5
6A1E
  8
0
 10
8.0788764238271256
 20
7.5665710856463297
 30
0.0
 40
0.0393715937169877
 50
162.1669117288323037
 51
227.2023190037006088
  0
ARC
  5
6A1F
  8
0
 10
8.7223682141740682
 20
8.2079667397440517
 30
0.0
 40
0.947895137885075
 50
225.0018610752970858
 51
261.4598823366255829
  0
ARC
  5
6A20
  8
0
 10
8.6645157662702701
 20
8.1695128573935332
 30
0.0
 40
0.9027466462812931
 50
264.7303071214498118
 51
281.8608311947915013
  0
ARC
  5
6A21
  8
0
 10
8.6645157662698935
 20
8.1695128573999671
 30
0.0
 40
0.9027466462876658
 50
299.1741886792128753
 51
299.1743179154552195
  0
ARC
  5
6A22
  8
0
 10
9.0843330931590316
 20
7.4150554710086141
 30
0.0
 40
0.0393703053609601
 50
251.9700352025496954
 51
252.4698971938937859
  0
ARC
  5
6A23
  8
0
 10
9.0843330931590316
 20
7.4150554710086141
 30
0.0
 40
0.0393703053609601
 50
297.2453716727138726
 51
6.8376113572703074
  0
LINE
  5
6A24
  8
0
 10
9.0671948248202892
 20
7.663402160468852
 30
0.0
 11
9.1234233799329516
 21
7.419742732911689
 31
0.0
  0
ARC
  5
6A25
  8
0
 10
8.8843741880892395
 20
9.8961379890094676
 30
0.0
 40
2.5255097382132701
 50
263.792800240752797
 51
274.9514951129821156
  0
ARC
  5
6A26
  8
0
 10
8.8258167405968848
 20
9.2763025889666508
 30
0.0
 40
1.9029970832759311
 50
246.0108363320686067
 51
263.5276935074397215
  0
ARC
  5
6A27
  8
0
 10
8.607491361665744
 20
8.3225444804829642
 30
0.0
 40
1.064510137163637
 50
283.1717405874071005
 51
297.7022170607311864
  0
LINE
  5
6A28
  8
0
 10
9.0671948248202892
 20
8.2885990108688503
 30
0.0
 11
26.2014378595979593
 21
8.2885990108689942
 31
0.0
  0
LINE
  5
6A29
  8
0
 10
26.2014378595979913
 20
7.6634021604689053
 30
0.0
 11
9.0671948248202892
 21
7.6634021604688618
 31
0.0
  0
LINE
  5
6A2A
  8
0
 10
27.8039676758446994
 20
10.9287685970690802
 30
0.0
 11
27.8039676758446888
 21
10.8905784766690807
 31
0.0
  0
ARC
  5
6A2B
  8
0
 10
27.5417299768919399
 20
10.8926811525840801
 30
0.0
 40
0.2622461286616791
 50
322.9785972241680838
 51
359.5406004767386889
  0
LINE
  5
6A2C
  8
0
 10
25.5008180745510913
 20
10.9287685970690305
 30
0.0
 11
25.5008180745510913
 21
10.8905433757651799
 31
0.0
  0
ARC
  5
6A2D
  8
0
 10
25.7617657275633505
 20
10.8922438613005497
 30
0.0
 40
0.2609531936261092
 50
180.3733670874362929
 51
217.1152916282862861
  0
LINE
  5
6A2E
  8
0
 10
27.7511100781467803
 20
10.7347792678690706
 30
0.0
 11
25.5536756723490015
 21
10.7347792678690208
 31
0.0
  0
LINE
  5
6A2F
  8
0
 10
27.8039676758446888
 20
10.9287685970686006
 30
0.0
 11
25.5008180745510806
 21
10.9287685970686006
 31
0.0
  0
ARC
  5
6A30
  8
0
 10
31.1859555424978616
 20
8.5279513468691981
 30
0.0
 40
4.0826771653999172
 50
147.2799669948597057
 51
166.6882252949490066
  0
ARC
  5
6A31
  8
0
 10
31.185955538361501
 20
8.5279513475911024
 30
0.0
 40
4.0826771612084691
 50
166.6882252914419098
 51
180.3343498015194086
  0
ARC
  5
6A32
  8
0
 10
22.1188285559344706
 20
8.5279508235212251
 30
0.0
 40
4.0826788382046102
 50
13.3117766978667795
 51
32.7200266521023977
  0
ARC
  5
6A33
  8
0
 10
22.1188261909974315
 20
8.5279506557034264
 30
0.0
 40
4.0826811782395342
 50
359.665660237478221
 51
13.31177134791497
  0
LINE
  5
6A34
  8
0
 10
27.1033478908979397
 20
8.5041270002690652
 30
0.0
 11
26.2014378595979416
 21
8.5041270002689835
 31
0.0
  0
LINE
  5
6A35
  8
0
 10
27.1033478908979504
 20
8.5041270002669354
 30
0.0
 11
27.1033478908979397
 21
8.3607006934690649
 31
0.0
  0
ARC
  5
6A36
  8
0
 10
29.6489547213799689
 20
8.3631022096455467
 30
0.0
 40
2.545607963272567
 50
180.0540526128687873
 51
197.9488331167837032
  0
LINE
  5
6A37
  8
0
 10
26.2014378595979416
 20
8.5041270002689835
 30
0.0
 11
26.2014378595979487
 21
8.2885990108690457
 31
0.0
  0
ARC
  5
6A38
  8
0
 10
25.8164441546381305
 20
7.9614488056230366
 30
0.0
 40
0.5052201595850959
 50
5.324206992816312
 51
40.3563757008241879
  0
ARC
  5
6A39
  8
0
 10
25.3447913448601803
 20
8.149241757940846
 30
0.0
 40
0.9848265662968968
 50
330.4406384136033807
 51
351.7736558165743759
  0
ARC
  5
6A3A
  8
0
 10
27.1897562605911212
 20
7.5665710856465473
 30
0.0
 40
0.0393715937169877
 50
312.7976809963004143
 51
17.8330882711689185
  0
ARC
  5
6A3B
  8
0
 10
26.5462644702441715
 20
8.2079667397442542
 30
0.0
 40
0.947895137885075
 50
278.5401176633754972
 51
314.9981389247041079
  0
ARC
  5
6A3C
  8
0
 10
26.6041169181479695
 20
8.1695128573937392
 30
0.0
 40
0.9027466462812931
 50
258.139168805210204
 51
275.2696928785518935
  0
ARC
  5
6A3D
  8
0
 10
26.6041169181483497
 20
8.1695128574001732
 30
0.0
 40
0.9027466462876658
 50
240.8256820845460027
 51
240.8258113207880058
  0
ARC
  5
6A3E
  8
0
 10
26.1842995912592293
 20
7.4150554710088086
 30
0.0
 40
0.0393703053609601
 50
287.5301028061073794
 51
288.0299647974517825
  0
ARC
  5
6A3F
  8
0
 10
26.1842995912592293
 20
7.4150554710088086
 30
0.0
 40
0.0393703053609601
 50
173.1623886427310026
 51
242.7546283272870085
  0
LINE
  5
6A40
  8
0
 10
26.2014378595981192
 20
7.6634021604690448
 30
0.0
 11
26.1452093044853093
 21
7.4197427329118826
 31
0.0
  0
ARC
  5
6A41
  8
0
 10
26.384258496328961
 20
9.8961379890096666
 30
0.0
 40
2.5255097382132701
 50
265.0485048870193054
 51
276.2071997592482262
  0
ARC
  5
6A42
  8
0
 10
26.4428159438213299
 20
9.2763025889668516
 30
0.0
 40
1.9029970832759311
 50
276.4723064925619838
 51
293.9891636679327007
  0
ARC
  5
6A43
  8
0
 10
26.6611413227524885
 20
8.3225444804831703
 30
0.0
 40
1.064510137163637
 50
242.2977829392704052
 51
256.8282594125943774
  0
LINE
  5
6A44
  8
0
 62
     4
 10
17.9031473532159602
 20
10.9287685970686006
 30
0.0
 11
24.6329820359843588
 21
20.0952817181593808
 31
0.0
  0
LINE
  5
6A45
  8
0
 62
     4
 10
17.9031473532159602
 20
-0.0000000300842942
 30
0.0
 11
22.3963351323106608
 21
4.993614497796286
 31
0.0
  0
ENDBLK
  5
6A49
  8
0
  0
ENDSEC
  0
SECTION
  2
ENTITIES
  0
ATTDEF
  5
3930
  8
DEFPOINTS
 10
4078.6667703730668109
 20
74.300036881530076
 30
0.0
 40
0.001
  1
K-97821T-B9
  3

  2
MODELNUMBER
 70
     0
1001
ACDBATTR
1070
     0
1070
     1
  0
ATTDEF
  5
3931
  8
DEFPOINTS
 10
4078.6667703730668109
 20
74.2983702148634109
 30
0.0
 40
0.001
  1
ALEO
  3

  2
TRADENAME
 70
     0
1001
ACDBATTR
1070
     0
1070
     1
  0
ATTDEF
  5
3932
  8
DEFPOINTS
 10
4078.6667703730668109
 20
74.2967035481967457
 30
0.0
 40
0.001
  1
SHOWER COLUMN
  3

  2
PRODUCT
 70
     0
1001
ACDBATTR
1070
     0
1070
     1
  0
LINE
  5
936B
  8
0
 10
4074.5187251025840851
 20
89.2465762966358085
 30
0.0
 11
4075.7785377009849981
 21
89.2465762966358085
 31
0.0
  0
ARC
  5
936C
  8
0
 10
4074.5187251025840851
 20
89.2662762966358088
 30
0.0
 40
0.0197
 50
180.0
 51
270.0
  0
LINE
  5
936D
  8
0
 10
4074.4990251025851649
 20
90.4670337769358213
 30
0.0
 11
4074.4990251025851649
 21
89.2662762966358088
 31
0.0
  0
LINE
  5
936E
  8
0
 10
4075.7982377009839183
 20
89.4335944068358089
 30
0.0
 11
4075.7982377009839183
 21
89.2662762966358088
 31
0.0
  0
LINE
  5
936F
  8
0
 10
4074.5187251025840851
 20
91.0379148793706605
 30
0.0
 11
4075.7785377009849981
 21
91.0379148793706605
 31
0.0
  0
LINE
  5
9370
  8
0
 10
4074.5187251025840851
 20
90.6045173022387189
 30
0.0
 11
4075.7785377009849981
 21
90.6045173022387189
 31
0.0
  0
LINE
  5
9371
  8
0
 10
4074.5187251025840851
 20
90.4867337769358215
 30
0.0
 11
4075.7785377009849981
 21
90.4867337769358215
 31
0.0
  0
LINE
  5
9372
  8
0
 10
4074.5974502994840805
 20
90.6045173022387189
 30
0.0
 11
4074.5974502994840805
 21
90.4867337769358215
 31
0.0
  0
LINE
  5
9373
  8
0
 10
4075.6998125041850471
 20
90.4867337769358215
 30
0.0
 11
4075.6998125041850471
 21
90.6045173022387189
 31
0.0
  0
ARC
  5
9374
  8
0
 10
4074.5187251025840851
 20
90.4670337769358213
 30
0.0
 40
0.0197
 50
90.0000000000521254
 51
180.0000000000098055
  0
ARC
  5
9375
  8
0
 10
4075.7785377009849981
 20
90.4670337769358213
 30
0.0
 40
0.0197
 50
0.0000000000097707
 51
90.0
  0
LINE
  5
9376
  8
0
 10
4074.4990251025851649
 20
90.6242173022386766
 30
0.0
 11
4074.4990251025851649
 21
91.0182148793358152
 31
0.0
  0
LINE
  5
9377
  8
0
 10
4075.7982377009839183
 20
91.0182148793358152
 30
0.0
 11
4075.7982377009839183
 21
90.6242173022386766
 31
0.0
  0
ARC
  5
9378
  8
0
 10
4074.5187251025840851
 20
90.6242173022386766
 30
0.0
 40
0.0197
 50
180.0000000000098055
 51
269.9999999999478746
  0
ARC
  5
9379
  8
0
 10
4074.5187251026441118
 20
91.018214879311202
 30
0.0
 40
0.0197000000594514
 50
90.0000001729537473
 51
179.9999999283973011
  0
ARC
  5
937A
  8
0
 10
4075.7785377009249714
 20
91.018214879311202
 30
0.0
 40
0.0197000000594514
 50
0.0000000716385083
 51
89.9999998270983355
  0
ARC
  5
937B
  8
0
 10
4075.7785377009849981
 20
90.6242173022386766
 30
0.0
 40
0.0197
 50
269.9999999999478746
 51
359.9999999999902229
  0
ARC
  5
937C
  8
0
 10
4075.7785377009849981
 20
89.2662762966358656
 30
0.0
 40
0.0197
 50
270.0000000000521254
 51
359.9999999999674856
  0
LINE
  5
937D
  8
0
 10
4078.6702775529538485
 20
88.626497556435794
 30
0.0
 11
4078.6702775529538485
 21
91.1068125170358059
 31
0.0
  0
LINE
  5
937E
  8
0
 10
4078.2765767655550917
 20
88.6559978647346298
 30
0.0
 11
4078.2765767655550917
 21
91.0773122087369558
 31
0.0
  0
LINE
  5
937F
  8
0
 10
4078.2957610796720473
 20
88.6363046154326213
 30
0.0
 11
4078.6702775529538485
 21
88.626497556435794
 31
0.0
  0
LINE
  5
9380
  8
0
 10
4078.2957610796720473
 20
91.0970054580389643
 30
0.0
 11
4078.6702775529538485
 21
91.1068125170358059
 31
0.0
  0
LINE
  5
9381
  8
0
 10
4076.3277578679549151
 20
89.3745405661907171
 30
0.0
 11
4076.8789379073550663
 21
89.3745866196691168
 31
0.0
  0
LINE
  5
9382
  8
0
 10
4076.3277578679549151
 20
90.3587810210357958
 30
0.0
 11
4078.2765767655550917
 21
90.3587810210357958
 31
0.0
  0
LINE
  5
9383
  8
0
 10
4076.3277578679549151
 20
90.3588385881691352
 30
0.0
 11
4076.3277578679549151
 21
90.3587810210357958
 31
0.0
  0
LINE
  5
9384
  8
0
 10
4076.3277578679549151
 20
90.3587810210357958
 30
0.0
 11
4076.3277578679549151
 21
89.3745405661907171
 31
0.0
  0
LINE
  5
9385
  8
0
 10
4076.3277578679549151
 20
89.5516944068358072
 30
0.0
 11
4075.9163377009849683
 21
89.5516944068358072
 31
0.0
  0
ARC
  5
9386
  8
0
 10
4075.9163377009849683
 20
89.4335944068358089
 30
0.0
 40
0.1181
 50
90.0
 51
180.0
  0
LINE
  5
9387
  8
0
 10
4076.3277578679549151
 20
90.1816156666358353
 30
0.0
 11
4075.9163377009849683
 21
90.1816156666358353
 31
0.0
  0
ARC
  5
9388
  8
0
 10
4075.9163377009849683
 20
90.2997156666358336
 30
0.0
 40
0.1181
 50
180.0
 51
270.0
  0
ARC
  5
9389
  8
0
 10
4078.2962767655549214
 20
88.6559978647346298
 30
0.0
 40
0.0197
 50
180.0000000000098055
 51
268.499999999801787
  0
ARC
  5
938A
  8
0
 10
4078.2962767655549214
 20
91.0773122087369558
 30
0.0
 40
0.0197
 50
91.500000000198213
 51
180.0
  0
LINE
  5
938B
  8
0
 10
4075.7982377009839183
 20
90.2997156666358336
 30
0.0
 11
4075.7982377009839183
 21
90.4670337769358213
 31
0.0
  0
ARC
  5
938C
  8
0
 10
4076.4944822760808165
 20
89.8832721020426817
 30
0.0
 40
0.7889112489321983
 50
181.2069267946189086
 51
210.05159110743989
  0
ARC
  5
938D
  8
0
 10
4076.5028584180809048
 20
89.8478517150453655
 30
0.0
 40
0.7973341142382361
 50
150.1104367894122049
 51
178.6486833560657885
  0
LINE
  5
938E
  8
0
 10
4074.9225775909349068
 20
91.0379148793706605
 30
0.0
 11
4074.9225783623351163
 21
90.6045173023735657
 31
0.0
  0
LINE
  5
938F
  8
0
 10
4075.3746853095340157
 20
90.6045173025293167
 30
0.0
 11
4075.3746843443350372
 21
91.0379148793358155
 31
0.0
  0
LINE
  5
9390
  8
0
 10
4074.7549230542558689
 20
105.014920850173894
 30
0.0
 11
4074.7549175954300154
 21
91.0379148793706605
 31
0.0
  0
LINE
  5
9391
  8
0
 10
4074.6565063612310951
 20
89.2465762966358085
 30
0.0
 11
4074.6565041584772189
 21
83.5477502549371849
 31
0.0
  0
LINE
  5
9392
  8
0
 10
4075.5423247970538796
 20
91.0379148793706605
 30
0.0
 11
4075.5423247970538796
 21
105.0142975565705967
 31
0.0
  0
LINE
  5
9393
  8
0
 10
4077.036420366854145
 20
89.3745866196691168
 30
0.0
 11
4078.2765767655550917
 21
89.374520251685297
 31
0.0
  0
LINE
  5
9394
  8
0
 10
4075.6407499939050467
 20
78.635734305100712
 30
0.0
 11
4075.6385518651550228
 21
59.8073971838706626
 31
0.0
  0
ARC
  5
9395
  8
0
 10
4075.1478172925149011
 20
80.8568175543043139
 30
0.0
 40
0.7844070245923653
 50
139.8097995881055056
 51
270.9674064398603264
  0
ARC
  5
9396
  8
0
 10
4026.7591215640809423
 20
62.6377320280576484
 30
0.0
 40
51.3803728554873231
 50
20.2027609876294001
 51
21.3544156557256812
  0
ARC
  5
9397
  8
0
 10
4074.5746947852171616
 20
81.332620409625477
 30
0.0
 40
0.0400583628921653
 50
21.2998538697951112
 51
130.6416442085638892
  0
LINE
  5
9398
  8
0
 10
4074.6564980254038346
 20
59.8561137167902686
 30
0.0
 11
4074.6564980254038346
 21
80.1716085362019015
 31
0.0
  0
LINE
  5
9399
  8
0
 10
4075.6407499939050467
 20
89.2465762966358085
 30
0.0
 11
4075.6407499939050467
 21
81.5453583340978554
 31
0.0
  0
ARC
  5
939A
  8
0
 10
4075.1819646070421186
 20
80.8442167626811852
 30
0.0
 40
0.75573199251876
 50
307.5677424153378183
 51
82.1337960878788493
  0
ARC
  5
939B
  8
0
 10
4120.8294795616975534
 20
97.5930432696927426
 30
0.0
 40
48.3265486816133389
 50
199.401258216964095
 51
200.5823799368986897
  0
ARC
  5
939C
  8
0
 10
4075.2850473321132085
 20
81.5527807311674309
 30
0.0
 40
0.0400583628921653
 50
89.5037380898971264
 51
198.8455283388830992
  0
LINE
  5
939D
  8
0
 10
4075.2865213324121214
 20
81.7729694566179433
 30
0.0
 11
4074.3832623110811255
 21
81.4442100748467936
 31
0.0
  0
LINE
  5
939E
  8
0
 10
4074.4333384572078103
 20
81.4624363006065266
 30
0.0
 11
4074.5093012972811266
 21
81.3124398804260977
 31
0.0
  0
LINE
  5
939F
  8
0
 10
4075.2831700896040275
 20
81.7717497040464139
 30
0.0
 11
4075.3432422128130383
 21
81.5825394417268939
 31
0.0
  0
ARC
  5
93A0
  8
0
 10
4057.215757216908969
 20
75.6441432355290146
 30
0.0
 40
18.1086442776892689
 50
18.7054132130723616
 51
28.6897770615039107
  0
ARC
  5
93A1
  8
0
 10
4074.3791922715490728
 20
81.4553924170971158
 30
0.0
 40
0.0119
 50
198.4295732998070037
 51
289.9999991135750861
  0
ARC
  5
93A2
  8
0
 10
4056.2336292676282028
 20
75.8007404023319822
 30
0.0
 40
19.9783425358640905
 50
17.4378308974897891
 51
27.6137638484497998
  0
ARC
  5
93A3
  8
0
 10
4075.2824512928800686
 20
81.7841517988682654
 30
0.0
 40
0.0119
 50
289.9999991135230175
 51
17.1763383142222494
  0
LINE
  5
93A4
  8
0
 10
4069.9232669011780672
 20
89.4539574731208944
 30
0.0
 11
4070.3620329250779832
 21
89.7470980842208945
 31
0.0
  0
ARC
  5
93A5
  8
0
 10
4070.3850919376559432
 20
89.6951563007918793
 30
0.0
 40
0.0568301586035224
 50
60.6546283372230732
 51
113.9383283783610068
  0
ARC
  5
93A6
  8
0
 10
4060.6579628710101133
 20
78.5745489685733816
 30
0.0
 40
14.8300969892035894
 50
26.0563148128926301
 51
48.8690190985009494
  0
ARC
  5
93A7
  8
0
 10
4318.6650830318203589
 20
261.5773984239738184
 30
0.0
 40
302.5379427144309261
 50
214.742203931155899
 51
214.9367369258089013
  0
ARC
  5
93A8
  8
0
 10
3980.3674557365729925
 20
24.4053299616138695
 30
0.0
 40
110.6172362968347045
 50
33.4763426323030302
 51
35.2975636034739395
  0
ARC
  5
93A9
  8
0
 10
4063.3864479978929012
 20
79.2210565676320329
 30
0.0
 40
11.1342321553867993
 50
30.6654061727040812
 51
33.8371689426357989
  0
ARC
  5
93AA
  8
0
 10
4071.9819202257640427
 20
84.3616228743414069
 30
0.0
 40
1.1195759983635289
 50
358.7656667333764062
 51
28.7296955311889413
  0
ARC
  5
93AB
  8
0
 10
4069.9457839273518402
 20
89.4217321677643042
 30
0.0
 40
0.0393126795453947
 50
124.9434400634811055
 51
202.229798663021711
  0
ARC
  5
93AC
  8
0
 10
4027.2572594675671098
 20
59.6820090149371225
 30
0.0
 40
51.9764143409557633
 50
34.5586087467330287
 51
34.8137916910252088
  0
ARC
  5
93AD
  8
0
 10
4212.6418738472557379
 20
148.5525652454049066
 30
0.0
 40
154.5017008375220939
 50
202.5082147341069003
 51
202.5286616775586026
  0
ARC
  5
93AE
  8
0
 10
4089.3802822105808445
 20
97.5224072321721849
 30
0.0
 40
21.0946691667092487
 50
202.776335558919186
 51
203.7853578547158975
  0
ARC
  5
93AF
  8
0
 10
4074.4409040111381728
 20
90.3632413180589964
 30
0.0
 40
4.521975762304101
 50
206.8982859944576944
 51
209.6561557798814874
  0
ARC
  5
93B0
  8
0
 10
4026.1019728249261789
 20
63.2636080596728689
 30
0.0
 40
50.8892134836439709
 50
28.8893214587033
 51
29.099403077854781
  0
ARC
  5
93B1
  8
0
 10
4079.7213054710869073
 20
92.8753021826733232
 30
0.0
 40
10.3825388766886704
 50
209.7326659398032973
 51
210.5182686191957089
  0
LINE
  5
93B2
  8
0
 10
4070.8393743065857961
 20
87.5017199639820973
 30
0.0
 11
4070.9014668353429443
 21
87.3541041785208989
 31
0.0
  0
ARC
  5
93B3
  8
0
 10
4076.3426707116291254
 20
90.6260149729199469
 30
0.0
 40
6.3243109204923744
 50
211.1235586742814121
 51
214.8551713389176996
  0
ARC
  5
93B4
  8
0
 10
4133.4942924128999948
 20
128.8633973702307003
 30
0.0
 40
75.0865755997285476
 50
213.918764435009308
 51
213.9779650953618102
  0
ARC
  5
93B5
  8
0
 10
10351.3103160075406777
 20
4563.6091437757340827
 30
0.0
 40
7712.3532710348108594
 50
215.4836197233343
 51
215.4847851483860097
  0
ARC
  5
93B6
  8
0
 10
4082.7296775766158135
 20
94.9322331154679517
 30
0.0
 40
14.0112557126564692
 50
216.4951063364480035
 51
217.6092955577535122
  0
ARC
  5
93B7
  8
0
 10
4086.1795423972730532
 20
97.6095104182453355
 30
0.0
 40
18.3782548814968116
 50
218.1355130866031118
 51
218.4535789988449039
  0
ARC
  5
93B8
  8
0
 10
4060.4104746208931829
 20
76.7955247639666112
 30
0.0
 40
14.74680744920901
 50
38.8315558178063966
 51
39.0200638414968566
  0
ARC
  5
93B9
  8
0
 10
4012.2461580615208732
 20
36.516564196141772
 30
0.0
 40
77.5299979448264764
 50
38.9263947648981485
 51
39.5982888204859904
  0
ARC
  5
93BA
  8
0
 10
4071.6508185148900338
 20
84.2098343540495051
 30
0.0
 40
1.3673631974450109
 50
24.7269953847950887
 51
48.272892821996102
  0
ARC
  5
93BB
  8
0
 10
4063.2251296383101362
 20
78.4344916505117311
 30
0.0
 40
11.5651332920293708
 50
31.5813495085047897
 51
33.2868535504426006
  0
ARC
  5
93BC
  8
0
 10
4073.0875704345530721
 20
84.4973609889679409
 30
0.0
 40
0.0118323435254232
 50
211.0854174344256933
 51
305.1155654164688258
  0
ARC
  5
93BD
  8
0
 10
4071.6135003281219724
 20
86.452838583177865
 30
0.0
 40
0.0212403456230125
 50
126.080262787361093
 51
208.4612487505546028
  0
ARC
  5
93BE
  8
0
 10
4071.7685084280601586
 20
86.5231846049811963
 30
0.0
 40
0.1914167430581637
 50
204.8587923457272097
 51
231.5992489823437097
  0
ARC
  5
93BF
  8
0
 10
4071.667246783128121
 20
86.3925939832653711
 30
0.0
 40
0.0262344180682851
 50
227.7521994990246981
 51
305.6220191917212219
  0
ARC
  5
93C0
  8
0
 10
4075.220421264316883
 20
81.2537311645955214
 30
0.0
 40
6.2214056360445751
 50
124.284925090086503
 51
124.6571732209693977
  0
ARC
  5
93C1
  8
0
 10
4071.5727197174078356
 20
86.3671587160203984
 30
0.0
 40
0.0704995538360558
 50
18.8887231575439891
 51
58.1484954492914881
  0
ARC
  5
93C2
  8
0
 10
4071.6705845051669712
 20
86.4450557939460964
 30
0.0
 40
0.0632788743411514
 50
196.538977009689205
 51
240.4982415971703062
  0
LINE
  5
93C3
  8
0
 10
4070.0291787931309955
 20
88.9711299043019892
 30
0.0
 11
4070.0689331421440329
 21
88.9991860533208836
 31
0.0
  0
LINE
  5
93C4
  8
0
 10
4070.0840330158098368
 20
88.8898530754952816
 30
0.0
 11
4070.1253718743441823
 21
88.918876532520855
 31
0.0
  0
LINE
  5
93C5
  8
0
 10
4070.1437036374068157
 20
88.7754768571208928
 30
0.0
 11
4070.1719883628438765
 21
88.7952254342208533
 31
0.0
  0
LINE
  5
93C6
  8
0
 10
4070.1913782530778008
 20
88.7310909946764639
 30
0.0
 11
4070.2305372854448251
 21
88.7584514759209355
 31
0.0
  0
LINE
  5
93C7
  8
0
 10
4070.2521673709438801
 20
88.6174975587208849
 30
0.0
 11
4070.2809494673438167
 21
88.6375943209208543
 31
0.0
  0
LINE
  5
93C8
  8
0
 10
4070.2190012107330404
 20
88.5646580132983416
 30
0.0
 11
4070.2577087478439353
 21
88.5917696130208441
 31
0.0
  0
LINE
  5
93C9
  8
0
 10
4070.2804313439619364
 20
88.4515793159762751
 30
0.0
 11
4070.3092804161437925
 21
88.471721886220891
 31
0.0
  0
LINE
  5
93CA
  8
0
 10
4070.3206704349267966
 20
88.4124159011313822
 30
0.0
 11
4070.3548879091958952
 21
88.4363293497403049
 31
0.0
  0
LINE
  5
93CB
  8
0
 10
4070.3832569492028597
 20
88.3000777509784456
 30
0.0
 11
4070.4118455157108656
 21
88.3200393237119954
 31
0.0
  0
LINE
  5
93CC
  8
0
 10
4070.409456868721918
 20
88.1802137089951259
 30
0.0
 11
4070.4478767247937867
 21
88.2070841923208775
 31
0.0
  0
LINE
  5
93CD
  8
0
 10
4070.4733255488458781
 20
88.06875421595565
 30
0.0
 11
4070.5030353590450432
 21
88.0894986973208631
 31
0.0
  0
LINE
  5
93CE
  8
0
 10
4070.6378517948760418
 20
87.8349149440800261
 30
0.0
 11
4070.6726637752108218
 21
87.8592237542783749
 31
0.0
  0
LINE
  5
93CF
  8
0
 10
4070.7044136018439531
 20
87.7253359572209064
 30
0.0
 11
4070.7352649909248612
 21
87.7468775146074762
 31
0.0
  0
LINE
  5
93D0
  8
0
 10
4070.7843588963150978
 20
87.612927173421923
 30
0.0
 11
4070.8135344431098019
 21
87.633386431468864
 31
0.0
  0
ARC
  5
93D1
  8
0
 10
4070.4201328979079335
 20
88.1649783325267862
 30
0.0
 40
0.0186036097391725
 50
125.0204444186757939
 51
202.0926452158190898
  0
ARC
  5
93D2
  8
0
 10
4070.462688825477926
 20
88.0841314245620168
 30
0.0
 40
0.0186975514049215
 50
207.1722362207073047
 51
304.672386393729596
  0
LINE
  5
93D3
  8
0
 10
4070.4028952225439753
 20
88.1579814158208563
 30
0.0
 11
4070.4460547776438943
 21
88.0755928719208754
 31
0.0
  0
ARC
  5
93D4
  8
0
 10
4070.4343900245298755
 20
88.2237128314563819
 30
0.0
 40
0.0214103415086008
 50
309.0438688720864775
 51
7.3979793214769352
  0
ARC
  5
93D5
  8
0
 10
4070.3324607376371205
 20
88.396103137216798
 30
0.0
 40
0.020127531009628
 50
125.8581041111720964
 51
203.8695870952969074
  0
ARC
  5
93D6
  8
0
 10
4070.7508483969650115
 20
88.5572993873916374
 30
0.0
 40
0.4684709909249627
 50
201.1908648540627098
 51
212.1972028059545892
  0
ARC
  5
93D7
  8
0
 10
4070.372568223936014
 20
88.3180261136186289
 30
0.0
 40
0.0208900112325522
 50
209.682043744060195
 51
300.7749185798742815
  0
ARC
  5
93D8
  8
0
 10
4070.1928316272119446
 20
88.2730131590890181
 30
0.0
 40
0.1626806958014118
 50
18.3885599563319992
 51
35.2869339249210512
  0
ARC
  5
93D9
  8
0
 10
4070.4872271142021418
 20
88.4219665404425967
 30
0.0
 40
0.1706998444106704
 50
198.7881851168666003
 51
214.8873087644093118
  0
LINE
  5
93DA
  8
0
 10
4070.0223564714437998
 20
88.9490908204208779
 30
0.0
 11
4070.0603985662928608
 21
88.8643455917208911
 31
0.0
  0
LINE
  5
93DB
  8
0
 10
4070.0766672691438544
 20
88.8685310755209201
 30
0.0
 11
4070.1080957590229445
 21
88.7961221388111852
 31
0.0
  0
ARC
  5
93DC
  8
0
 10
4070.1329525912929057
 20
88.7911599564874763
 30
0.0
 40
0.0190150086396406
 50
217.0980620338100096
 51
304.4343369516325879
  0
ARC
  5
93DD
  8
0
 10
4070.1832379838829183
 20
88.8293631183687751
 30
0.0
 40
0.0821663962878635
 50
203.8633609033830112
 51
217.1955559875289907
  0
ARC
  5
93DE
  8
0
 10
4070.0954457991460913
 20
88.8739772371763337
 30
0.0
 40
0.0195523365820001
 50
125.7115088325659968
 51
196.1732508846039025
  0
ARC
  5
93DF
  8
0
 10
4070.0391794022489194
 20
88.9559586739535888
 30
0.0
 40
0.0181708121184292
 50
123.392170802390595
 51
202.2074230648345861
  0
ARC
  5
93E0
  8
0
 10
4070.0775925665020623
 20
88.8721077891887461
 30
0.0
 40
0.0188649238713971
 50
204.2967023701395988
 51
286.5429500592833278
  0
ARC
  5
93E1
  8
0
 10
4070.0576607474267803
 20
89.0153246302074734
 30
0.0
 40
0.0196855415614102
 50
304.9333418323606111
 51
23.8795309032809193
  0
ARC
  5
93E2
  8
0
 10
4071.8263273188440508
 20
85.0082555985958805
 30
0.0
 40
0.7902264244969289
 50
19.41621780755505
 51
61.7188584929375423
  0
ARC
  5
93E3
  8
0
 10
4073.8487800211569265
 20
86.7397205509778786
 30
0.0
 40
1.946393239914457
 50
212.1436071424909926
 51
228.991469157996903
  0
ARC
  5
93E4
  8
0
 10
4067.9240476933118771
 20
87.9567670939946851
 30
0.0
 40
2.4014411194897098
 50
23.6035894617571387
 51
26.3670106155091695
  0
ARC
  5
93E5
  8
0
 10
4069.4590648822008916
 20
88.5402991324584434
 30
0.0
 40
0.7824507146687624
 50
18.4511121320422191
 51
30.8730091789061696
  0
ARC
  5
93E6
  8
0
 10
4069.8722717126847783
 20
88.5177184362619727
 30
0.0
 40
0.4515263919986819
 50
14.3868552283036504
 51
35.98530532082858
  0
ARC
  5
93E7
  8
0
 10
4070.5065692605207914
 20
88.8119788248671256
 30
0.0
 40
0.3392949167593449
 50
198.6496864308263923
 51
214.1658573078715904
  0
ARC
  5
93E8
  8
0
 10
4070.2054255100688351
 20
88.7133699646487202
 30
0.0
 40
0.0226132778299696
 50
128.4034583576205932
 51
205.9386410262125082
  0
ARC
  5
93E9
  8
0
 10
4070.2412059351368043
 20
88.6342279762004353
 30
0.0
 40
0.020001498543368
 50
219.7656035440944891
 51
303.2320172966008727
  0
ARC
  5
93EA
  8
0
 10
4070.0980461724411725
 20
88.6120226139502591
 30
0.0
 40
0.1221363669134746
 50
14.2611422563769796
 51
36.8031459656609528
  0
ARC
  5
93EB
  8
0
 10
4070.3191182984910483
 20
88.7176208924337715
 30
0.0
 40
0.1274720521479775
 50
194.7387103963970105
 51
216.3255778256128963
  0
ARC
  5
93EC
  8
0
 10
4180.2468374296386173
 20
140.452415698491393
 30
0.0
 40
121.5892564988205038
 50
205.1401488846966004
 51
205.1703842888757094
  0
ARC
  5
93ED
  8
0
 10
4070.1830927262658406
 20
88.7793225719196357
 30
0.0
 40
0.0193960799230119
 50
97.0596989765904539
 51
124.9251309003571038
  0
ARC
  5
93EE
  8
0
 10
4070.1832304854910944
 20
88.7782101961774259
 30
0.0
 40
0.0205169534198152
 50
28.3130894190731013
 51
97.0596989765904539
  0
ARC
  5
93EF
  8
0
 10
4070.111536529147088
 20
88.9341306728289851
 30
0.0
 40
0.0205938236679339
 50
312.2076988448116026
 51
21.8748470352712694
  0
ARC
  5
93F0
  8
0
 10
4070.2170204246172034
 20
88.7756652463522471
 30
0.0
 40
0.0218865122641999
 50
308.1402555101091139
 51
19.6505382884290789
  0
ARC
  5
93F1
  8
0
 10
4070.2919187665261234
 20
88.6211534747356353
 30
0.0
 40
0.0197642846530342
 50
26.2925186945840714
 51
123.7111371590819004
  0
LINE
  5
93F2
  8
0
 10
4070.3421419052879173
 20
88.5008293318910546
 30
0.0
 11
4070.3796226005570134
 21
88.5304472864441863
 31
0.0
  0
LINE
  5
93F3
  8
0
 10
4070.4095117657871015
 20
88.391010902473937
 30
0.0
 11
4070.4370610605160437
 21
88.4127669426468827
 31
0.0
  0
ARC
  5
93F4
  8
0
 10
4070.0361477810179167
 20
88.2690440245110466
 30
0.0
 40
0.4515263919986819
 50
17.7612488665470387
 51
39.3596989590782229
  0
ARC
  5
93F5
  8
0
 10
4070.6520253679977941
 20
88.6001291394707948
 30
0.0
 40
0.3392949167593449
 50
202.0240800690739889
 51
217.5402509461326019
  0
ARC
  5
93F6
  8
0
 10
4070.3572078716738361
 20
88.4839658509012423
 30
0.0
 40
0.0226132778299696
 50
131.777851995841587
 51
209.3130346644707913
  0
ARC
  5
93F7
  8
0
 10
4070.3975845781828866
 20
88.4070671205791285
 30
0.0
 40
0.020001498543368
 50
223.1399971823865087
 51
306.6064109348582178
  0
ARC
  5
93F8
  8
0
 10
4070.2559800340641232
 20
88.37647383940309
 30
0.0
 40
0.1221363669134746
 50
17.6355358946407605
 51
40.177539603919179
  0
ARC
  5
93F9
  8
0
 10
4070.4704533326839737
 20
88.4949013932671136
 30
0.0
 40
0.1274720521479775
 50
198.1131040346579084
 51
219.6999714638706109
  0
ARC
  5
93FA
  8
0
 10
4070.3651159681739955
 20
88.5468356065523921
 30
0.0
 40
0.0218865122641999
 50
311.5146491483355931
 51
23.0249319266838413
  0
ARC
  5
93FB
  8
0
 10
4070.4489790536272267
 20
88.3970002566270949
 30
0.0
 40
0.0197642846530342
 50
29.6669123328647188
 51
127.0855307973343002
  0
LINE
  5
93FC
  8
0
 10
4070.5368302328379286
 20
88.2142617900410357
 30
0.0
 11
4070.5743109281079342
 21
88.2438797445941958
 31
0.0
  0
LINE
  5
93FD
  8
0
 10
4070.6051628243722007
 20
88.1073225832026736
 30
0.0
 11
4070.6317493880651455
 21
88.1261994007969065
 31
0.0
  0
ARC
  5
93FE
  8
0
 10
4070.3858731059331149
 20
88.0658897685893862
 30
0.0
 40
0.2842427424677305
 50
11.4635963646016901
 51
45.70713202770294
  0
ARC
  5
93FF
  8
0
 10
4070.7526583909370856
 20
88.2612072593463353
 30
0.0
 40
0.2316817598125628
 50
198.7671504721047882
 51
220.6789058507681034
  0
ARC
  5
9400
  8
0
 10
4070.5571568937912161
 20
88.1976343655817772
 30
0.0
 40
0.026261081272843
 50
140.716469394961905
 51
204.6778893412325999
  0
ARC
  5
9401
  8
0
 10
4070.5926307395270669
 20
88.1241957865262862
 30
0.0
 40
0.0210180432237131
 50
221.7778739578438945
 51
306.6020531681161856
  0
ARC
  5
9402
  8
0
 10
4070.4949172005958644
 20
88.117696533873854
 30
0.0
 40
0.0742347657270434
 50
9.8904680727876517
 51
47.2850525532260875
  0
ARC
  5
9403
  8
0
 10
4070.6206884342409467
 20
88.1862343862497369
 30
0.0
 40
0.0767015114954066
 50
190.5129419016305974
 51
226.6625787244051935
  0
ARC
  5
9404
  8
0
 10
4070.5391680815369
 20
88.2724760703012237
 30
0.0
 40
0.0453074994792091
 50
320.8641705386032186
 51
356.0372243598869773
  0
ARC
  5
9405
  8
0
 10
4070.6455212500409289
 20
88.1022270706378379
 30
0.0
 40
0.0276466416672484
 50
46.8032354574598912
 51
119.8769331998257996
  0
LINE
  5
9406
  8
0
 10
4070.7600485102148014
 20
87.8869015625266314
 30
0.0
 11
4070.7975292054838974
 21
87.9165195170797773
 31
0.0
  0
LINE
  5
9407
  8
0
 10
4070.8283811017481639
 20
87.7799623556882551
 30
0.0
 11
4070.8549676654420182
 21
87.7988391732824738
 31
0.0
  0
ARC
  5
9408
  8
0
 10
4070.6090913833090781
 20
87.7385295410749393
 30
0.0
 40
0.2842427424677305
 50
11.4635963646016901
 51
45.70713202770294
  0
ARC
  5
9409
  8
0
 10
4070.9758766683121394
 20
87.9338470318319168
 30
0.0
 40
0.2316817598125628
 50
198.7671504721047882
 51
220.6789058507681034
  0
ARC
  5
940A
  8
0
 10
4070.7803751711671794
 20
87.8702741380673586
 30
0.0
 40
0.026261081272843
 50
140.716469394961905
 51
204.6778893412325999
  0
ARC
  5
940B
  8
0
 10
4070.8158490169030301
 20
87.7968355590118392
 30
0.0
 40
0.0210180432237131
 50
221.7778739578438945
 51
306.6020531681161856
  0
ARC
  5
940C
  8
0
 10
4070.7181354779718276
 20
87.7903363063594782
 30
0.0
 40
0.0742347657270434
 50
9.8904680727876517
 51
47.2850525532260875
  0
ARC
  5
940D
  8
0
 10
4070.8439067116160004
 20
87.8588741587353041
 30
0.0
 40
0.0767015114954066
 50
190.5129419016305974
 51
226.6625787244051935
  0
ARC
  5
940E
  8
0
 10
4070.7623863589128632
 20
87.9451158427868762
 30
0.0
 40
0.0453074994792091
 50
320.8641705386032186
 51
356.0372243598869773
  0
ARC
  5
940F
  8
0
 10
4070.8687395274168921
 20
87.7748668431234336
 30
0.0
 40
0.0276466416672484
 50
46.8032354574598912
 51
119.8769331998257996
  0
LINE
  5
9410
  8
0
 10
4071.0038553584149668
 20
87.5289834781266762
 30
0.0
 11
4071.0413360536840628
 21
87.5586014326797653
 31
0.0
  0
LINE
  5
9411
  8
0
 10
4071.0721879499478746
 20
87.4220442712882289
 30
0.0
 11
4071.0987745136421836
 21
87.4409210888824617
 31
0.0
  0
ARC
  5
9412
  8
0
 10
4070.8528982315087887
 20
87.3806114566749415
 30
0.0
 40
0.2842427424677305
 50
11.4635963646016901
 51
45.70713202770294
  0
ARC
  5
9413
  8
0
 10
4071.21968351651185
 20
87.5759289474319047
 30
0.0
 40
0.2316817598125628
 50
198.7671504721047882
 51
220.6789058507681034
  0
ARC
  5
9414
  8
0
 10
4071.02418201936689
 20
87.5123560536673466
 30
0.0
 40
0.026261081272843
 50
140.716469394961905
 51
204.6778893412325999
  0
ARC
  5
9415
  8
0
 10
4071.0596558651031955
 20
87.4389174746118414
 30
0.0
 40
0.0210180432237131
 50
221.7778739578438945
 51
306.6020531681161856
  0
ARC
  5
9416
  8
0
 10
4070.9619423261729025
 20
87.4324182219594803
 30
0.0
 40
0.0742347657270434
 50
9.8904680727876517
 51
47.2850525532260875
  0
ARC
  5
9417
  8
0
 10
4071.0877135598161658
 20
87.5009560743352921
 30
0.0
 40
0.0767015114954066
 50
190.5129419016305974
 51
226.6625787244051935
  0
ARC
  5
9418
  8
0
 10
4071.0061932071130286
 20
87.5871977583868642
 30
0.0
 40
0.0453074994792091
 50
320.8641705386032186
 51
356.0372243598869773
  0
ARC
  5
9419
  8
0
 10
4071.112546375616148
 20
87.4169487587234642
 30
0.0
 40
0.0276466416672484
 50
46.8032354574598912
 51
119.8769331998257996
  0
LINE
  5
941A
  8
0
 10
4071.2459616093601653
 20
87.1586402956445312
 30
0.0
 11
4071.2792444809329027
 21
87.1929080094520685
 31
0.0
  0
LINE
  5
941B
  8
0
 10
4071.3276998601882042
 20
87.0615620005607838
 30
0.0
 11
4071.3515877656050179
 21
87.0837554136904259
 31
0.0
  0
ARC
  5
941C
  8
0
 10
4071.1157171658092011
 20
86.9917909748859728
 30
0.0
 40
0.2842427424677305
 50
18.9824133026993884
 51
53.2259489658483105
  0
ARC
  5
941D
  8
0
 10
4071.4537911653478659
 20
87.2334236265026419
 30
0.0
 40
0.2316817598125627
 50
206.2859674102026872
 51
228.1977227888692141
  0
ARC
  5
941E
  8
0
 10
4071.2682892287830327
 20
87.1448156147969684
 30
0.0
 40
0.026261081272843
 50
148.235286333052187
 51
212.1967062793137018
  0
ARC
  5
941F
  8
0
 10
4071.3130676380410478
 20
87.0766502813111458
 30
0.0
 40
0.0210180432237131
 50
229.2966908959569992
 51
314.1208701062324167
  0
ARC
  5
9420
  8
0
 10
4071.2170446847649146
 20
87.0574209178441123
 30
0.0
 40
0.0742347657270434
 50
17.4092850108859807
 51
54.803869491366008
  0
ARC
  5
9421
  8
0
 10
4071.3327662290239459
 20
87.1418268691444808
 30
0.0
 40
0.0767015114954066
 50
198.0317588397228974
 51
234.1813956625173034
  0
ARC
  5
9422
  8
0
 10
4071.2406619141452211
 20
87.2166599577719239
 30
0.0
 40
0.0453074994792091
 50
328.3829874767004071
 51
3.5560412979908782
  0
ARC
  5
9423
  8
0
 10
4071.3683780386800208
 20
87.0617912718776381
 30
0.0
 40
0.0276466416672484
 50
54.3220523955412986
 51
127.3957501379208992
  0
LINE
  5
9424
  8
0
 10
4071.0557090597371825
 20
87.2976908311142665
 30
0.0
 11
4071.0895869750552265
 21
87.3313703887635455
 31
0.0
  0
LINE
  5
9425
  8
0
 10
4071.1357345909491414
 20
87.1991959003865276
 30
0.0
 11
4071.1600075174860649
 21
87.2209675482092024
 31
0.0
  0
ARC
  5
9426
  8
0
 10
4070.9225624725149828
 20
87.1331481399224543
 30
0.0
 40
0.2842427424677305
 50
17.9789109414392598
 51
52.2224466045476419
  0
ARC
  5
9427
  8
0
 10
4071.2648164598931544
 20
87.3688228640990445
 30
0.0
 40
0.2316817598125628
 50
205.2824650489185103
 51
227.1942204275970028
  0
ARC
  5
9428
  8
0
 10
4071.0777911358018173
 20
87.2834772352897375
 30
0.0
 40
0.026261081272843
 50
147.231783971768607
 51
211.1932039180456115
  0
ARC
  5
9429
  8
0
 10
4071.1213688619782261
 20
87.214538128779779
 30
0.0
 40
0.0210180432237131
 50
228.2931885346463048
 51
313.1173677449612001
  0
ARC
  5
942A
  8
0
 10
4071.0250238621470089
 20
87.1969934149647514
 30
0.0
 40
0.0742347657270434
 50
16.4057826495956682
 51
53.8003671300908977
  0
ARC
  5
942B
  8
0
 10
4071.1422059035057828
 20
87.2793597284869946
 30
0.0
 40
0.0767015114954066
 50
197.02825647844071
 51
233.1778933012311938
  0
ARC
  5
942C
  8
0
 10
4071.0514263061468228
 20
87.355794410904565
 30
0.0
 40
0.0453074994792091
 50
327.3794851153992909
 51
2.5525389367059592
  0
ARC
  5
942D
  8
0
 10
4071.1764105458341874
 20
87.198712718250178
 30
0.0
 40
0.0276466416672484
 50
53.3185500342438985
 51
126.3922477766240036
  0
LINE
  5
942E
  8
0
 10
4071.487436834987875
 20
86.8045571854142253
 30
0.0
 11
4071.521314750305919
 21
86.8382367430635043
 31
0.0
  0
LINE
  5
942F
  8
0
 10
4071.5674623661989244
 20
86.7060622546865574
 30
0.0
 11
4071.5917352927358479
 21
86.7278339025092322
 31
0.0
  0
ARC
  5
9430
  8
0
 10
4071.3542902477652206
 20
86.6400144942224841
 30
0.0
 40
0.2842427424677305
 50
17.9789109414392598
 51
52.2224466045476419
  0
ARC
  5
9431
  8
0
 10
4071.6965442351429374
 20
86.8756892183990175
 30
0.0
 40
0.2316817598125628
 50
205.2824650489185103
 51
227.1942204275970028
  0
ARC
  5
9432
  8
0
 10
4071.509518911052055
 20
86.7903435895897672
 30
0.0
 40
0.026261081272843
 50
147.231783971768607
 51
211.1932039180456115
  0
ARC
  5
9433
  8
0
 10
4071.5530966372270996
 20
86.7214044830798088
 30
0.0
 40
0.0210180432237131
 50
228.2931885346463048
 51
313.1173677449612001
  0
ARC
  5
9434
  8
0
 10
4071.4567516373958824
 20
86.7038597692647812
 30
0.0
 40
0.0742347657270434
 50
16.4057826495956682
 51
53.8003671300908977
  0
ARC
  5
9435
  8
0
 10
4071.57393367875693
 20
86.7862260827870244
 30
0.0
 40
0.0767015114954066
 50
197.02825647844071
 51
233.1778933012311938
  0
ARC
  5
9436
  8
0
 10
4071.48315408139797
 20
86.8626607652045521
 30
0.0
 40
0.0453074994792091
 50
327.3794851153992909
 51
2.5525389367059592
  0
ARC
  5
9437
  8
0
 10
4071.6081383210839704
 20
86.7055790725502078
 30
0.0
 40
0.0276466416672484
 50
53.3185500342438985
 51
126.3922477766240036
  0
LINE
  5
9438
  8
0
 10
4071.3503154356881168
 20
86.8557739320642526
 30
0.0
 11
4071.3841933510061608
 21
86.8894534897135458
 31
0.0
  0
LINE
  5
9439
  8
0
 10
4071.4303409669000757
 20
86.7572790013365847
 30
0.0
 11
4071.4546138934360897
 21
86.7790506491592453
 31
0.0
  0
ARC
  5
943A
  8
0
 10
4071.2171688484650076
 20
86.6912312408724546
 30
0.0
 40
0.2842427424677305
 50
17.9789109414392598
 51
52.2224466045476419
  0
ARC
  5
943B
  8
0
 10
4071.5594228358431792
 20
86.9269059650490448
 30
0.0
 40
0.2316817598125628
 50
205.2824650489185103
 51
227.1942204275970028
  0
ARC
  5
943C
  8
0
 10
4071.3723975117532063
 20
86.8415603362397377
 30
0.0
 40
0.026261081272843
 50
147.231783971768607
 51
211.1932039180456115
  0
ARC
  5
943D
  8
0
 10
4071.4159752379277961
 20
86.772621229729836
 30
0.0
 40
0.0210180432237131
 50
228.2931885346463048
 51
313.1173677449612001
  0
ARC
  5
943E
  8
0
 10
4071.3196302380961242
 20
86.7550765159147943
 30
0.0
 40
0.0742347657270434
 50
16.4057826495956682
 51
53.8003671300908977
  0
ARC
  5
943F
  8
0
 10
4071.4368122794571718
 20
86.8374428294370375
 30
0.0
 40
0.0767015114954066
 50
197.02825647844071
 51
233.1778933012311938
  0
ARC
  5
9440
  8
0
 10
4071.3460326820982118
 20
86.9138775118545226
 30
0.0
 40
0.0453074994792091
 50
327.3794851153992909
 51
2.5525389367059592
  0
ARC
  5
9441
  8
0
 10
4071.4710169217842122
 20
86.7567958192002351
 30
0.0
 40
0.0276466416672484
 50
53.3185500342438985
 51
126.3922477766240036
  0
LINE
  5
9442
  8
0
 10
4071.7076725625379368
 20
86.4732121809142171
 30
0.0
 11
4071.7415504778559807
 21
86.5068917385635103
 31
0.0
  0
LINE
  5
9443
  8
0
 10
4071.7876980937489861
 20
86.374717250186535
 30
0.0
 11
4071.8119710202859096
 21
86.396488898009224
 31
0.0
  0
ARC
  5
9444
  8
0
 10
4071.5745259753148275
 20
86.308669489722476
 30
0.0
 40
0.2842427424677305
 50
17.9789109414392598
 51
52.2224466045476419
  0
ARC
  5
9445
  8
0
 10
4071.9167799626929991
 20
86.5443442138989951
 30
0.0
 40
0.2316817598125628
 50
205.2824650489185103
 51
227.1942204275970028
  0
ARC
  5
9446
  8
0
 10
4071.7297546386021168
 20
86.4589985850897449
 30
0.0
 40
0.026261081272843
 50
147.231783971768607
 51
211.1932039180456115
  0
ARC
  5
9447
  8
0
 10
4071.7733323647780708
 20
86.3900594785797864
 30
0.0
 40
0.0210180432237131
 50
228.2931885346463048
 51
313.1173677449612001
  0
ARC
  5
9448
  8
0
 10
4071.6769873649459441
 20
86.3725147647647589
 30
0.0
 40
0.0742347657270434
 50
16.4057826495956682
 51
53.8003671300908977
  0
ARC
  5
9449
  8
0
 10
4071.7941694063079012
 20
86.4548810782870163
 30
0.0
 40
0.0767015114954066
 50
197.02825647844071
 51
233.1778933012311938
  0
ARC
  5
944A
  8
0
 10
4071.7033898089480317
 20
86.531315760704544
 30
0.0
 40
0.0453074994792091
 50
327.3794851153992909
 51
2.5525389367059592
  0
ARC
  5
944B
  8
0
 10
4071.8283740486340321
 20
86.3742340680502565
 30
0.0
 40
0.0276466416672484
 50
53.3185500342438985
 51
126.3922477766240036
  0
LINE
  5
944C
  8
0
 10
4071.8938362940748448
 20
86.182799667465062
 30
0.0
 11
4071.9277142093937982
 21
86.2164792251143552
 31
0.0
  0
LINE
  5
944D
  8
0
 10
4071.9738618252868037
 20
86.0843047367373941
 30
0.0
 11
4071.9981347518241819
 21
86.1060763845599979
 31
0.0
  0
ARC
  5
944E
  8
0
 10
4071.7606897068530998
 20
86.0182569762733067
 30
0.0
 40
0.2842427424677305
 50
17.9789109414392598
 51
52.2224466045476419
  0
ARC
  5
944F
  8
0
 10
4072.1029436942321809
 20
86.2539317004498542
 30
0.0
 40
0.2316817598125628
 50
205.2824650489185103
 51
227.1942204275970028
  0
ARC
  5
9450
  8
0
 10
4071.9159183701408438
 20
86.168586071640604
 30
0.0
 40
0.026261081272843
 50
147.231783971768607
 51
211.1932039180456115
  0
ARC
  5
9451
  8
0
 10
4071.9594960963167978
 20
86.0996469651306455
 30
0.0
 40
0.0210180432237131
 50
228.2931885346463048
 51
313.1173677449612001
  0
ARC
  5
9452
  8
0
 10
4071.8631510964851259
 20
86.082102251315618
 30
0.0
 40
0.0742347657270434
 50
16.4057826495956682
 51
53.8003671300908977
  0
ARC
  5
9453
  8
0
 10
4071.9803331378448092
 20
86.1644685648378612
 30
0.0
 40
0.0767015114954066
 50
197.02825647844071
 51
233.1778933012311938
  0
ARC
  5
9454
  8
0
 10
4071.8895535404849397
 20
86.2409032472553889
 30
0.0
 40
0.0453074994792091
 50
327.3794851153992909
 51
2.5525389367059592
  0
ARC
  5
9455
  8
0
 10
4072.0145377801718496
 20
86.0838215546010446
 30
0.0
 40
0.0276466416672484
 50
53.3185500342438985
 51
126.3922477766240036
  0
LINE
  5
9456
  8
0
 10
4072.027247733457898
 20
85.9373473924232911
 30
0.0
 11
4072.0596954274510608
 21
85.9724069546622758
 31
0.0
  0
LINE
  5
9457
  8
0
 10
4072.1113009051309746
 20
85.8422663672051129
 30
0.0
 11
4072.1346472326649746
 21
85.8650288056116153
 31
0.0
  0
ARC
  5
9458
  8
0
 10
4071.9010605336461595
 20
85.7674088696654024
 30
0.0
 40
0.2842427424677305
 50
20.3628176289379894
 51
54.6063532920894303
  0
ARC
  5
9459
  8
0
 10
4072.2332154240611999
 20
86.0171156902875254
 30
0.0
 40
0.2316817598125628
 50
207.6663717364606043
 51
229.5781271151377894
  0
ARC
  5
945A
  8
0
 10
4072.0499019134131231
 20
85.9240646020489578
 30
0.0
 40
0.026261081272843
 50
149.6156906592933069
 51
213.5771106055840107
  0
ARC
  5
945B
  8
0
 10
4072.0963094486869522
 20
85.8569977749661177
 30
0.0
 40
0.0210180432237131
 50
230.6770952221586981
 51
315.5012744324891969
  0
ARC
  5
945C
  8
0
 10
4072.0007776030402056
 20
85.8354607732526205
 30
0.0
 40
0.0742347657270434
 50
18.789689337112339
 51
56.1842738176019409
  0
ARC
  5
945D
  8
0
 10
4072.1144322013028614
 20
85.9226299920998571
 30
0.0
 40
0.0767015114954066
 50
199.4121631659546097
 51
235.561799988720793
  0
ARC
  5
945E
  8
0
 10
4072.0205518669667981
 20
85.9952225454225641
 30
0.0
 40
0.0453074994792091
 50
329.7633918029172833
 51
4.9364456242193278
  0
ARC
  5
945F
  8
0
 10
4072.1519617550920884
 20
85.8434755202792275
 30
0.0
 40
0.0276466416672484
 50
55.7024567217396225
 51
128.7761544641560079
  0
LINE
  5
9460
  8
0
 10
4071.6011311992610899
 20
86.4700813185757369
 30
0.0
 11
4071.6326329927442202
 21
86.492098109420894
 31
0.0
  0
ARC
  5
9461
  8
0
 10
4071.6224845034339523
 20
86.5084957645917143
 30
0.0
 40
0.0192840589704692
 50
301.7533157972833919
 51
39.2964228041565917
  0
ARC
  5
9462
  8
0
 10
4071.5046657431039421
 20
86.3131470707830033
 30
0.0
 40
0.2463787086819123
 50
36.7130403912860714
 51
57.3998197917366326
  0
ARC
  5
9463
  8
0
 10
4071.7273537421920082
 20
86.3742077734112144
 30
0.0
 40
0.0230672823635985
 50
47.8270935305070424
 51
118.5323503879494069
  0
ARC
  5
9464
  8
0
 10
4070.9087189721858522
 20
87.3571712025264162
 30
0.0
 40
0.0078740158138735
 50
202.924141122323789
 51
292.9241399485987927
  0
LINE
  5
9465
  8
0
 10
4070.9117859961511385
 20
87.3499190656664553
 30
0.0
 11
4070.931208989516108
 21
87.3581248492430689
 31
0.0
  0
LINE
  5
9466
  8
0
 10
4070.8486121763439769
 20
87.5024259511208555
 30
0.0
 11
4070.8842954732440376
 21
87.5266644681209129
 31
0.0
  0
ARC
  5
9467
  8
0
 10
4070.7973312774161059
 20
87.5958612892482478
 30
0.0
 40
0.0214365826120321
 50
127.2397477747483947
 51
206.5357844839489871
  0
ARC
  5
9468
  8
0
 10
4071.0881217381188435
 20
87.7211665079662453
 30
0.0
 40
0.3380441738924739
 50
203.516146076875998
 51
218.3178556637523968
  0
ARC
  5
9469
  8
0
 10
4070.842226255208061
 20
87.5251940429205035
 30
0.0
 40
0.0236466909514583
 50
215.1767961145698962
 51
285.6675749565308138
  0
ARC
  5
946A
  8
0
 10
4070.8949864809428618
 20
87.5112319153978859
 30
0.0
 40
0.0187739534771209
 50
79.1624282365523442
 51
124.7125493531448939
  0
ARC
  5
946B
  8
0
 10
4070.0632818721419426
 20
87.140063172609004
 30
0.0
 40
0.9329612733319674
 50
22.8855737536520998
 51
32.5056237913982926
  0
ARC
  5
946C
  8
0
 10
4070.9554097519521747
 20
87.5568516411198488
 30
0.0
 40
0.0630526185602676
 50
205.5360170691031954
 51
238.8602893725789897
  0
ARC
  5
946D
  8
0
 10
4070.7028770553010872
 20
87.4886366286391848
 30
0.0
 40
0.1190478487557399
 50
19.146929427206981
 51
42.1679335187555182
  0
ARC
  5
946E
  8
0
 10
4070.8967690987710739
 20
87.6033388879883859
 30
0.0
 40
0.1112348479341701
 50
198.2228889998559112
 51
222.8686548232230109
  0
ARC
  5
946F
  8
0
 10
4070.9381111357288319
 20
87.3336076012432443
 30
0.0
 40
0.0254702782047849
 50
46.9325665885561065
 51
105.7230821620510994
  0
LINE
  5
9470
  8
0
 10
4070.9555805460158808
 20
87.3522604249601926
 30
0.0
 11
4071.0108562276441262
 21
87.2459113696208846
 31
0.0
  0
LINE
  5
9471
  8
0
 10
4071.0108562276441262
 20
87.2459113696208846
 30
0.0
 11
4070.9312089895329336
 21
87.3581248492480285
 31
0.0
  0
LINE
  5
9472
  8
0
 10
4070.8570834042798197
 20
87.5081801840577072
 30
0.0
 11
4070.8763451266731863
 21
87.4792542586344837
 31
0.0
  0
LINE
  5
9473
  8
0
 10
4070.8763451266731863
 20
87.4792542586344837
 30
0.0
 11
4070.8886552015392226
 21
87.460337281521376
 31
0.0
  0
LINE
  5
9474
  8
0
 10
4070.8886552015392226
 20
87.460337281521376
 30
0.0
 11
4070.9397439065442086
 21
87.3786766340209056
 31
0.0
  0
LINE
  5
9475
  8
0
 10
4070.9397439065442086
 20
87.3786766340209056
 30
0.0
 11
4070.9490929631579093
 21
87.356588779153185
 31
0.0
  0
ARC
  5
9476
  8
0
 10
4070.8307591073080403
 20
87.1618458225863577
 30
0.0
 40
0.290351303079249
 50
32.4502202624022686
 51
54.4090147656569201
  0
ARC
  5
9477
  8
0
 10
4071.3322449081651939
 20
87.4804090591375569
 30
0.0
 40
0.3425732011868796
 50
193.9268955648246049
 51
214.9739853636849887
  0
ARC
  5
9478
  8
0
 10
4071.2968991171028392
 20
87.2770884828690043
 30
0.0
 40
0.2029204599364825
 50
203.4210485626446996
 51
239.9455823708777018
  0
ARC
  5
9479
  8
0
 10
4070.9182881998249286
 20
87.0438523768698786
 30
0.0
 40
0.2829091753542661
 50
11.7471362013771206
 51
35.218837353848059
  0
ARC
  5
947A
  8
0
 10
17374.3361518620586139
 20
5713.1226685970632388
 30
0.0
 40
14443.9540519403708458
 50
202.9238037076299861
 51
202.924407180435793
  0
ARC
  5
947B
  8
0
 10
4071.1791873311872223
 20
86.969811775994657
 30
0.0
 40
0.0078739991726873
 50
202.924019738399295
 51
292.9242612009740014
  0
ARC
  5
947C
  8
0
 10
5971.9331028554443037
 20
-4407.4347863339999094
 30
0.0
 40
4879.8013578144118583
 50
112.9240201311671967
 51
112.9242612009740014
  0
ARC
  5
947D
  8
0
 10
4071.2088320222837865
 20
86.9524263326884892
 30
0.0
 40
0.0196853298605462
 50
96.7141421076753289
 51
112.9240201311671967
  0
ARC
  5
947E
  8
0
 10
4069.0966906080370791
 20
85.5868580340114562
 30
0.0
 40
2.523880477018035
 50
31.9055892903849916
 51
33.9570434277731223
  0
ARC
  5
947F
  8
0
 10
4068.3770224110799063
 20
85.1022203475614987
 30
0.0
 40
3.3915186509352129
 50
33.9570434277731223
 51
36.2333290264301979
  0
ARC
  5
9480
  8
0
 10
4070.652512230145021
 20
86.7696606915026649
 30
0.0
 40
0.5704884814275585
 50
36.2333290264301979
 51
44.0869918590694283
  0
ARC
  5
9481
  8
0
 10
4071.9813312579772173
 20
87.62006685265969
 30
0.0
 40
1.0248404761709751
 50
206.2633154572637864
 51
215.5780933544322124
  0
ARC
  5
9482
  8
0
 10
4070.2298111798932041
 20
88.5492713988519284
 30
0.0
 40
0.0188738425506471
 50
125.2200367344389065
 51
204.8198030649519126
  0
ARC
  5
9483
  8
0
 10
4072.2516912176570258
 20
89.4843592912954193
 30
0.0
 40
2.2465157019412598
 50
204.8198030649519126
 51
207.186935000478087
  0
ARC
  5
9484
  8
0
 10
4070.2696000748569531
 20
88.4662740910021341
 30
0.0
 40
0.0182466936246022
 50
207.1869350004957084
 51
306.4413664887081836
  0
ARC
  5
9485
  8
0
 10
4070.2463225133042215
 20
88.6079623997544843
 30
0.0
 40
0.0197952691117274
 50
305.1136244723285245
 51
25.295198572004729
  0
ARC
  5
9486
  8
0
 10
4068.7775667510081803
 20
87.7995507898044139
 30
0.0
 40
1.6962940349780891
 50
23.0715551191262804
 51
29.0517664945055607
  0
ARC
  5
9487
  8
0
 10
4070.3205347290167992
 20
88.4555628011725474
 30
0.0
 40
0.0196920183791777
 50
26.3241355378515216
 51
124.8560418063891007
  0
ARC
  5
9488
  8
0
 10
4071.6477432653769029
 20
89.0990705065136552
 30
0.0
 40
1.4584945154474549
 50
205.4485970794349043
 51
207.171040699194009
  0
ARC
  5
9489
  8
0
 10
4070.4239063596369306
 20
88.3036960279064118
 30
0.0
 40
0.0203117521108773
 50
29.6217370953719303
 51
126.4261717487841992
  0
ARC
  5
948A
  8
0
 10
4069.2172012109590469
 20
87.8813881471525491
 30
0.0
 40
1.298455750671438
 50
19.4491696664988112
 51
23.1645464987917613
  0
ARC
  5
948B
  8
0
 10
4070.5114013530678676
 20
88.077887166099103
 30
0.0
 40
0.0143114469334307
 50
101.7778978777188996
 51
125.772378924640293
  0
ARC
  5
948C
  8
0
 10
4070.5257640070221896
 20
88.1088114234118365
 30
0.0
 40
0.022433480929571
 50
118.7209865190085054
 51
206.7147358508495927
  0
ARC
  5
948D
  8
0
 10
4070.7715697263802213
 20
88.19646811508089
 30
0.0
 40
0.2832432793756758
 50
200.1866888466662999
 51
219.0839792865099867
  0
ARC
  5
948E
  8
0
 10
4070.5653196203898005
 20
88.0313324668414197
 30
0.0
 40
0.0191257382024304
 50
224.6352314587406056
 51
308.2435058125075784
  0
ARC
  5
948F
  8
0
 10
4070.1434279735258315
 20
88.6851199954671046
 30
0.0
 40
0.7971368781673024
 50
302.9639016371424987
 51
305.5762678744370078
  0
ARC
  5
9490
  8
0
 10
4070.6153738400471411
 20
88.0119128607683905
 30
0.0
 40
0.0261743101619635
 50
43.5440337476613877
 51
108.2173645226961014
  0
ARC
  5
9491
  8
0
 10
4070.3987507749711767
 20
87.9852813499790045
 30
0.0
 40
0.239791569377638
 50
10.7345352359377895
 51
30.5937246271083083
  0
ARC
  5
9492
  8
0
 10
4070.2080775010031175
 20
87.9628172824296541
 30
0.0
 40
0.3638354079710427
 50
28.631563759397789
 51
40.2525600494546723
  0
ARC
  5
9493
  8
0
 10
4070.8501257280890968
 20
88.3104289802256943
 30
0.0
 40
0.3813447395954611
 50
197.1606524935606899
 51
208.4969362256535135
  0
ARC
  5
9494
  8
0
 10
4191.0118604071321897
 20
-84.671373038813357
 30
0.0
 40
210.6639224031000026
 50
124.8777622983203059
 51
124.8888526871250946
  0
ARC
  5
9495
  8
0
 10
4070.6608313864389856
 20
87.8779248417419439
 30
0.0
 40
0.022129981840933
 50
302.3219981868566038
 51
21.3276106860197991
  0
ARC
  5
9496
  8
0
 10
4070.2799925397071092
 20
87.5639809714501069
 30
0.0
 40
0.5146299035226845
 50
20.0649979633940312
 51
38.7319595533607171
  0
ARC
  5
9497
  8
0
 10
4070.7443946393609622
 20
87.727423969022567
 30
0.0
 40
0.0230825802778962
 50
34.6361531431210707
 51
80.2672557389300749
  0
ARC
  5
9498
  8
0
 10
4070.7454955455541494
 20
87.733842446920363
 30
0.0
 40
0.0165703722827538
 50
80.2672557389300749
 51
128.1265461063300108
  0
ARC
  5
9499
  8
0
 10
4070.6932940959809457
 20
87.7424003709240168
 30
0.0
 40
0.0203675630760644
 50
213.1564581551353967
 51
303.0890525626538192
  0
ARC
  5
949A
  8
0
 10
4070.9976777286551624
 20
87.9668353752680758
 30
0.0
 40
0.3985170144396718
 50
203.263495299311586
 51
216.2370976020276032
  0
ARC
  5
949B
  8
0
 10
4070.6499391056449895
 20
87.8184147407157383
 30
0.0
 40
0.02045384542512
 50
126.2248368942953931
 51
206.0354461952236989
  0
ARC
  5
949C
  8
0
 10
4070.5490029102138578
 20
87.7086885833922878
 30
0.0
 40
0.1251933978462207
 50
18.6831359639577315
 51
40.7083524942630532
  0
ARC
  5
949D
  8
0
 10
4070.7738918696982182
 20
87.8369408433911474
 30
0.0
 40
0.1380880065283694
 50
199.7225651530567916
 51
219.6689233052028101
  0
ARC
  5
949E
  8
0
 10
4070.7842443067170279
 20
87.7223923141246331
 30
0.0
 40
0.0231019836070217
 50
125.8612344404702981
 51
202.8061604170366081
  0
ARC
  5
949F
  8
0
 10
4071.0557349730138412
 20
87.8365508318569681
 30
0.0
 40
0.3176174315155706
 50
202.8061604170366081
 51
218.1748304037456876
  0
ARC
  5
94A0
  8
0
 10
4070.8306281858299371
 20
87.6595693260423303
 30
0.0
 40
0.0312688344584878
 50
218.1748304037456876
 51
254.2866496233253031
  0
ARC
  5
94A1
  8
0
 10
4070.8270295603251725
 20
87.6467782497773413
 30
0.0
 40
0.0179811808830811
 50
254.2866496232711029
 51
307.2610537436859772
  0
ARC
  5
94A2
  8
0
 10
4071.1237994258840445
 20
87.2566622945101358
 30
0.0
 40
0.4721849253074892
 50
122.4710097175885011
 51
127.2610537436859062
  0
ARC
  5
94A3
  8
0
 10
4070.8808332449912086
 20
87.6384689791153022
 30
0.0
 40
0.0196267417914854
 50
31.2799588325575399
 51
122.4710097175885011
  0
ARC
  5
94A4
  8
0
 10
4070.5513007948329687
 20
87.5494291707159817
 30
0.0
 40
0.3602425555356659
 50
15.9890972906846596
 51
39.4184753628491222
  0
ARC
  5
94A5
  8
0
 10
4071.8316045135798049
 20
86.2892808701558209
 30
0.0
 40
1.7981430281611219
 50
124.7571144532687981
 51
126.1565946275537016
  0
ARC
  5
94A6
  8
0
 10
4070.7976060540440812
 20
87.779388381864905
 30
0.0
 40
0.0155750344871162
 50
304.7571144532687981
 51
344.5545773733958868
  0
ARC
  5
94A7
  8
0
 10
4065.1705402924339978
 20
83.7618894027993832
 30
0.0
 40
6.82424973201441
 50
34.451259304124207
 51
35.6090752543790074
  0
ARC
  5
94A8
  8
0
 10
4069.6997159862698936
 20
87.5501114520416621
 30
0.0
 40
1.0117207383576401
 50
19.5904445774816196
 51
28.0836941091452097
  0
ARC
  5
94A9
  8
0
 10
4071.2375105060209535
 20
88.3348582209255682
 30
0.0
 40
0.735046143014273
 50
205.7770218839679046
 51
217.3091115948317054
  0
LINE
  5
94AA
  8
0
 10
4071.2505343241027731
 20
86.9288911272290505
 30
0.0
 11
4070.8683477465101532
 21
87.5158316897864665
 31
0.0
  0
ARC
  5
94AB
  8
0
 10
4071.2480044574699605
 20
86.9030439454507331
 30
0.0
 40
0.019775001032682
 50
116.2326801648064958
 51
190.4408772696152141
  0
ARC
  5
94AC
  8
0
 10
4071.4661625201870265
 20
87.0009668380098447
 30
0.0
 40
0.2583795960505028
 50
203.1324602073208894
 51
225.078062464858192
  0
ARC
  5
94AD
  8
0
 10
4071.2990474115758843
 20
86.8324541708889655
 30
0.0
 40
0.0210642895999638
 50
223.2692596987554055
 51
303.7205796567432117
  0
ARC
  5
94AE
  8
0
 10
4065.2969722774219008
 20
95.4835336473837941
 30
0.0
 40
10.5503572476401004
 50
304.7506567000157247
 51
304.9731573713223725
  0
ARC
  5
94AF
  8
0
 10
4071.501687065949227
 20
86.581672508690346
 30
0.0
 40
0.4287907552610965
 50
122.7303273744491037
 51
127.7348590495320053
  0
ARC
  5
94B0
  8
0
 10
4071.2590034841659872
 20
86.959251271569471
 30
0.0
 40
0.0200533636092251
 50
302.7303273744490753
 51
32.1522372751160788
  0
ARC
  5
94B1
  8
0
 10
4071.0373902738601828
 20
86.6954608042479151
 30
0.0
 40
0.363669177902741
 50
27.9866852718971586
 51
48.9994396588732215
  0
ARC
  5
94B2
  8
0
 10
4071.1758368280698051
 20
86.7980238877105847
 30
0.0
 40
0.1038202952626925
 50
21.909212634694061
 51
48.488803502278401
  0
ARC
  5
94B3
  8
0
 10
4071.3367966439068368
 20
86.9115643742308492
 30
0.0
 40
0.0988599029569444
 50
201.2291932296724042
 51
229.1688229072730962
  0
ARC
  5
94B4
  8
0
 10
4069.1792209709869894
 20
85.4795308115060237
 30
0.0
 40
2.5254936832850401
 50
28.9369305239299806
 51
32.0764336644174222
  0
ARC
  5
94B5
  8
0
 10
4070.456297680147145
 20
88.0421643845499773
 30
0.0
 40
1.6334425265773269
 50
304.3849931209679767
 51
305.8493434078370115
  0
ARC
  5
94B6
  8
0
 10
4071.4011476668579235
 20
86.7344727804762528
 30
0.0
 40
0.0201233304003709
 50
305.8493434078370115
 51
27.7998859060442918
  0
ARC
  5
94B7
  8
0
 10
4071.1230355444208726
 20
86.4269706613642228
 30
0.0
 40
0.4335689130369355
 50
25.0722238601549314
 51
46.9603130464233018
  0
ARC
  5
94B8
  8
0
 10
4071.4996676473820116
 20
86.5970397468708342
 30
0.0
 40
0.0211016770234998
 50
40.3423330204562731
 51
114.4922163708231011
  0
ARC
  5
94B9
  8
0
 10
4073.4816978744020162
 20
83.7065348932395352
 30
0.0
 40
3.5255634444335802
 50
124.3793477654930939
 51
125.1034773035926975
  0
ARC
  5
94BA
  8
0
 10
4071.442918222622211
 20
86.6082535104012834
 30
0.0
 40
0.0207972994547964
 50
224.3951230979027969
 51
303.1975784492739763
  0
ARC
  5
94BB
  8
0
 10
4071.6497066860670202
 20
86.8163857762780538
 30
0.0
 40
0.3141902514525722
 50
208.1873229163425947
 51
225.1332428093836029
  0
ARC
  5
94BC
  8
0
 10
4071.3908622519961682
 20
86.6775991376414936
 30
0.0
 40
0.020486123017754
 50
126.1212337715472955
 51
208.01673827380219
  0
ARC
  5
94BD
  8
0
 10
4071.3131349557461363
 20
86.5663443245269804
 30
0.0
 40
0.1122975831583
 50
24.3541932080658299
 51
48.809425875815343
  0
ARC
  5
94BE
  8
0
 10
4071.4893446497590048
 20
86.6971423895433162
 30
0.0
 40
0.112244640409243
 50
204.3567148680781997
 51
228.8241010188500013
  0
ARC
  5
94BF
  8
0
 10
4071.6113788182260578
 20
86.3757108775525353
 30
0.0
 40
0.0195976559046072
 50
304.8785409765350209
 51
17.2803608740740486
  0
ARC
  5
94C0
  8
0
 10
4071.601819299446106
 20
86.321966382473704
 30
0.0
 40
0.0189966905019616
 50
125.5486824456401962
 51
221.0915032274880048
  0
ARC
  5
94C1
  8
0
 10
4071.6571230600520721
 20
86.2506952927256236
 30
0.0
 40
0.0187970609482054
 50
217.5413330579933984
 51
304.8794358208975837
  0
ARC
  5
94C2
  8
0
 10
4071.7139364158138051
 20
86.2445979465571071
 30
0.0
 40
0.0186680949965879
 50
56.564913855559432
 51
126.1215212923973041
  0
ARC
  5
94C3
  8
0
 10
4070.4124271212649546
 20
85.338857868543343
 30
0.0
 40
1.604676035296434
 50
34.1742258814786979
 51
41.5072676877128828
  0
ARC
  5
94C4
  8
0
 10
4067.5983448266038067
 20
92.1194147904293885
 30
0.0
 40
7.154310179253967
 50
304.668104812908723
 51
305.0101978207158027
  0
ARC
  5
94C5
  8
0
 10
4055.8710981681570047
 20
108.8850427977570945
 30
0.0
 40
27.4864223219133805
 50
304.8833120468801781
 51
304.9641862883847239
  0
ARC
  5
94C6
  8
0
 10
4072.8322278263481167
 20
87.2226943936611718
 30
0.0
 40
1.5437944533125649
 50
216.2662604047212085
 51
219.5711615367659988
  0
ARC
  5
94C7
  8
0
 10
4430.2193456275299468
 20
-427.1266521425469023
 30
0.0
 40
626.0652459899057476
 50
124.9237552673089056
 51
124.9272158728037994
  0
ARC
  5
94C8
  8
0
 10
4071.7939746979891424
 20
86.2103724622285625
 30
0.0
 40
0.0207284226047054
 50
304.9237552673088771
 51
34.5435546088915615
  0
ARC
  5
94C9
  8
0
 10
4071.5786522211938063
 20
85.9225436369241038
 30
0.0
 40
0.3791540072833147
 50
26.7684949086990009
 51
52.1980453771466912
  0
ARC
  5
94CA
  8
0
 10
4071.900591711666948
 20
86.0688166125952279
 30
0.0
 40
0.0295781149342557
 50
55.9016266836460076
 51
108.8329982231624058
  0
ARC
  5
94CB
  8
0
 10
4071.8429444144007903
 20
86.0893059645550665
 30
0.0
 40
0.0213980555548573
 50
228.469468128998102
 51
302.7545548909066042
  0
ARC
  5
94CC
  8
0
 10
4071.5362212316331352
 20
86.5660772508256713
 30
0.0
 40
0.5883107210150906
 50
302.7545548909066042
 51
307.0937261270191243
  0
ARC
  5
94CD
  8
0
 10
4071.7877492918751159
 20
86.1547355765617766
 30
0.0
 40
0.0213412294414282
 50
127.2280424246389998
 51
218.1180215485138092
  0
ARC
  5
94CE
  8
0
 10
4072.0309158556988223
 20
86.3030262079832795
 30
0.0
 40
0.3060197999705551
 50
211.845240340267992
 51
228.6538329693109119
  0
ARC
  5
94CF
  8
0
 10
4071.7216552029021841
 20
86.0459231961951048
 30
0.0
 40
0.1039480866878511
 50
26.5481720558646117
 51
53.0843510116578869
  0
ARC
  5
94D0
  8
0
 10
4071.878423766960168
 20
86.176607344815281
 30
0.0
 40
0.1056492994502211
 50
206.7632201783503945
 51
232.8643793694297131
  0
ARC
  5
94D1
  8
0
 10
4069.5372447091940558
 20
89.3592002819301996
 30
0.0
 40
4.0775607975668766
 50
304.6974091230986232
 51
305.2401673912766
  0
ARC
  5
94D2
  8
0
 10
4071.8787072411319059
 20
86.0449008155415953
 30
0.0
 40
0.0196022293483331
 50
305.2401673912766
 51
36.47014775510074
  0
ARC
  5
94D3
  8
0
 10
4071.2793840428048497
 20
85.448917920502808
 30
0.0
 40
0.8646105054663621
 50
33.5914182550662019
 51
44.6508036116669729
  0
ARC
  5
94D4
  8
0
 10
4071.9843811704081418
 20
85.9142599117447361
 30
0.0
 40
0.0200333926703226
 50
40.5287358698780977
 51
121.5151911898330042
  0
ARC
  5
94D5
  8
0
 10
4072.1718608312321521
 20
85.6085029083596822
 30
0.0
 40
0.3786919605892663
 50
121.5151911898330042
 51
128.2577379531365125
  0
ARC
  5
94D6
  8
0
 10
4071.9262196249601402
 20
85.9200107530055419
 30
0.0
 40
0.0180154120358173
 50
216.2568178849525111
 51
308.2577379531364841
  0
ARC
  5
94D7
  8
0
 10
4072.4343590099169887
 20
86.3948362631040538
 30
0.0
 40
0.7133520027717148
 50
215.5239626346545094
 51
222.8875380663552903
  0
ARC
  5
94D8
  8
0
 10
4071.8664087321999432
 20
85.9917562811672695
 30
0.0
 40
0.0170177461792116
 50
118.2076388852306934
 51
222.0969776041586101
  0
ARC
  5
94D9
  8
0
 10
4071.176963227188935
 20
86.1801045909005978
 30
0.0
 40
0.5171945685201543
 50
34.3618080415563512
 51
51.0450194974304381
  0
ARC
  5
94DA
  8
0
 10
4074.0150243320208574
 20
88.1506073032459625
 30
0.0
 40
2.9621354953313919
 50
211.968501381937898
 51
215.209953971055711
  0
ARC
  5
94DB
  8
0
 10
4435.4487797541660257
 20
343.0787651955037063
 30
0.0
 40
444.3301855588322837
 50
214.7605632844939123
 51
215.3081923477037094
  0
ARC
  5
94DC
  8
0
 10
4056.116869346114072
 20
74.4153643408191527
 30
0.0
 40
20.5060449704011312
 50
30.8404345808967797
 51
35.3081924361669479
  0
LINE
  5
94DD
  8
0
 10
4073.0886063366770031
 20
84.5310226028627056
 30
0.0
 11
4073.9807877134148839
 21
85.0886981321023512
 31
0.0
  0
LINE
  5
94DE
  8
0
 10
4075.729842194234152
 20
80.3236776248928379
 30
0.0
 11
4075.2757876464361289
 21
81.5340897783087115
 31
0.0
  0
ARC
  5
94DF
  8
0
 10
4075.3232280507868381
 20
81.5384898493417438
 30
0.0
 40
0.0476440194591934
 50
86.2766133958841266
 51
185.2989914950944979
  0
LINE
  5
94E0
  8
0
 10
4075.0511103090138931
 20
80.0783947003411072
 30
0.0
 11
4074.5967027887340919
 21
81.3254199844411119
 31
0.0
  0
ARC
  5
94E1
  8
0
 10
4074.5571559909549251
 20
81.2976716164588566
 30
0.0
 40
0.0483106731492514
 50
35.0557662769569092
 51
131.5350885964448082
  0
LINE
  5
94E2
  8
0
 10
4078.6702775529538485
 20
59.8660536428902788
 30
0.0
 11
4078.6702775529538485
 21
57.4841638790902607
 31
0.0
  0
LINE
  5
94E3
  8
0
 10
4078.0403562931551278
 20
59.7968093740089373
 30
0.0
 11
4078.0403562931551278
 21
57.5530778588971614
 31
0.0
  0
LINE
  5
94E4
  8
0
 10
4078.0984235337618884
 20
59.8559003496992474
 30
0.0
 11
4078.6702775529538485
 21
59.8660536428902788
 31
0.0
  0
LINE
  5
94E5
  8
0
 10
4078.6702775529538485
 20
57.4841638790902607
 30
0.0
 11
4078.0984248559361731
 21
57.4939868601134094
 31
0.0
  0
ARC
  5
94E6
  8
0
 10
4078.0994562931550718
 20
57.5530778588971614
 30
0.0
 40
0.0591
 50
179.9999999999967031
 51
269.0000000019526851
  0
ARC
  5
94E7
  8
0
 10
4070.9133586593998189
 20
59.8602607561932274
 30
0.0
 40
0.9635229987731586
 50
194.4095253665464043
 51
210.4832817566586982
  0
ARC
  5
94E8
  8
0
 10
4070.0106554234539544
 20
59.62832598507066
 30
0.0
 40
0.0315
 50
90.0
 51
194.4095253665414873
  0
ARC
  5
94E9
  8
0
 10
4070.9972529205688261
 20
59.9119493471592932
 30
0.0
 40
1.062043964375124
 50
210.590401505868499
 51
223.5841073186203118
  0
ARC
  5
94EA
  8
0
 10
4070.370874208632813
 20
59.3153456662235712
 30
0.0
 40
0.1970088847475937
 50
223.4908851952027931
 51
232.8957609856217914
  0
LINE
  5
94EB
  8
0
 10
4070.395079507050923
 20
59.114270568225713
 30
0.0
 11
4070.41015191287579
 21
59.0894686576089683
 31
0.0
  0
LINE
  5
94EC
  8
0
 10
4070.41015191287579
 20
59.0894686576089683
 30
0.0
 11
4070.3963971504758774
 21
59.0326132846089919
 31
0.0
  0
ARC
  5
94ED
  8
0
 10
4070.4346633311988626
 20
59.0233557211455917
 30
0.0
 40
0.0393700783375642
 50
166.3999999249901975
 51
211.4000003690032941
  0
LINE
  5
94EE
  8
0
 10
4070.4010589695758426
 20
59.0028435309089687
 30
0.0
 11
4070.407066851063064
 21
58.9930010411623726
 31
0.0
  0
LINE
  5
94EF
  8
0
 10
4070.407066851063064
 20
58.9930010411623726
 30
0.0
 11
4071.0575919300767964
 21
58.8356224615089829
 31
0.0
  0
LINE
  5
94F0
  8
0
 10
4071.0575919300767964
 20
58.8356224615089829
 30
0.0
 11
4071.0674344198860126
 21
58.8416303429457983
 31
0.0
  0
ARC
  5
94F1
  8
0
 10
4071.0469222296619591
 20
58.8752347050416489
 30
0.0
 40
0.0393700787352388
 50
301.3999999927344788
 51
346.3999999557768774
  0
LINE
  5
94F2
  8
0
 10
4071.0851884107751175
 20
58.8659771415053186
 30
0.0
 11
4071.0989431731181867
 21
58.9228325143990475
 31
0.0
  0
LINE
  5
94F3
  8
0
 10
4071.0989431731181867
 20
58.9228325143990475
 30
0.0
 11
4071.1233904093592173
 21
58.9377706476440011
 31
0.0
  0
LINE
  5
94F4
  8
0
 10
4071.0989431731181867
 20
58.9228325143990475
 30
0.0
 11
4070.41015191287579
 21
59.0894686576089683
 31
0.0
  0
LINE
  5
94F5
  8
0
 10
4070.6825833550988136
 20
58.9263465839016121
 30
0.0
 11
4070.6692195021400948
 21
58.8711070367215612
 31
0.0
  0
ARC
  5
94F6
  8
0
 10
4070.844102552277036
 20
59.3927208641474991
 30
0.0
 40
0.5501500397049649
 50
243.9834841464916906
 51
251.4650864890805906
  0
ARC
  5
94F7
  8
0
 10
4070.8977541599829237
 20
59.502642531059692
 30
0.0
 40
0.6724663013634943
 50
236.0534972499521871
 51
243.9834841464916906
  0
ARC
  5
94F8
  8
0
 10
4070.7862502009547825
 20
59.3369977044059596
 30
0.0
 40
0.47278820673152
 50
230.0085481021891951
 51
236.0534972499521871
  0
ARC
  5
94F9
  8
0
 10
4071.8547093390698137
 20
56.1173760475072214
 30
0.0
 40
2.8539039118251122
 50
92.6457817741379159
 51
98.9066096989789543
  0
ARC
  5
94FA
  8
0
 10
4071.9247769367198089
 20
40.1342317096402326
 30
0.0
 40
18.8350871548834711
 50
86.5275875683856128
 51
90.6139033227671291
  0
ARC
  5
94FB
  8
0
 10
4077.9813011750538863
 20
59.4916665278768733
 30
0.0
 40
0.0590551181000052
 50
271.0000000001841727
 51
359.9999999999935199
  0
LINE
  5
94FC
  8
0
 10
4077.9823318289782037
 20
59.4326204041574329
 30
0.0
 11
4077.4301200726540628
 21
59.4201431814730867
 31
0.0
  0
ARC
  5
94FD
  8
0
 10
4077.9813011750538863
 20
57.8582335041769014
 30
0.0
 40
0.0590551180999945
 50
0.0000000000065138
 51
88.9999999998158131
  0
LINE
  5
94FE
  8
0
 10
4077.9823318289782037
 20
57.9172796278963276
 30
0.0
 11
4077.4301200726540628
 21
57.9290602759909632
 31
0.0
  0
LINE
  5
94FF
  8
0
 10
4070.6519704101760908
 20
58.9337526346089788
 30
0.0
 11
4070.6506710097760333
 21
58.9283815570089899
 31
0.0
  0
LINE
  5
9500
  8
0
 10
4070.6506710097760333
 20
58.9283815570089899
 30
0.0
 11
4070.649836663854785
 21
58.9285024710215026
 31
0.0
  0
LINE
  5
9501
  8
0
 10
4070.649836663854785
 20
58.9285024710215026
 30
0.0
 11
4070.6382560142510556
 21
58.9370704743614411
 31
0.0
  0
LINE
  5
9502
  8
0
 10
4070.6314732367759461
 20
58.9250969101089908
 30
0.0
 11
4070.6298278983249475
 21
58.9182958958993908
 31
0.0
  0
LINE
  5
9503
  8
0
 10
4070.6298278983249475
 20
58.9182958958993908
 30
0.0
 11
4070.6449860047900984
 21
58.9084310401448903
 31
0.0
  0
LINE
  5
9504
  8
0
 10
4070.6449860047900984
 20
58.9084310401448903
 30
0.0
 11
4070.645797005555778
 21
58.908234838413442
 31
0.0
  0
LINE
  5
9505
  8
0
 10
4070.645797005555778
 20
58.908234838413442
 30
0.0
 11
4070.6489973172588179
 21
58.9214633413517319
 31
0.0
  0
LINE
  5
9506
  8
0
 10
4070.6489973172588179
 20
58.9214633413517319
 30
0.0
 11
4070.6482565145788612
 21
58.9219709165212606
 31
0.0
  0
LINE
  5
9507
  8
0
 10
4070.6482565145788612
 20
58.9219709165212606
 30
0.0
 11
4070.6314732367759461
 21
58.9250969101089908
 31
0.0
  0
LINE
  5
9508
  8
0
 10
4070.6445926708761363
 20
58.9032567156089826
 30
0.0
 11
4070.642377868875883
 21
58.8941018215089827
 31
0.0
  0
LINE
  5
9509
  8
0
 10
4070.642377868875883
 20
58.8941018215089827
 30
0.0
 11
4070.641562020784022
 21
58.8942991959366822
 31
0.0
  0
LINE
  5
950A
  8
0
 10
4070.641562020784022
 20
58.8942991959366822
 30
0.0
 11
4070.6261499816100695
 21
58.9030932102865066
 31
0.0
  0
LINE
  5
950B
  8
0
 10
4070.6261499816100695
 20
58.9030932102865066
 30
0.0
 11
4070.6272904517641109
 21
58.9078073491572098
 31
0.0
  0
LINE
  5
950C
  8
0
 10
4070.6272904517641109
 20
58.9078073491572098
 30
0.0
 11
4070.6438601942832065
 21
58.9037987065217195
 31
0.0
  0
LINE
  5
950D
  8
0
 10
4070.6438601942832065
 20
58.9037987065217195
 30
0.0
 11
4070.6445926708761363
 21
58.9032567156089826
 31
0.0
  0
LINE
  5
950E
  8
0
 10
4070.6415896991761656
 20
58.8908439182089722
 30
0.0
 11
4070.6408227336719392
 21
58.8912433490915106
 31
0.0
  0
LINE
  5
950F
  8
0
 10
4070.6408227336719392
 20
58.8912433490915106
 30
0.0
 11
4070.6244991126650348
 21
58.896269336060513
 31
0.0
  0
LINE
  5
9510
  8
0
 10
4070.6244991126650348
 20
58.896269336060513
 30
0.0
 11
4070.6238277520819793
 21
58.8934942641279875
 31
0.0
  0
LINE
  5
9511
  8
0
 10
4070.6238277520819793
 20
58.8934942641279875
 30
0.0
 11
4070.6394857293757923
 21
58.8857168357089833
 31
0.0
  0
LINE
  5
9512
  8
0
 10
4070.6394857293757923
 20
58.8857168357089833
 30
0.0
 11
4070.6402859194759003
 21
58.8854547388089671
 31
0.0
  0
LINE
  5
9513
  8
0
 10
4070.6402859194759003
 20
58.8854547388089671
 30
0.0
 11
4070.641589709712207
 21
58.8908439127222678
 31
0.0
  0
LINE
  5
9514
  8
0
 10
4070.6408227337651624
 20
58.8912433490630605
 30
0.0
 11
4070.6394857266100189
 21
58.8857168370831303
 31
0.0
  0
LINE
  5
9515
  8
0
 10
4070.622792137360193
 20
58.8892135458406329
 30
0.0
 11
4070.6230138601817998
 21
58.8901300381742629
 31
0.0
  0
LINE
  5
9516
  8
0
 10
4070.6230138601817998
 20
58.8901300381742629
 30
0.0
 11
4070.6391188241777854
 21
58.8842002334888903
 31
0.0
  0
LINE
  5
9517
  8
0
 10
4070.6391188241777854
 20
58.8842002334888903
 30
0.0
 11
4070.6398972832757863
 21
58.8838483092090001
 31
0.0
  0
LINE
  5
9518
  8
0
 10
4070.6398972832757863
 20
58.8838483092090001
 30
0.0
 11
4070.6394666660758048
 21
58.8820683512089786
 31
0.0
  0
LINE
  5
9519
  8
0
 10
4070.6394666660758048
 20
58.8820683512089786
 30
0.0
 11
4070.6227921267909551
 21
58.8892135021553216
 31
0.0
  0
LINE
  5
951A
  8
0
 10
4070.6386841852490761
 20
58.882403649446232
 30
0.0
 11
4070.6391188245770536
 21
58.8842002333089809
 31
0.0
  0
LINE
  5
951B
  8
0
 10
4070.641562020784022
 20
58.8942991959366822
 30
0.0
 11
4070.6438601942832065
 21
58.9037987065217195
 31
0.0
  0
LINE
  5
951C
  8
0
 10
4070.6449811203751779
 20
58.9084320596048627
 30
0.0
 11
4070.6482565145788612
 21
58.9219709165217509
 31
0.0
  0
LINE
  5
951D
  8
0
 10
4070.6498367010931361
 20
58.9285024656249306
 30
0.0
 11
4070.6511545620837751
 21
58.9339500091413626
 31
0.0
  0
LINE
  5
951E
  8
0
 10
4070.6075265433928507
 20
58.9445047376772067
 30
0.0
 11
4070.6065433020758064
 21
58.9404405050089935
 31
0.0
  0
LINE
  5
951F
  8
0
 10
4070.6065433020758064
 20
58.9404405050089935
 30
0.0
 11
4070.6213301349739595
 21
58.9290621977981317
 31
0.0
  0
LINE
  5
9520
  8
0
 10
4070.6213301349739595
 20
58.9290621977981317
 30
0.0
 11
4070.638027054622853
 21
58.9255792425312421
 31
0.0
  0
LINE
  5
9521
  8
0
 10
4070.638027054622853
 20
58.9255792425312421
 30
0.0
 11
4070.6399408775750999
 21
58.9334900384688893
 31
0.0
  0
LINE
  5
9522
  8
0
 10
4070.6399408775750999
 20
58.9334900384688893
 30
0.0
 11
4070.6338166922928394
 21
58.9381444812838495
 31
0.0
  0
LINE
  5
9523
  8
0
 10
4070.6213301349739595
 20
58.9290621977981317
 30
0.0
 11
4070.6240962858491912
 21
58.9404960950944101
 31
0.0
  0
LINE
  5
9524
  8
0
 10
4070.6035011757389839
 20
58.9278658621476126
 30
0.0
 11
4070.6020994967771003
 21
58.9220720154090003
 31
0.0
  0
LINE
  5
9525
  8
0
 10
4070.6020994967771003
 20
58.9220720154090003
 30
0.0
 11
4070.6171758073528508
 21
58.9118902654134686
 31
0.0
  0
LINE
  5
9526
  8
0
 10
4070.6171758073528508
 20
58.9118902654134686
 30
0.0
 11
4070.633638976389193
 21
58.9074411007939531
 31
0.0
  0
LINE
  5
9527
  8
0
 10
4070.633638976389193
 20
58.9074411007939531
 30
0.0
 11
4070.6350234846700005
 21
58.913163972081307
 31
0.0
  0
LINE
  5
9528
  8
0
 10
4070.6350234846700005
 20
58.913163972081307
 30
0.0
 11
4070.619961955006147
 21
58.9234068194764333
 31
0.0
  0
LINE
  5
9529
  8
0
 10
4070.619961955006147
 20
58.9234068194764333
 30
0.0
 11
4070.6035011757389839
 21
58.9278658621476126
 31
0.0
  0
LINE
  5
952A
  8
0
 10
4070.609879175775859
 20
58.927621450808978
 30
0.0
 11
4070.6115378313620567
 21
58.9344775109466497
 31
0.0
  0
LINE
  5
952B
  8
0
 10
4070.6115378313620567
 20
58.9344775109466497
 30
0.0
 11
4070.5968494852581898
 21
58.9462629144360193
 31
0.0
  0
LINE
  5
952C
  8
0
 10
4070.5968494852581898
 20
58.9462629144360193
 30
0.0
 11
4070.5804682672078343
 21
58.9510508235631576
 31
0.0
  0
LINE
  5
952D
  8
0
 10
4070.5804682672078343
 20
58.9510508235631576
 30
0.0
 11
4070.5787949318769279
 21
58.9441340840089794
 31
0.0
  0
LINE
  5
952E
  8
0
 10
4070.5787949318769279
 20
58.9441340840089794
 30
0.0
 11
4070.5935050137859434
 21
58.9324385258653791
 31
0.0
  0
LINE
  5
952F
  8
0
 10
4070.5935050137859434
 20
58.9324385258653791
 30
0.0
 11
4070.6098791758467996
 21
58.9276214508715981
 31
0.0
  0
LINE
  5
9530
  8
0
 10
4070.5838181964791147
 20
58.9382898675022915
 30
0.0
 11
4070.5692081285728818
 21
58.9503988340793867
 31
0.0
  0
LINE
  5
9531
  8
0
 10
4070.5692081285728818
 20
58.9503988340793867
 30
0.0
 11
4070.5531686890758465
 21
58.9565994864033271
 31
0.0
  0
LINE
  5
9532
  8
0
 10
4070.5531686890758465
 20
58.9565994864033271
 30
0.0
 11
4070.5517251274768569
 21
58.9506325180089803
 31
0.0
  0
LINE
  5
9533
  8
0
 10
4070.5517251274768569
 20
58.9506325180089803
 30
0.0
 11
4070.5663491104241984
 21
58.9385810696295565
 31
0.0
  0
LINE
  5
9534
  8
0
 10
4070.5663491104241984
 20
58.9385810696295565
 30
0.0
 11
4070.5824024688758982
 21
58.9324379513089767
 31
0.0
  0
LINE
  5
9535
  8
0
 10
4070.5824024688758982
 20
58.9324379513089767
 30
0.0
 11
4070.5838181964791147
 21
58.9382898675022915
 31
0.0
  0
LINE
  5
9536
  8
0
 10
4070.576196933276151
 20
58.9333952449089935
 30
0.0
 11
4070.5750300241152217
 21
58.9285718209335485
 31
0.0
  0
LINE
  5
9537
  8
0
 10
4070.5750300241152217
 20
58.9285718209335485
 30
0.0
 11
4070.5900224095139492
 21
58.9180431656888075
 31
0.0
  0
LINE
  5
9538
  8
0
 10
4070.5900224095139492
 20
58.9180431656888075
 30
0.0
 11
4070.6061726924581308
 21
58.9123006847264108
 31
0.0
  0
LINE
  5
9539
  8
0
 10
4070.6061726924581308
 20
58.9123006847264108
 30
0.0
 11
4070.6073218488718339
 21
58.9170507281915974
 31
0.0
  0
LINE
  5
953A
  8
0
 10
4070.6073218488718339
 20
58.9170507281915974
 30
0.0
 11
4070.5923383390540948
 21
58.9276160705567875
 31
0.0
  0
LINE
  5
953B
  8
0
 10
4070.5923383390540948
 20
58.9276160705567875
 30
0.0
 11
4070.5761968748170148
 21
58.9333950032680178
 31
0.0
  0
LINE
  5
953C
  8
0
 10
4070.5726553799481735
 20
58.9187562180936624
 30
0.0
 11
4070.5733417021770038
 21
58.9215931344089796
 31
0.0
  0
LINE
  5
953D
  8
0
 10
4070.5733417021770038
 20
58.9215931344089796
 30
0.0
 11
4070.5892638901768805
 21
58.9149078223089901
 31
0.0
  0
LINE
  5
953E
  8
0
 10
4070.5892638901768805
 20
58.9149078223089901
 30
0.0
 11
4070.6045095126792148
 21
58.905425923718191
 31
0.0
  0
LINE
  5
953F
  8
0
 10
4070.6045095126792148
 20
58.905425923718191
 30
0.0
 11
4070.6038332322927999
 21
58.9026305155751473
 31
0.0
  0
LINE
  5
9540
  8
0
 10
4070.6038332322927999
 20
58.9026305155751473
 30
0.0
 11
4070.5879013851758828
 21
58.9092759017090017
 31
0.0
  0
LINE
  5
9541
  8
0
 10
4070.5879013851758828
 20
58.9092759017090017
 30
0.0
 11
4070.5726553799481735
 21
58.9187562180936624
 31
0.0
  0
LINE
  5
9542
  8
0
 10
4070.5990807613770812
 20
58.9095940591089828
 30
0.0
 11
4070.5999922769819932
 21
58.9133618130124788
 31
0.0
  0
LINE
  5
9543
  8
0
 10
4070.5999922769819932
 20
58.9133618130124788
 30
0.0
 11
4070.6162276559771271
 21
58.9079710772089769
 31
0.0
  0
LINE
  5
9544
  8
0
 10
4070.6162276559771271
 20
58.9079710772089769
 30
0.0
 11
4070.6315568990039537
 21
58.8988348245035667
 31
0.0
  0
LINE
  5
9545
  8
0
 10
4070.6315568990039537
 20
58.8988348245035667
 30
0.0
 11
4070.6306560174689366
 21
58.8951110264755613
 31
0.0
  0
LINE
  5
9546
  8
0
 10
4070.6306560174689366
 20
58.8951110264755613
 30
0.0
 11
4070.6144153211939738
 21
58.9004797832835294
 31
0.0
  0
LINE
  5
9547
  8
0
 10
4070.6144153211939738
 20
58.9004797832835294
 30
0.0
 11
4070.5990807613770812
 21
58.9095940591089828
 31
0.0
  0
LINE
  5
9548
  8
0
 10
4070.5973915436570678
 20
58.902611669725971
 30
0.0
 11
4070.5978408129740274
 21
58.9044687265989211
 31
0.0
  0
LINE
  5
9549
  8
0
 10
4070.5978408129740274
 20
58.9044687265989211
 30
0.0
 11
4070.6138572461859439
 21
58.8981729776757419
 31
0.0
  0
LINE
  5
954A
  8
0
 10
4070.6138572461859439
 20
58.8981729776757419
 30
0.0
 11
4070.629430307462826
 21
58.8900445487563928
 31
0.0
  0
LINE
  5
954B
  8
0
 10
4070.629430307462826
 20
58.8900445487563928
 30
0.0
 11
4070.6289861337759248
 21
58.8882085546089868
 31
0.0
  0
LINE
  5
954C
  8
0
 10
4070.6289861337759248
 20
58.8882085546089868
 30
0.0
 11
4070.6129638431161766
 21
58.8944800917942501
 31
0.0
  0
LINE
  5
954D
  8
0
 10
4070.6129638431161766
 20
58.8944800917942501
 30
0.0
 11
4070.5973915436770767
 21
58.9026116698089908
 31
0.0
  0
LINE
  5
954E
  8
0
 10
4070.6027901240759093
 20
58.8983188231089869
 30
0.0
 11
4070.6030134415668726
 21
58.8992419069389612
 31
0.0
  0
LINE
  5
954F
  8
0
 10
4070.6030134415668726
 20
58.8992419069389612
 30
0.0
 11
4070.5875275720140962
 21
58.907730743130017
 31
0.0
  0
LINE
  5
9550
  8
0
 10
4070.5875275720140962
 20
58.907730743130017
 30
0.0
 11
4070.5718235537769942
 21
58.9153178610090009
 31
0.0
  0
LINE
  5
9551
  8
0
 10
4070.5718235537769942
 20
58.9153178610090009
 30
0.0
 11
4070.5716366617571111
 21
58.9145453419658693
 31
0.0
  0
LINE
  5
9552
  8
0
 10
4070.5776494940760131
 20
58.912791508108981
 30
0.0
 11
4070.5781029219961056
 21
58.914665754407487
 31
0.0
  0
LINE
  5
9553
  8
0
 10
4070.5781029219961056
 20
58.914665754407487
 30
0.0
 11
4070.562947820035788
 21
58.9245218201336414
 31
0.0
  0
LINE
  5
9554
  8
0
 10
4070.562947820035788
 20
58.9245218201336414
 30
0.0
 11
4070.5473447717768067
 21
58.9325262977089821
 31
0.0
  0
LINE
  5
9555
  8
0
 10
4070.5473447717768067
 20
58.9325262977089821
 30
0.0
 11
4070.5468831327762018
 21
58.9306181107089699
 31
0.0
  0
LINE
  5
9556
  8
0
 10
4070.5468831327762018
 20
58.9306181107089699
 30
0.0
 11
4070.5615095739758544
 21
58.9210675213089772
 31
0.0
  0
LINE
  5
9557
  8
0
 10
4070.5615095739758544
 20
58.9210675213089772
 30
0.0
 11
4070.5776494940760131
 21
58.9127915081704501
 31
0.0
  0
LINE
  5
9558
  8
0
 10
4070.5793544950101932
 20
58.9198391371718486
 30
0.0
 11
4070.5802746967760868
 21
58.923642795608977
 31
0.0
  0
LINE
  5
9559
  8
0
 10
4070.5802746967760868
 20
58.923642795608977
 30
0.0
 11
4070.5653768845409104
 21
58.9345623694294289
 31
0.0
  0
LINE
  5
955A
  8
0
 10
4070.5653768845409104
 20
58.9345623694294289
 30
0.0
 11
4070.5495566839758794
 21
58.9416692471089831
 31
0.0
  0
LINE
  5
955B
  8
0
 10
4070.5495566839758794
 20
58.9416692471089831
 30
0.0
 11
4070.5486193100259698
 21
58.937794607532858
 31
0.0
  0
LINE
  5
955C
  8
0
 10
4070.5486193100259698
 20
58.937794607532858
 30
0.0
 11
4070.5635195115019087
 21
58.9268849097784511
 31
0.0
  0
LINE
  5
955D
  8
0
 10
4070.5635195115019087
 20
58.9268849097784511
 30
0.0
 11
4070.5793544949760872
 21
58.9198391372089887
 31
0.0
  0
LINE
  5
955E
  8
0
 10
4070.5538821957347864
 20
58.9329408657887512
 30
0.0
 11
4070.5531879395271062
 21
58.9300711547104612
 31
0.0
  0
LINE
  5
955F
  8
0
 10
4070.5531879395271062
 20
58.9300711547104612
 30
0.0
 11
4070.5376754358758262
 21
58.9384498989089778
 31
0.0
  0
LINE
  5
9560
  8
0
 10
4070.5376754358758262
 20
58.9384498989089778
 30
0.0
 11
4070.5228773169760643
 21
58.9497815556089932
 31
0.0
  0
LINE
  5
9561
  8
0
 10
4070.5228773169760643
 20
58.9497815556089932
 30
0.0
 11
4070.5235869465532232
 21
58.9527148129134702
 31
0.0
  0
LINE
  5
9562
  8
0
 10
4070.5235869465532232
 20
58.9527148129134702
 30
0.0
 11
4070.5390790846490745
 21
58.944251887498929
 31
0.0
  0
LINE
  5
9563
  8
0
 10
4070.5390790846490745
 20
58.944251887498929
 30
0.0
 11
4070.5538821956770335
 21
58.9329408658089804
 31
0.0
  0
LINE
  5
9564
  8
0
 10
4070.5555903963759192
 20
58.9400017213089811
 30
0.0
 11
4070.5567713540681325
 21
58.9448832149580397
 31
0.0
  0
LINE
  5
9565
  8
0
 10
4070.5567713540681325
 20
58.9448832149580397
 30
0.0
 11
4070.5422497009308245
 21
58.9573576443300027
 31
0.0
  0
LINE
  5
9566
  8
0
 10
4070.5422497009308245
 20
58.9573576443300027
 30
0.0
 11
4070.5297313240230324
 21
58.9633253819896268
 31
0.0
  0
LINE
  5
9567
  8
0
 10
4070.5263517148950996
 20
58.9641429954858012
 30
0.0
 11
4070.5253337026761074
 21
58.9599350371089912
 31
0.0
  0
LINE
  5
9568
  8
0
 10
4070.5253337026761074
 20
58.9599350371089912
 30
0.0
 11
4070.5398608943210093
 21
58.947483501420912
 31
0.0
  0
LINE
  5
9569
  8
0
 10
4070.5398608943210093
 20
58.947483501420912
 30
0.0
 11
4070.5555903964041136
 21
58.9400017214234282
 31
0.0
  0
LINE
  5
956A
  8
0
 10
4070.5166959596708693
 20
58.9664789685199509
 30
0.0
 11
4070.5303974857711182
 21
58.9542583041878885
 31
0.0
  0
LINE
  5
956B
  8
0
 10
4070.5303974857711182
 20
58.9542583041878885
 30
0.0
 11
4070.5294467945900578
 21
58.9503286179606434
 31
0.0
  0
LINE
  5
956C
  8
0
 10
4070.5294467945900578
 20
58.9503286179606434
 30
0.0
 11
4070.5140493709659495
 21
58.9591830456989925
 31
0.0
  0
LINE
  5
956D
  8
0
 10
4070.5140493709659495
 20
58.9591830456989925
 30
0.0
 11
4070.5017710666829771
 21
58.9700896801369225
 31
0.0
  0
LINE
  5
956E
  8
0
 10
4070.5003228445921195
 20
58.9704400419340473
 30
0.0
 11
4070.5047075887769097
 21
58.9664605915089766
 31
0.0
  0
LINE
  5
956F
  8
0
 10
4070.5047075887769097
 20
58.9664605915089766
 30
0.0
 11
4070.5039861784821369
 21
58.9634786388330525
 31
0.0
  0
LINE
  5
9570
  8
0
 10
4070.5039861784821369
 20
58.9634786388330525
 30
0.0
 11
4070.4901453807901817
 21
58.9729022295566025
 31
0.0
  0
LINE
  5
9571
  8
0
 10
4070.486149585522071
 20
58.9738689141688965
 30
0.0
 11
4070.4885333386650927
 21
58.9721040036638229
 31
0.0
  0
LINE
  5
9572
  8
0
 10
4070.4885333386650927
 20
58.9721040036638229
 30
0.0
 11
4070.5031123457679314
 21
58.9598666475488997
 31
0.0
  0
LINE
  5
9573
  8
0
 10
4070.5031123457679314
 20
58.9598666475488997
 30
0.0
 11
4070.5028744312771778
 21
58.9588832269089806
 31
0.0
  0
LINE
  5
9574
  8
0
 10
4070.5028744312771778
 20
58.9588832269089806
 30
0.0
 11
4070.4931063122908199
 21
58.9660592338169494
 31
0.0
  0
LINE
  5
9575
  8
0
 10
4070.4978249270998276
 20
58.9646189818042288
 30
0.0
 11
4070.4983051025587883
 21
58.9666037893409865
 31
0.0
  0
LINE
  5
9576
  8
0
 10
4070.4983051025587883
 20
58.9666037893409865
 30
0.0
 11
4070.5134568248518008
 21
58.9567337533960227
 31
0.0
  0
LINE
  5
9577
  8
0
 10
4070.5134568248518008
 20
58.9567337533960227
 30
0.0
 11
4070.5281544611771096
 21
58.9449867516090009
 31
0.0
  0
LINE
  5
9578
  8
0
 10
4070.5281544611771096
 20
58.9449867516090009
 30
0.0
 11
4070.527686463576174
 21
58.9430522814089812
 31
0.0
  0
LINE
  5
9579
  8
0
 10
4070.527686463576174
 20
58.9430522814089812
 30
0.0
 11
4070.5125088813751972
 21
58.9528154250000824
 31
0.0
  0
LINE
  5
957A
  8
0
 10
4070.5125088813751972
 20
58.9528154250000824
 30
0.0
 11
4070.4978249271011919
 21
58.9646189818032127
 31
0.0
  0
LINE
  5
957B
  8
0
 10
4070.5217834698619299
 20
58.9452601334717272
 30
0.0
 11
4070.522017579416115
 21
58.9462278263598805
 31
0.0
  0
LINE
  5
957C
  8
0
 10
4070.522017579416115
 20
58.9462278263598805
 30
0.0
 11
4070.5372904869291233
 21
58.9368587105893269
 31
0.0
  0
LINE
  5
957D
  8
0
 10
4070.5372904869291233
 20
58.9368587105893269
 30
0.0
 11
4070.5523466085642212
 21
58.9265935092530597
 31
0.0
  0
LINE
  5
957E
  8
0
 10
4070.5523466085642212
 20
58.9265935092530597
 30
0.0
 11
4070.5521501345360775
 21
58.9257813830667629
 31
0.0
  0
LINE
  5
957F
  8
0
 10
4070.5217834698619299
 20
58.9452601334717272
 30
0.0
 11
4070.5234974036411586
 21
58.9439451113394881
 31
0.0
  0
LINE
  5
9580
  8
0
 10
4070.4885333386650927
 20
58.9721040036638229
 30
0.0
 11
4070.4873637742298342
 21
58.9706705386871093
 31
0.0
  0
LINE
  5
9581
  8
0
 10
4070.5140493709659495
 20
58.9591830456989925
 30
0.0
 11
4070.5166959596708693
 21
58.9664789685199509
 31
0.0
  0
LINE
  5
9582
  8
0
 10
4070.5125088813751972
 20
58.9528154250000824
 30
0.0
 11
4070.5134568248518008
 21
58.9567337533960227
 31
0.0
  0
LINE
  5
9583
  8
0
 10
4070.5398608943210093
 20
58.947483501420912
 30
0.0
 11
4070.5422497009308245
 21
58.9573576443300027
 31
0.0
  0
LINE
  5
9584
  8
0
 10
4070.5390790846490745
 20
58.944251887498929
 30
0.0
 11
4070.5376754358758262
 21
58.9384498989089778
 31
0.0
  0
LINE
  5
9585
  8
0
 10
4070.5653768845409104
 20
58.9345623694294289
 30
0.0
 11
4070.5635195115019087
 21
58.9268849097784511
 31
0.0
  0
LINE
  5
9586
  8
0
 10
4070.5663491104241984
 20
58.9385810696295565
 30
0.0
 11
4070.5692081285728818
 21
58.9503988340793867
 31
0.0
  0
LINE
  5
9587
  8
0
 10
4070.5935050137859434
 20
58.9324385258653791
 30
0.0
 11
4070.5968494852581898
 21
58.9462629144360193
 31
0.0
  0
LINE
  5
9588
  8
0
 10
4070.5923383390540948
 20
58.9276160705567875
 30
0.0
 11
4070.5900224095139492
 21
58.9180431656888075
 31
0.0
  0
LINE
  5
9589
  8
0
 10
4070.5892638901768805
 20
58.9149078223089901
 30
0.0
 11
4070.5892638901768805
 21
58.9092759017090017
 31
0.0
  0
LINE
  5
958A
  8
0
 10
4070.562947820035788
 20
58.9245218201336414
 30
0.0
 11
4070.5615095739758544
 21
58.9210675213089772
 31
0.0
  0
LINE
  5
958B
  8
0
 10
4070.619961955006147
 20
58.9234068194764333
 30
0.0
 11
4070.6171758073528508
 21
58.9118902654134686
 31
0.0
  0
LINE
  5
958C
  8
0
 10
4070.6162276559771271
 20
58.9079710772089769
 30
0.0
 11
4070.6144153211939738
 21
58.9004797832835294
 31
0.0
  0
LINE
  5
958D
  8
0
 10
4070.6138572461859439
 20
58.8981729776757419
 30
0.0
 11
4070.6129638431161766
 21
58.8944800917942501
 31
0.0
  0
LINE
  5
958E
  8
0
 10
4070.7820756395021817
 20
58.9022768670565
 30
0.0
 11
4070.7687117865420987
 21
58.847037319876577
 31
0.0
  0
ARC
  5
958F
  8
0
 10
4070.8515965383949151
 20
59.3909078780956321
 30
0.0
 40
0.5501500397049647
 50
261.3349134250727275
 51
268.8165157677743764
  0
ARC
  5
9590
  8
0
 10
4070.8541228863150536
 20
59.5131980470884869
 30
0.0
 40
0.6724663013634942
 50
268.8165157677743764
 51
276.7465026642623798
  0
ARC
  5
9591
  8
0
 10
4070.8775804259739743
 20
59.3149025975464284
 30
0.0
 40
0.4727882067315199
 50
276.7465026642623798
 51
282.7911458471031096
  0
LINE
  5
9592
  8
0
 10
4070.8126885843639684
 20
58.8948708161060281
 30
0.0
 11
4070.8113891839111602
 21
58.8894997385190635
 31
0.0
  0
LINE
  5
9593
  8
0
 10
4070.8113891839111602
 20
58.8894997385190635
 30
0.0
 11
4070.8121865343778154
 21
58.8892259036293666
 31
0.0
  0
LINE
  5
9594
  8
0
 10
4070.8121865343778154
 20
58.8892259036293666
 30
0.0
 11
4070.826403024675983
 21
58.8915529440338688
 31
0.0
  0
LINE
  5
9595
  8
0
 10
4070.826962592241216
 20
58.877803057519948
 30
0.0
 11
4070.8253172536929014
 21
58.8710020433336609
 31
0.0
  0
LINE
  5
9596
  8
0
 10
4070.8253172536929014
 20
58.8710020433336609
 30
0.0
 11
4070.8073261804947833
 21
58.8691568181762221
 31
0.0
  0
LINE
  5
9597
  8
0
 10
4070.8073261804947833
 20
58.8691568181762221
 30
0.0
 11
4070.8065151797309227
 21
58.8693530199135608
 31
0.0
  0
LINE
  5
9598
  8
0
 10
4070.8065151797309227
 20
58.8693530199135608
 30
0.0
 11
4070.8097154913948543
 21
58.8825815228614786
 31
0.0
  0
LINE
  5
9599
  8
0
 10
4070.8097154913948543
 20
58.8825815228614786
 30
0.0
 11
4070.8106063849841121
 21
58.8826943491577168
 31
0.0
  0
LINE
  5
959A
  8
0
 10
4070.8106063849841121
 20
58.8826943491577168
 30
0.0
 11
4070.826962592241216
 21
58.877803057519948
 31
0.0
  0
LINE
  5
959B
  8
0
 10
4070.8053108450922082
 20
58.8643748970994878
 30
0.0
 11
4070.8030960431251515
 21
58.8552200029914871
 31
0.0
  0
LINE
  5
959C
  8
0
 10
4070.8030960431251515
 20
58.8552200029914871
 30
0.0
 11
4070.8039118912179219
 21
58.8550226285661466
 31
0.0
  0
LINE
  5
959D
  8
0
 10
4070.8039118912179219
 20
58.8550226285661466
 30
0.0
 11
4070.8216393369361867
 21
58.8557993577311294
 31
0.0
  0
LINE
  5
959E
  8
0
 10
4070.8216393369361867
 20
58.8557993577311294
 30
0.0
 11
4070.8227798072221049
 21
58.8605134965701282
 31
0.0
  0
LINE
  5
959F
  8
0
 10
4070.8227798072221049
 20
58.8605134965701282
 30
0.0
 11
4070.8062100646911858
 21
58.8645221391578417
 31
0.0
  0
LINE
  5
95A0
  8
0
 10
4070.8062100646911858
 20
58.8645221391578417
 30
0.0
 11
4070.8053108450922082
 21
58.8643748970994878
 31
0.0
  0
LINE
  5
95A1
  8
0
 10
4070.8023078733108377
 20
58.8519620997190103
 30
0.0
 11
4070.8031726040171634
 21
58.8519667817425187
 31
0.0
  0
LINE
  5
95A2
  8
0
 10
4070.8031726040171634
 20
58.8519667817425187
 30
0.0
 11
4070.8199884680329887
 21
58.8489754834949181
 31
0.0
  0
LINE
  5
95A3
  8
0
 10
4070.8199884680329887
 20
58.8489754834949181
 30
0.0
 11
4070.8193171074958627
 21
58.8462004115509529
 31
0.0
  0
LINE
  5
95A4
  8
0
 10
4070.8193171074958627
 20
58.8462004115509529
 30
0.0
 11
4070.8018355997101025
 21
58.8464402683628265
 31
0.0
  0
LINE
  5
95A5
  8
0
 10
4070.8018355997101025
 20
58.8464402683628265
 30
0.0
 11
4070.8010040935828329
 21
58.8465729203257766
 31
0.0
  0
LINE
  5
95A6
  8
0
 10
4070.8010040935828329
 20
58.8465729203257766
 30
0.0
 11
4070.8023078614328369
 21
58.851962099654699
 31
0.0
  0
LINE
  5
95A7
  8
0
 10
4070.8031726039212117
 20
58.8519667817594581
 30
0.0
 11
4070.8018356027978371
 21
58.8464402683204497
 31
0.0
  0
LINE
  5
95A8
  8
0
 10
4070.8182814927240543
 20
58.84191969327604
 30
0.0
 11
4070.8185032155629415
 21
58.8428361856053499
 31
0.0
  0
LINE
  5
95A9
  8
0
 10
4070.8185032155629415
 20
58.8428361856053499
 30
0.0
 11
4070.8014686954661556
 21
58.8449236659116508
 31
0.0
  0
LINE
  5
95AA
  8
0
 10
4070.8014686954661556
 20
58.8449236659116508
 30
0.0
 11
4070.8006154573399726
 21
58.8449664907361765
 31
0.0
  0
LINE
  5
95AB
  8
0
 10
4070.8006154573399726
 20
58.8449664907361765
 30
0.0
 11
4070.8001848402150245
 21
58.8431865327183701
 31
0.0
  0
LINE
  5
95AC
  8
0
 10
4070.8001848402150245
 20
58.8431865327183701
 30
0.0
 11
4070.8182814821548163
 21
58.8419196495907073
 31
0.0
  0
LINE
  5
95AD
  8
0
 10
4070.80103405560385
 20
58.8431270820947674
 30
0.0
 11
4070.8014686950309624
 21
58.8449236659335284
 31
0.0
  0
LINE
  5
95AE
  8
0
 10
4070.8039118912179219
 20
58.8550226285661466
 30
0.0
 11
4070.8062100646911858
 21
58.8645221391578417
 31
0.0
  0
LINE
  5
95AF
  8
0
 10
4070.8073309907658768
 20
58.8691554922445803
 30
0.0
 11
4070.8106063849850216
 21
58.8826943491578305
 31
0.0
  0
LINE
  5
95B0
  8
0
 10
4070.8121864987911067
 20
58.8892259158510427
 30
0.0
 11
4070.8135044325058516
 21
58.8946734417738611
 31
0.0
  0
LINE
  5
95B1
  8
0
 10
4070.8571324511649436
 20
58.8841187131102473
 30
0.0
 11
4070.8561492097751398
 21
58.8800544805323867
 31
0.0
  0
LINE
  5
95B2
  8
0
 10
4070.8561492097751398
 20
58.8800544805323867
 30
0.0
 11
4070.8377965578411022
 21
58.8766934584913386
 31
0.0
  0
LINE
  5
95B3
  8
0
 10
4070.8377965578411022
 20
58.8766934584913386
 30
0.0
 11
4070.8213539924981887
 21
58.8812277884338613
 31
0.0
  0
LINE
  5
95B4
  8
0
 10
4070.8213539924981887
 20
58.8812277884338613
 30
0.0
 11
4070.8232678154631685
 21
58.8891385843680411
 31
0.0
  0
LINE
  5
95B5
  8
0
 10
4070.8232678154631685
 20
58.8891385843680411
 30
0.0
 11
4070.8308423026310265
 21
58.8904789696678321
 31
0.0
  0
LINE
  5
95B6
  8
0
 10
4070.8377965578411022
 20
58.8766934584913386
 30
0.0
 11
4070.8405627087317953
 21
58.8881273557838796
 31
0.0
  0
LINE
  5
95B7
  8
0
 10
4070.8531070835438186
 20
58.8674798376453765
 30
0.0
 11
4070.8517054044209544
 21
58.861685990945297
 31
0.0
  0
LINE
  5
95B8
  8
0
 10
4070.8517054044209544
 20
58.861685990945297
 30
0.0
 11
4070.8336422301258608
 21
58.8595215261299671
 31
0.0
  0
LINE
  5
95B9
  8
0
 10
4070.8336422301258608
 20
58.8595215261299671
 30
0.0
 11
4070.8169659141099146
 21
58.863089646733961
 31
0.0
  0
LINE
  5
95BA
  8
0
 10
4070.8169659141099146
 20
58.863089646733961
 30
0.0
 11
4070.8183504223861746
 21
58.8688125180221533
 31
0.0
  0
LINE
  5
95BB
  8
0
 10
4070.8183504223861746
 20
58.8688125180221533
 30
0.0
 11
4070.8364283777909804
 21
58.8710380801893578
 31
0.0
  0
LINE
  5
95BC
  8
0
 10
4070.8364283777909804
 20
58.8710380801893578
 30
0.0
 11
4070.8531070835438186
 21
58.8674798376453765
 31
0.0
  0
LINE
  5
95BD
  8
0
 10
4070.8473226659698412
 20
58.8701778248032426
 30
0.0
 11
4070.8489813214227979
 21
58.8770338849730166
 31
0.0
  0
LINE
  5
95BE
  8
0
 10
4070.8489813214227979
 20
58.8770338849730166
 30
0.0
 11
4070.8674324604530739
 21
58.8808020032192729
 31
0.0
  0
LINE
  5
95BF
  8
0
 10
4070.8674324604530739
 20
58.8808020032192729
 30
0.0
 11
4070.8841907273322249
 21
58.8775726271523325
 31
0.0
  0
LINE
  5
95C0
  8
0
 10
4070.8841907273322249
 20
58.8775726271523325
 30
0.0
 11
4070.8825173918530709
 21
58.8706558876339017
 31
0.0
  0
LINE
  5
95C1
  8
0
 10
4070.8825173918530709
 20
58.8706558876339017
 30
0.0
 11
4070.8640879887611845
 21
58.8669776147016393
 31
0.0
  0
LINE
  5
95C2
  8
0
 10
4070.8640879887611845
 20
58.8669776147016393
 30
0.0
 11
4070.8473226659348256
 21
58.8701778248914209
 31
0.0
  0
LINE
  5
95C3
  8
0
 10
4070.8753782388139371
 20
58.8677540696310899
 30
0.0
 11
4070.8939076559508976
 21
58.8718457509872977
 31
0.0
  0
LINE
  5
95C4
  8
0
 10
4070.8939076559508976
 20
58.8718457509872977
 30
0.0
 11
4070.9110077013801856
 21
58.8700291181176425
 31
0.0
  0
LINE
  5
95C5
  8
0
 10
4070.9110077013801856
 20
58.8700291181176425
 30
0.0
 11
4070.9095641398089356
 21
58.8640621497166379
 31
0.0
  0
LINE
  5
95C6
  8
0
 10
4070.9095641398089356
 20
58.8640621497166379
 30
0.0
 11
4070.8910486378549649
 21
58.8600279865244005
 31
0.0
  0
LINE
  5
95C7
  8
0
 10
4070.8910486378549649
 20
58.8600279865244005
 30
0.0
 11
4070.8739625113530565
 21
58.8619021534036193
 31
0.0
  0
LINE
  5
95C8
  8
0
 10
4070.8739625113530565
 20
58.8619021534036193
 30
0.0
 11
4070.8753782388139371
 21
58.8677540696310899
 31
0.0
  0
LINE
  5
95C9
  8
0
 10
4070.8799193932381968
 20
58.8599170485375467
 30
0.0
 11
4070.8787524842450694
 21
58.8550936245214089
 31
0.0
  0
LINE
  5
95CA
  8
0
 10
4070.8787524842450694
 20
58.8550936245214089
 30
0.0
 11
4070.8606053847061048
 21
58.8525822544724875
 31
0.0
  0
LINE
  5
95CB
  8
0
 10
4070.8606053847061048
 20
58.8525822544724875
 30
0.0
 11
4070.8436161824811279
 21
58.8548570587620787
 31
0.0
  0
LINE
  5
95CC
  8
0
 10
4070.8436161824811279
 20
58.8548570587620787
 30
0.0
 11
4070.8447653389789593
 21
58.8596071022069083
 31
0.0
  0
LINE
  5
95CD
  8
0
 10
4070.8447653389789593
 20
58.8596071022069083
 30
0.0
 11
4070.8629213140370666
 21
58.8621551593910581
 31
0.0
  0
LINE
  5
95CE
  8
0
 10
4070.8629213140370666
 20
58.8621551593910581
 30
0.0
 11
4070.8799193347781511
 21
58.8599168068965781
 31
0.0
  0
LINE
  5
95CF
  8
0
 10
4070.8763778399220428
 20
58.8452780217194871
 30
0.0
 11
4070.8770641622659241
 21
58.8481149380066526
 31
0.0
  0
LINE
  5
95D0
  8
0
 10
4070.8770641622659241
 20
58.8481149380066526
 30
0.0
 11
4070.8598468652589872
 21
58.8494469111191592
 31
0.0
  0
LINE
  5
95D1
  8
0
 10
4070.8598468652589872
 20
58.8494469111191592
 30
0.0
 11
4070.8419530027917972
 21
58.8479822977318818
 31
0.0
  0
LINE
  5
95D2
  8
0
 10
4070.8419530027917972
 20
58.8479822977318818
 30
0.0
 11
4070.8412767223690025
 21
58.845186889597791
 31
0.0
  0
LINE
  5
95D3
  8
0
 10
4070.8412767223690025
 20
58.845186889597791
 30
0.0
 11
4070.8584843602739056
 21
58.8438149905153907
 31
0.0
  0
LINE
  5
95D4
  8
0
 10
4070.8584843602739056
 20
58.8438149905153907
 30
0.0
 11
4070.8763778399220428
 21
58.8452780217194871
 31
0.0
  0
LINE
  5
95D5
  8
0
 10
4070.8486866691359864
 20
58.8492080346177104
 30
0.0
 11
4070.8495981847358962
 21
58.852975788522329
 31
0.0
  0
LINE
  5
95D6
  8
0
 10
4070.8495981847358962
 20
58.852975788522329
 30
0.0
 11
4070.8326940786741943
 21
58.855602337943381
 31
0.0
  0
LINE
  5
95D7
  8
0
 10
4070.8326940786741943
 20
58.855602337943381
 30
0.0
 11
4070.8148838367601456
 21
58.8544833704350623
 31
0.0
  0
LINE
  5
95D8
  8
0
 10
4070.8148838367601456
 20
58.8544833704350623
 30
0.0
 11
4070.8139829551851108
 21
58.8507595724165213
 31
0.0
  0
LINE
  5
95D9
  8
0
 10
4070.8139829551851108
 20
58.8507595724165213
 30
0.0
 11
4070.8308817439678933
 21
58.8481110439997082
 31
0.0
  0
LINE
  5
95DA
  8
0
 10
4070.8308817439678933
 20
58.8481110439997082
 30
0.0
 11
4070.8486866691359864
 21
58.8492080346177104
 31
0.0
  0
LINE
  5
95DB
  8
0
 10
4070.8469974513100169
 20
58.8422256452601218
 30
0.0
 11
4070.8474467206729059
 21
58.8440827021221224
 31
0.0
  0
LINE
  5
95DC
  8
0
 10
4070.8474467206729059
 20
58.8440827021221224
 30
0.0
 11
4070.8303236689530422
 21
58.8458042383935123
 31
0.0
  0
LINE
  5
95DD
  8
0
 10
4070.8303236689530422
 20
58.8458042383935123
 30
0.0
 11
4070.8127572452608547
 21
58.8456930946777419
 31
0.0
  0
LINE
  5
95DE
  8
0
 10
4070.8127572452608547
 20
58.8456930946777419
 30
0.0
 11
4070.8123130714889157
 21
58.8438571005507214
 31
0.0
  0
LINE
  5
95DF
  8
0
 10
4070.8123130714889157
 20
58.8438571005507214
 30
0.0
 11
4070.8294302657850494
 21
58.8421113525356674
 31
0.0
  0
LINE
  5
95E0
  8
0
 10
4070.8294302657850494
 20
58.8421113525356674
 30
0.0
 11
4070.8469974513309353
 21
58.8422256453431132
 31
0.0
  0
LINE
  5
95E1
  8
0
 10
4070.8402336142012246
 20
58.8408751971201269
 30
0.0
 11
4070.840456931675817
 21
58.8417982809538813
 31
0.0
  0
LINE
  5
95E2
  8
0
 10
4070.840456931675817
 20
58.8417982809538813
 30
0.0
 11
4070.8581105470361763
 21
58.8422698319545319
 31
0.0
  0
LINE
  5
95E3
  8
0
 10
4070.8581105470361763
 20
58.8422698319545319
 30
0.0
 11
4070.8755460138359012
 21
58.8418396646134596
 31
0.0
  0
LINE
  5
95E4
  8
0
 10
4070.8755460138359012
 20
58.8418396646134596
 30
0.0
 11
4070.8753591218060137
 21
58.8410671455731986
 31
0.0
  0
LINE
  5
95E5
  8
0
 10
4070.8692095364722263
 20
58.8422557102232773
 30
0.0
 11
4070.8696629643582128
 21
58.8441299565300966
 31
0.0
  0
LINE
  5
95E6
  8
0
 10
4070.8696629643582128
 20
58.8441299565300966
 30
0.0
 11
4070.8876473473928854
 21
58.8459687370461921
 31
0.0
  0
LINE
  5
95E7
  8
0
 10
4070.8876473473928854
 20
58.8459687370461921
 30
0.0
 11
4070.9051837840961525
 21
58.8459559294197021
 31
0.0
  0
LINE
  5
95E8
  8
0
 10
4070.9051837840961525
 20
58.8459559294197021
 30
0.0
 11
4070.9047221450568941
 21
58.8440477424293391
 31
0.0
  0
LINE
  5
95E9
  8
0
 10
4070.9047221450568941
 20
58.8440477424293391
 30
0.0
 11
4070.8873475941500146
 21
58.8422390078211919
 31
0.0
  0
LINE
  5
95EA
  8
0
 10
4070.8873475941500146
 20
58.8422390078211919
 30
0.0
 11
4070.8692095364999659
 21
58.8422557102776622
 31
0.0
  0
LINE
  5
95EB
  8
0
 10
4070.8709145373700267
 20
58.8493033392945009
 30
0.0
 11
4070.8718347392459691
 21
58.8531069977054102
 31
0.0
  0
LINE
  5
95EC
  8
0
 10
4070.8718347392459691
 20
58.8531069977054102
 30
0.0
 11
4070.8900764119348423
 21
58.8560092863330766
 31
0.0
  0
LINE
  5
95ED
  8
0
 10
4070.8900764119348423
 20
58.8560092863330766
 30
0.0
 11
4070.9073956964011813
 21
58.8550988787943794
 31
0.0
  0
LINE
  5
95EE
  8
0
 10
4070.9073956964011813
 20
58.8550988787943794
 30
0.0
 11
4070.9064583224158014
 21
58.8512242392262834
 31
0.0
  0
LINE
  5
95EF
  8
0
 10
4070.9064583224158014
 20
58.8512242392262834
 30
0.0
 11
4070.8882190390258984
 21
58.8483318266506288
 31
0.0
  0
LINE
  5
95F0
  8
0
 10
4070.8882190390258984
 20
58.8483318266506288
 30
0.0
 11
4070.8709145374177751
 21
58.8493033393121934
 31
0.0
  0
LINE
  5
95F1
  8
0
 10
4070.8995587904028071
 20
58.8493128960057916
 30
0.0
 11
4070.8988645342519703
 21
58.8464431849138094
 31
0.0
  0
LINE
  5
95F2
  8
0
 10
4070.8988645342519703
 20
58.8464431849138094
 30
0.0
 11
4070.9164915155952258
 21
58.8468046439029919
 31
0.0
  0
LINE
  5
95F3
  8
0
 10
4070.9164915155952258
 20
58.8468046439029919
 30
0.0
 11
4070.9348328816308822
 21
58.8501190154074578
 31
0.0
  0
LINE
  5
95F4
  8
0
 10
4070.9348328816308822
 20
58.8501190154074578
 30
0.0
 11
4070.9355425113039928
 21
58.8530522726886502
 31
0.0
  0
LINE
  5
95F5
  8
0
 10
4070.9355425113039928
 20
58.8530522726886502
 30
0.0
 11
4070.9178951643598339
 21
58.8526066324943571
 31
0.0
  0
LINE
  5
95F6
  8
0
 10
4070.9178951643598339
 20
58.8526066324943571
 30
0.0
 11
4070.899558790464198
 21
58.8493128959971017
 31
0.0
  0
LINE
  5
95F7
  8
0
 10
4070.9012669912158344
 20
58.8563737514846608
 30
0.0
 11
4070.9024479487447934
 21
58.8612552451730409
 31
0.0
  0
LINE
  5
95F8
  8
0
 10
4070.9024479487447934
 20
58.8612552451730409
 30
0.0
 11
4070.9210657806252129
 21
58.8657123893298007
 31
0.0
  0
LINE
  5
95F9
  8
0
 10
4070.9210657806252129
 20
58.8657123893298007
 30
0.0
 11
4070.9349276719090085
 21
58.8652980687186371
 31
0.0
  0
LINE
  5
95FA
  8
0
 10
4070.9383072796531451
 20
58.8644804552591125
 30
0.0
 11
4070.9372892673318347
 21
58.8602724969073066
 31
0.0
  0
LINE
  5
95FB
  8
0
 10
4070.9372892673318347
 20
58.8602724969073066
 30
0.0
 11
4070.9186769740667842
 21
58.8558382464082186
 31
0.0
  0
LINE
  5
95FC
  8
0
 10
4070.9186769740667842
 20
58.8558382464082186
 30
0.0
 11
4070.9012669912440288
 21
58.8563737515990866
 31
0.0
  0
LINE
  5
95FD
  8
0
 10
4070.9479628950439292
 20
58.8621433848704925
 30
0.0
 11
4070.9301906328810219
 21
58.8575381624668665
 31
0.0
  0
LINE
  5
95FE
  8
0
 10
4070.9301906328810219
 20
58.8575381624668665
 30
0.0
 11
4070.9292399417499837
 21
58.8536084762271301
 31
0.0
  0
LINE
  5
95FF
  8
0
 10
4070.9292399417499837
 20
58.8536084762271301
 30
0.0
 11
4070.9469820029930816
 21
58.8544456187871319
 31
0.0
  0
LINE
  5
9600
  8
0
 10
4070.9469820029930816
 20
58.8544456187871319
 30
0.0
 11
4070.9628879277302076
 21
58.8585337705416265
 31
0.0
  0
LINE
  5
9601
  8
0
 10
4070.9643343316552091
 20
58.8581829206856995
 30
0.0
 11
4070.9586172881349739
 21
58.8566482778966105
 31
0.0
  0
LINE
  5
9602
  8
0
 10
4070.9586172881349739
 20
58.8566482778966105
 30
0.0
 11
4070.9578958778720335
 21
58.8536663252132897
 31
0.0
  0
LINE
  5
9603
  8
0
 10
4070.9578958778720335
 20
58.8536663252132897
 30
0.0
 11
4070.974511161717146
 21
58.8557209179286502
 31
0.0
  0
LINE
  5
9604
  8
0
 10
4070.9785065819492047
 20
58.8547540727642087
 30
0.0
 11
4070.9755825230031405
 21
58.8542744048455191
 31
0.0
  0
LINE
  5
9605
  8
0
 10
4070.9755825230031405
 20
58.8542744048455191
 30
0.0
 11
4070.9570220452619651
 21
58.8500543339039979
 31
0.0
  0
LINE
  5
9606
  8
0
 10
4070.9570220452619651
 20
58.8500543339039979
 30
0.0
 11
4070.9567841307680283
 21
58.8490709132644625
 31
0.0
  0
LINE
  5
9607
  8
0
 10
4070.9567841307680283
 20
58.8490709132644625
 30
0.0
 11
4070.9687521936161829
 21
58.8509883843458823
 31
0.0
  0
LINE
  5
9608
  8
0
 10
4070.9638970441369565
 20
58.8518642696788987
 30
0.0
 11
4070.964377219634116
 21
58.8538490772068101
 31
0.0
  0
LINE
  5
9609
  8
0
 10
4070.964377219634116
 20
58.8538490772068101
 30
0.0
 11
4070.9463894567711577
 21
58.851996326510438
 31
0.0
  0
LINE
  5
960A
  8
0
 10
4070.9463894567711577
 20
58.851996326510438
 30
0.0
 11
4070.927947608202885
 21
58.8482666099080731
 31
0.0
  0
LINE
  5
960B
  8
0
 10
4070.927947608202885
 20
58.8482666099080731
 30
0.0
 11
4070.9274796106101348
 21
58.8463321397064121
 31
0.0
  0
LINE
  5
960C
  8
0
 10
4070.9274796106101348
 20
58.8463321397064121
 30
0.0
 11
4070.9454415134277951
 21
58.8480779980818767
 31
0.0
  0
LINE
  5
960D
  8
0
 10
4070.9454415134277951
 20
58.8480779980818767
 30
0.0
 11
4070.9638970441351375
 21
58.8518642696785506
 31
0.0
  0
LINE
  5
960E
  8
0
 10
4070.9337390344708183
 20
58.8455975932811128
 30
0.0
 11
4070.9339731440159085
 21
58.8465652861713906
 31
0.0
  0
LINE
  5
960F
  8
0
 10
4070.9339731440159085
 20
58.8465652861713906
 30
0.0
 11
4070.9161065666057766
 21
58.8452134555930826
 31
0.0
  0
LINE
  5
9610
  8
0
 10
4070.9161065666057766
 20
58.8452134555930826
 30
0.0
 11
4070.8980232032531603
 21
58.8429655394650197
 31
0.0
  0
LINE
  5
9611
  8
0
 10
4070.8980232032531603
 20
58.8429655394650197
 30
0.0
 11
4070.8978267292718556
 21
58.8421534132671908
 31
0.0
  0
LINE
  5
9612
  8
0
 10
4070.9337390344708183
 20
58.8455975932811128
 30
0.0
 11
4070.9316135398148617
 21
58.8452114266462019
 31
0.0
  0
LINE
  5
9613
  8
0
 10
4070.9755825230031405
 20
58.8542744048455191
 30
0.0
 11
4070.9759675188897745
 21
58.852464852145161
 31
0.0
  0
LINE
  5
9614
  8
0
 10
4070.9469820029930816
 20
58.8544456187871319
 30
0.0
 11
4070.9479628950439292
 21
58.8621433848704925
 31
0.0
  0
LINE
  5
9615
  8
0
 10
4070.9454415134277951
 20
58.8480779980818767
 30
0.0
 11
4070.9463894567711577
 21
58.851996326510438
 31
0.0
  0
LINE
  5
9616
  8
0
 10
4070.9186769740667842
 20
58.8558382464082186
 30
0.0
 11
4070.9210657806252129
 21
58.8657123893298007
 31
0.0
  0
LINE
  5
9617
  8
0
 10
4070.9178951643598339
 20
58.8526066324943571
 30
0.0
 11
4070.9164915155952258
 21
58.8468046439029919
 31
0.0
  0
LINE
  5
9618
  8
0
 10
4070.8900764119348423
 20
58.8560092863330766
 30
0.0
 11
4070.8882190390258984
 21
58.8483318266506288
 31
0.0
  0
LINE
  5
9619
  8
0
 10
4070.8910486378549649
 20
58.8600279865244005
 30
0.0
 11
4070.8939076559508976
 21
58.8718457509872977
 31
0.0
  0
LINE
  5
961A
  8
0
 10
4070.8640879887611845
 20
58.8669776147016393
 30
0.0
 11
4070.8674324604530739
 21
58.8808020032192729
 31
0.0
  0
LINE
  5
961B
  8
0
 10
4070.8629213140370666
 20
58.8621551593910581
 30
0.0
 11
4070.8606053847061048
 21
58.8525822544724875
 31
0.0
  0
LINE
  5
961C
  8
0
 10
4070.8598468652589872
 20
58.8494469111191592
 30
0.0
 11
4070.8572725260200968
 21
58.8444377887282783
 31
0.0
  0
LINE
  5
961D
  8
0
 10
4070.8876473473928854
 20
58.8459687370461921
 30
0.0
 11
4070.8873475941500146
 21
58.8422390078211919
 31
0.0
  0
LINE
  5
961E
  8
0
 10
4070.8364283777909804
 20
58.8710380801893578
 30
0.0
 11
4070.8336422301258608
 21
58.8595215261299671
 31
0.0
  0
LINE
  5
961F
  8
0
 10
4070.8326940786741943
 20
58.855602337943381
 30
0.0
 11
4070.8308817439678933
 21
58.8481110439997082
 31
0.0
  0
LINE
  5
9620
  8
0
 10
4070.8303236689530422
 20
58.8458042383935123
 30
0.0
 11
4070.8294302657850494
 21
58.8421113525356674
 31
0.0
  0
ARC
  5
9621
  8
0
 10
4078.1081162187629161
 20
59.7882994792561178
 30
0.0
 40
0.0682922091252218
 50
98.1595185186087633
 51
172.841763485050592
  0
LINE
  5
9622
  8
0
 10
4074.5665476734620825
 20
80.3009212965940264
 30
0.0
 11
4074.566547675214224
 21
80.2503823195027621
 31
0.0
  0
ARC
  5
9623
  8
0
 10
4075.1834176801530703
 20
80.9432127412931663
 30
0.0
 40
0.9343539863856474
 50
229.1952278667108089
 51
270.0202087382593845
  0
ARC
  5
9624
  8
0
 10
4075.3486464434790832
 20
80.6220173588620241
 30
0.0
 40
0.5391591983867599
 50
305.8179517261468163
 51
314.8123107321162024
  0
ARC
  5
9625
  8
0
 10
4075.7112530421750307
 20
80.250672104449734
 30
0.0
 40
0.0206509970414797
 50
327.3389080130535262
 51
359.1959710537614114
  0
LINE
  5
9626
  8
0
 10
4075.7319020059148897
 20
80.3009212948363711
 30
0.0
 11
4075.7319020059148897
 21
80.25096188939699
 31
0.0
  0
ARC
  5
9627
  8
0
 10
4075.149224840613897
 20
80.9149052148163577
 30
0.0
 40
0.8464566929008851
 50
306.0893257985977129
 51
313.5013836682650208
  0
LINE
  5
9628
  8
0
 10
4075.6984374390140147
 20
80.2708132534360033
 30
0.0
 11
4075.6984374390140147
 21
80.2925042847080306
 31
0.0
  0
ARC
  5
9629
  8
0
 10
4074.5866584626542135
 20
80.2505678761918233
 30
0.0
 40
0.0201116434610223
 50
180.5286373540646139
 51
226.5710633218023986
  0
ARC
  5
962A
  8
0
 10
4075.1492248406148065
 20
80.9149052148160735
 30
0.0
 40
0.8464566929005674
 50
226.4986161588863922
 51
233.3082698115520088
  0
ARC
  5
962B
  8
0
 10
4075.1492248406148065
 20
80.914905214815505
 30
0.0
 40
0.8464566928997886
 50
233.3082698115520088
 51
248.0284256027943002
  0
ARC
  5
962C
  8
0
 10
4075.1482818219551518
 20
80.9125678237016359
 30
0.0
 40
0.8439362402797614
 50
248.0284256027943002
 51
270.9591143839741108
  0
LINE
  5
962D
  8
0
 10
4074.6000122421141896
 20
80.2708132535212826
 30
0.0
 11
4074.6000122421141896
 21
80.2953872318370827
 31
0.0
  0
LINE
  5
962E
  8
0
 10
4075.7319020059148897
 20
81.4107788985949696
 30
0.0
 11
4075.7319020041618387
 21
81.4613178756862339
 31
0.0
  0
ARC
  5
962F
  8
0
 10
4075.1499180185887781
 20
80.8604989412173438
 30
0.0
 40
0.8425843672948374
 50
46.901561297241031
 51
79.0594059022490825
  0
ARC
  5
9630
  8
0
 10
4075.7117912167232134
 20
81.4611323189972154
 30
0.0
 40
0.0201116434610223
 50
0.5286373540646194
 51
46.57106332180458
  0
ARC
  5
9631
  8
0
 10
4075.1492248387621657
 20
80.7967949803729084
 30
0.0
 40
0.8464566929005674
 50
46.4986161588864135
 51
53.3082698115520017
  0
ARC
  5
9632
  8
0
 10
4075.1492248387630752
 20
80.7967949803735905
 30
0.0
 40
0.8464566928997886
 50
53.3082698115520017
 51
77.6560970696884567
  0
LINE
  5
9633
  8
0
 10
4075.6984374372618731
 20
81.4408869416677703
 30
0.0
 11
4075.6984374372618731
 21
81.3959292422949829
 31
0.0
  0
ARC
  5
9634
  8
0
 10
4076.9576791371050604
 20
88.9162581181900151
 30
0.0
 40
0.4650432200673619
 50
80.2517012490087467
 51
99.7482987509912533
  0
LINE
  5
9635
  8
0
 10
4059.7942933010540401
 20
104.2275167391238995
 30
0.0
 11
4059.7942933010540401
 21
105.0149214635238053
 31
0.0
  0
LINE
  5
9636
  8
0
 10
4059.006891726253798
 20
104.2275167391238995
 30
0.0
 11
4059.006891726253798
 21
105.0142975565705967
 31
0.0
  0
LINE
  5
9637
  8
0
 10
4061.369091726255192
 20
107.3764975565705981
 30
0.0
 11
4073.180124797055214
 21
107.3764975565705981
 31
0.0
  0
LINE
  5
9638
  8
0
 10
4061.3690933010548179
 20
106.5897214635238015
 30
0.0
 11
4073.1801230542569101
 21
106.5897214635238015
 31
0.0
  0
ARC
  5
9639
  8
0
 10
4061.3690933010548179
 20
105.0149214635238053
 30
0.0
 40
1.5747999999999991
 50
90.0
 51
180.0
  0
ARC
  5
963A
  8
0
 10
4061.369091726255192
 20
105.0142975565705967
 30
0.0
 40
2.3622000000000001
 50
90.0
 51
180.0
  0
ARC
  5
963B
  8
0
 10
4073.180124797055214
 20
105.0142975565705967
 30
0.0
 40
2.3622000000000001
 50
0.0
 51
90.0
  0
ARC
  5
963C
  8
0
 10
4073.1801230542569101
 20
105.0149214635238053
 30
0.0
 40
1.5747999999999991
 50
359.9999776845542101
 51
90.0
  0
ARC
  5
963D
  8
0
 10
4076.9491404955829239
 20
85.2238820940112163
 30
0.0
 40
26.9196495049402387
 50
255.646567793221891
 51
255.997889852419604
  0
ARC
  5
963E
  8
0
 10
4166.4200282937863449
 20
448.5637822216913833
 30
0.0
 40
401.1117972625269203
 50
256.2576453836994119
 51
256.2605948719552202
  0
ARC
  5
963F
  8
0
 10
4076.3125304406798932
 20
80.0296733565097043
 30
0.0
 40
21.7218256417668307
 50
256.2605948719552202
 51
256.490890659466686
  0
ARC
  5
9640
  8
0
 10
4071.262862868908087
 20
59.0110162576645934
 30
0.0
 40
0.105093954848274
 50
256.490890659466686
 51
279.8881445123818139
  0
ARC
  5
9641
  8
0
 10
4071.7825466400609002
 20
56.9658880710562769
 30
0.0
 40
2.0053508217314868
 50
100.6233754418310014
 51
104.4863288696406016
  0
ARC
  5
9642
  8
0
 10
4070.3141699555308151
 20
59.2383284522382425
 30
0.0
 40
0.1013843853105169
 50
232.1960662383860097
 51
247.6944740695047926
  0
ARC
  5
9643
  8
0
 10
4071.6979590803221072
 20
60.5794743520019523
 30
0.0
 40
1.739344764719128
 50
247.672476761733293
 51
251.0598849753612001
  0
ARC
  5
9644
  8
0
 10
4070.5734418138040382
 20
57.841365181239901
 30
0.0
 40
1.220685794871031
 50
67.6724767617333214
 51
73.5485598470885265
  0
ARC
  5
9645
  8
0
 10
4070.4924896539669135
 20
57.5672222795703803
 30
0.0
 40
1.5065311774086421
 50
73.5485598470885265
 51
79.4794750197018232
  0
ARC
  5
9646
  8
0
 10
4070.5897911549450328
 20
58.0911666486446592
 30
0.0
 40
0.9736284808711021
 50
79.4794750197018232
 51
84.3778276940512342
  0
ARC
  5
9647
  8
0
 10
4070.7981592993960476
 20
60.2078348369416076
 30
0.0
 40
1.1532710238001589
 50
259.3091684335781224
 51
264.3778276940511773
  0
ARC
  5
9648
  8
0
 10
4072.0398509293440839
 20
66.7850709150861093
 30
0.0
 40
7.8466881280545868
 50
258.2036678408924217
 51
259.3091684335781224
  0
LINE
  5
9649
  8
0
 10
4070.0106554234539544
 20
59.6598259850706683
 30
0.0
 11
4075.1724588185579705
 21
59.6591156121188888
 31
0.0
  0
ARC
  5
964A
  8
0
 10
4074.45959802540483
 20
59.8561137167902686
 30
0.0
 40
0.1969
 50
270.0
 51
0.0
  0
LINE
  5
964B
  8
0
 10
4074.6564980254038346
 20
59.9358514454919913
 30
0.0
 11
4075.6407499939050467
 21
59.9358514454919913
 31
0.0
  0
LINE
  5
964C
  8
0
 10
4054.4669164091460516
 20
101.5764581864706031
 30
0.0
 11
4064.3342686179639713
 21
101.5764581864707026
 31
0.0
  0
LINE
  5
964D
  8
0
 10
4059.4466062521000822
 20
101.5174030683705979
 30
0.0
 11
4059.3545684927698858
 21
101.5174030683705979
 31
0.0
  0
LINE
  5
964E
  8
0
 10
4059.4545218930988995
 20
101.5242443503083933
 30
0.0
 11
4059.4621651294542062
 21
101.5764581864707026
 31
0.0
  0
LINE
  5
964F
  8
0
 10
4059.3466528517678853
 20
101.5242443503260006
 30
0.0
 11
4059.3390096155349056
 21
101.5764581864707026
 31
0.0
  0
ARC
  5
9650
  8
0
 10
4059.4466062521000822
 20
101.5254030683705935
 30
0.0
 40
0.008
 50
270.0
 51
351.6719999699856771
  0
ARC
  5
9651
  8
0
 10
4059.3545684927698858
 20
101.5254030683705935
 30
0.0
 40
0.008
 50
188.327999902387603
 51
270.0
  0
LINE
  5
9652
  8
0
 10
4059.0364192852048291
 20
104.1087810305705972
 30
0.0
 11
4059.7647657419038296
 21
104.1087810305705972
 31
0.0
  0
LINE
  5
9653
  8
0
 10
4058.9872066868038019
 20
104.0595683960707021
 30
0.0
 11
4059.8139783403039473
 21
104.0595683960707021
 31
0.0
  0
LINE
  5
9654
  8
0
 10
4058.9281515687048341
 20
104.0213400762706044
 30
0.0
 11
4059.8730334584051889
 21
104.0213400762706044
 31
0.0
  0
LINE
  5
9655
  8
0
 10
4059.0068917261551178
 20
104.2268912573705961
 30
0.0
 11
4059.7942933007548163
 21
104.2268912573705961
 31
0.0
  0
LINE
  5
9656
  8
0
 10
4058.9872066868038019
 20
104.0213400762706044
 30
0.0
 11
4058.9872066868038019
 21
104.0595683960706026
 31
0.0
  0
LINE
  5
9657
  8
0
 10
4058.9872066868038019
 20
104.0595683960706026
 30
0.0
 11
4059.0364192852048291
 21
104.1087810305705972
 31
0.0
  0
LINE
  5
9658
  8
0
 10
4059.0364192852048291
 20
104.1087810305705972
 30
0.0
 11
4059.0364192852048291
 21
104.2268912573705961
 31
0.0
  0
LINE
  5
9659
  8
0
 10
4058.9281515687048341
 20
104.0213400762706044
 30
0.0
 11
4058.9281515687048341
 21
103.7063794463706046
 31
0.0
  0
LINE
  5
965A
  8
0
 10
4058.9675216474552144
 20
103.2058253516795929
 30
0.0
 11
4059.0333094455017999
 21
103.1818805514347019
 31
0.0
  0
ARC
  5
965B
  8
0
 10
4059.0265767655128002
 20
103.1633826651764991
 30
0.0
 40
0.0196850393916007
 50
359.9999999828859245
 51
70.0000000170332015
  0
LINE
  5
965C
  8
0
 10
4059.047032876007961
 20
103.163390257807805
 30
0.0
 11
4059.0462618048668446
 21
103.0358361176705984
 31
0.0
  0
ARC
  5
965D
  8
0
 10
4059.0265767651458191
 20
103.0358361176764959
 30
0.0
 40
0.0196850397208006
 50
316.4847265706122244
 51
359.9999999828859245
  0
ARC
  5
965E
  8
0
 10
4059.394217751565975
 20
102.6867715438007025
 30
0.0
 40
0.4872725242141726
 50
136.4847265706121959
 51
142.6444734329463984
  0
ARC
  5
965F
  8
0
 10
4059.4074958662558856
 20
102.6766359801491006
 30
0.0
 40
0.5039769541740444
 50
142.644473432945091
 51
158.6675640467221058
  0
LINE
  5
9660
  8
0
 10
4058.7464891885761062
 20
102.8599227534705989
 30
0.0
 11
4060.0546958385330072
 21
102.8599227534705989
 31
0.0
  0
ARC
  5
9661
  8
0
 10
4070.8123586470492228
 20
101.8622813408154997
 30
0.0
 40
12.1614165456924894
 50
175.5522144233131883
 51
179.0651055803577947
  0
LINE
  5
9662
  8
0
 10
4058.613190938805019
 20
102.0607101549705931
 30
0.0
 11
4060.187994088305004
 21
102.0607101549705931
 31
0.0
  0
LINE
  5
9663
  8
0
 10
4054.4165689495957849
 20
102.0488991313706038
 30
0.0
 11
4064.3846160775137832
 21
102.0488991313706038
 31
0.0
  0
LINE
  5
9664
  8
0
 10
4058.613190938805019
 20
102.0607101549705931
 30
0.0
 11
4058.6013799151050989
 21
102.0488991313706038
 31
0.0
  0
LINE
  5
9665
  8
0
 10
4054.4008713407811229
 20
102.0329251285894969
 30
0.0
 11
4054.4078254103610561
 21
101.63452674925
 31
0.0
  0
ARC
  5
9666
  8
0
 10
4054.4165689495957849
 20
102.0331991313705942
 30
0.0
 40
0.0157
 50
90.0
 51
181.0000000002069953
  0
ARC
  5
9667
  8
0
 10
4054.4669164091460516
 20
101.6355581864706039
 30
0.0
 40
0.0591
 50
181.0000000001793126
 51
270.0
  0
LINE
  5
9668
  8
0
 10
4055.0890224421041239
 20
101.5764581864706031
 30
0.0
 11
4055.0944882997910099
 21
101.524454025370602
 31
0.0
  0
ARC
  5
9669
  8
0
 10
4055.1023191807807962
 20
101.525277084143994
 30
0.0
 40
0.0078740156734226
 50
186.0000001121757123
 51
270.0000001741262849
  0
LINE
  5
966A
  8
0
 10
4055.1023191808048978
 20
101.5174030684705997
 30
0.0
 11
4055.2594956201050991
 21
101.5174030689482976
 31
0.0
  0
ARC
  5
966B
  8
0
 10
4055.2594956200809975
 20
101.525310661030403
 30
0.0
 40
0.0079075920821055
 50
270.0000001741262849
 51
353.7808984151658933
  0
LINE
  5
966C
  8
0
 10
4055.2673566752177976
 20
101.524454025370602
 30
0.0
 11
4055.27302135855507
 21
101.5764369046056004
 31
0.0
  0
LINE
  5
966D
  8
0
 10
4055.1536193978049596
 20
101.5764581864706031
 30
0.0
 11
4055.1590852554018056
 21
101.524454025398299
 31
0.0
  0
ARC
  5
966E
  8
0
 10
4055.1669543575799253
 20
101.5252811013674972
 30
0.0
 40
0.0079124473927708
 50
186.0000000184735995
 51
264.6542354894950222
  0
LINE
  5
966F
  8
0
 10
4055.3454475191038
 20
101.5764581864706031
 30
0.0
 11
4055.350913376787048
 21
101.5244540254096961
 31
0.0
  0
ARC
  5
9670
  8
0
 10
4055.3587442578191258
 20
101.5252770841877066
 30
0.0
 40
0.007874015717092
 50
186.0000001121757123
 51
269.9999998880151111
  0
LINE
  5
9671
  8
0
 10
4055.3587442578041191
 20
101.5174030684705997
 30
0.0
 11
4055.4513539154049795
 21
101.517403068289596
 31
0.0
  0
ARC
  5
9672
  8
0
 10
4055.4513539154208956
 20
101.5252770840469054
 30
0.0
 40
0.007874015757281
 50
269.9999998880151111
 51
354.0000008651729786
  0
LINE
  5
9673
  8
0
 10
4055.4591847965070883
 20
101.524454025398299
 30
0.0
 11
4055.4646506533022148
 21
101.5764581865549019
 31
0.0
  0
LINE
  5
9674
  8
0
 10
4055.6586782056051561
 20
101.5764581864706031
 30
0.0
 11
4055.6641440632861304
 21
101.5244540254096961
 31
0.0
  0
ARC
  5
9675
  8
0
 10
4055.6719749443200271
 20
101.5252770841877066
 30
0.0
 40
0.007874015717092
 50
186.0000001121757123
 51
269.9999998880151111
  0
LINE
  5
9676
  8
0
 10
4055.6719749443050205
 20
101.5174030684705997
 30
0.0
 11
4055.7645846019049714
 21
101.517403068289596
 31
0.0
  0
ARC
  5
9677
  8
0
 10
4055.764584601919978
 20
101.5252770840469054
 30
0.0
 40
0.007874015757281
 50
269.9999998880151111
 51
354.0000008651729786
  0
LINE
  5
9678
  8
0
 10
4055.7724154830079897
 20
101.524454025398299
 30
0.0
 11
4055.7778813398022066
 21
101.5764581865549019
 31
0.0
  0
LINE
  5
9679
  8
0
 10
4055.8173394846048723
 20
101.5764581864706031
 30
0.0
 11
4055.8228053422872108
 21
101.5244540254096961
 31
0.0
  0
ARC
  5
967A
  8
0
 10
4055.8306362233211075
 20
101.5252770841877066
 30
0.0
 40
0.007874015717092
 50
186.0000001121757123
 51
269.9999998880151111
  0
LINE
  5
967B
  8
0
 10
4055.8306362233051914
 20
101.5174030684705997
 30
0.0
 11
4055.923245880903778
 21
101.517403068289596
 31
0.0
  0
ARC
  5
967C
  8
0
 10
4055.9232458809201489
 20
101.5252770840469054
 30
0.0
 40
0.007874015757281
 50
269.9999998880151111
 51
354.0000008651729786
  0
LINE
  5
967D
  8
0
 10
4055.9310767620081606
 20
101.524454025398299
 30
0.0
 11
4055.9365426188028323
 21
101.5764581865549019
 31
0.0
  0
LINE
  5
967E
  8
0
 10
4055.9713506703042185
 20
101.5764581864706031
 30
0.0
 11
4055.9768165279861023
 21
101.5244540254096961
 31
0.0
  0
ARC
  5
967F
  8
0
 10
4055.984647409019999
 20
101.5252770841877066
 30
0.0
 40
0.007874015717092
 50
186.0000001121757123
 51
269.9999998880151111
  0
LINE
  5
9680
  8
0
 10
4055.9846474090049924
 20
101.5174030684705997
 30
0.0
 11
4056.0772570666049432
 21
101.517403068289596
 31
0.0
  0
ARC
  5
9681
  8
0
 10
4056.0772570666199499
 20
101.5252770840469054
 30
0.0
 40
0.007874015757281
 50
269.9999998880151111
 51
354.0000008651729786
  0
LINE
  5
9682
  8
0
 10
4056.0850879477070521
 20
101.524454025398299
 30
0.0
 11
4056.0871739531758067
 21
101.5443010445661969
 31
0.0
  0
LINE
  5
9683
  8
0
 10
4056.0837941013051022
 20
101.5764581864706031
 30
0.0
 11
4056.0892599589860765
 21
101.5244540254096961
 31
0.0
  0
ARC
  5
9684
  8
0
 10
4056.0970908400208828
 20
101.5252770841877066
 30
0.0
 40
0.007874015717092
 50
186.0000001121757123
 51
269.9999998880151111
  0
LINE
  5
9685
  8
0
 10
4056.0970908400049666
 20
101.5174030684705997
 30
0.0
 11
4056.1897004976049175
 21
101.517403068289596
 31
0.0
  0
ARC
  5
9686
  8
0
 10
4056.1897004976208336
 20
101.5252770840469054
 30
0.0
 40
0.007874015757281
 50
269.9999998880151111
 51
354.0000008651729786
  0
LINE
  5
9687
  8
0
 10
4056.1975313787079358
 20
101.524454025398299
 30
0.0
 11
4056.2029972355030623
 21
101.5764581865549019
 31
0.0
  0
LINE
  5
9688
  8
0
 10
4056.2726420138051253
 20
101.5764581864706031
 30
0.0
 11
4056.2781078714870091
 21
101.5244540254096961
 31
0.0
  0
ARC
  5
9689
  8
0
 10
4056.2859387525199963
 20
101.5252770841877066
 30
0.0
 40
0.007874015717092
 50
186.0000001121757123
 51
269.9999998880151111
  0
LINE
  5
968A
  8
0
 10
4056.2859387525040802
 20
101.5174030684705997
 30
0.0
 11
4056.3785484101049406
 21
101.517403068289596
 31
0.0
  0
ARC
  5
968B
  8
0
 10
4056.3785484101199472
 20
101.5252770840469054
 30
0.0
 40
0.007874015757281
 50
269.9999998880151111
 51
354.0000008651729786
  0
LINE
  5
968C
  8
0
 10
4056.3863792912079589
 20
101.524454025398299
 30
0.0
 11
4056.3918451480030853
 21
101.5764581865549019
 31
0.0
  0
LINE
  5
968D
  8
0
 10
4056.5063452768049501
 20
101.5764581864706031
 30
0.0
 11
4056.5118111344868339
 21
101.5244540254096961
 31
0.0
  0
ARC
  5
968E
  8
0
 10
4056.5196420155211854
 20
101.5252770841877066
 30
0.0
 40
0.007874015717092
 50
186.0000001121757123
 51
269.9999998880151111
  0
LINE
  5
968F
  8
0
 10
4056.5196420155048145
 20
101.5174030684705997
 30
0.0
 11
4056.6122516731038559
 21
101.517403068289596
 31
0.0
  0
ARC
  5
9690
  8
0
 10
4056.6122516731202268
 20
101.5252770840469054
 30
0.0
 40
0.007874015757281
 50
269.9999998880151111
 51
354.0000008651729786
  0
LINE
  5
9691
  8
0
 10
4056.6200825542077837
 20
101.524454025398299
 30
0.0
 11
4056.6221685596760835
 21
101.5443010445661969
 31
0.0
  0
LINE
  5
9692
  8
0
 10
4056.6187887078049243
 20
101.5764581864706031
 30
0.0
 11
4056.6242545654868081
 21
101.5244540254096961
 31
0.0
  0
ARC
  5
9693
  8
0
 10
4056.6320854465197954
 20
101.5252770841877066
 30
0.0
 40
0.007874015717092
 50
186.0000001121757123
 51
269.9999998880151111
  0
LINE
  5
9694
  8
0
 10
4056.6320854465038792
 20
101.5174030684705997
 30
0.0
 11
4056.8134619985071367
 21
101.5174030681160957
 31
0.0
  0
ARC
  5
9695
  8
0
 10
4056.724695104120201
 20
101.5252770840469054
 30
0.0
 40
0.007874015757281
 50
269.9999998880151111
 51
354.0000008651729786
  0
LINE
  5
9696
  8
0
 10
4056.7325259852068484
 20
101.524454025398299
 30
0.0
 11
4056.7379918420028844
 21
101.5764581865549019
 31
0.0
  0
ARC
  5
9697
  8
0
 10
4056.8134619985221434
 20
101.5252770839626066
 30
0.0
 40
0.007874015757281
 50
269.9999998880151111
 51
354.0000008651729786
  0
LINE
  5
9698
  8
0
 10
4056.8212928796101551
 20
101.5244540253140002
 30
0.0
 11
4056.8267587364048268
 21
101.5764581864706031
 31
0.0
  0
LINE
  5
9699
  8
0
 10
4056.8861157857049875
 20
101.5764581864706031
 30
0.0
 11
4056.8915816433868713
 21
101.5244540254096961
 31
0.0
  0
ARC
  5
969A
  8
0
 10
4056.8994125244212228
 20
101.5252770841877066
 30
0.0
 40
0.007874015717092
 50
186.0000001121757123
 51
269.9999998880151111
  0
LINE
  5
969B
  8
0
 10
4056.8994125244048519
 20
101.5174030684705997
 30
0.0
 11
4056.9920221820038932
 21
101.517403068289596
 31
0.0
  0
ARC
  5
969C
  8
0
 10
4056.9920221820198094
 20
101.5252770840469054
 30
0.0
 40
0.007874015757281
 50
269.9999998880151111
 51
354.0000008651729786
  0
LINE
  5
969D
  8
0
 10
4056.9998530631078211
 20
101.524454025398299
 30
0.0
 11
4057.005318919903857
 21
101.5764581865549019
 31
0.0
  0
LINE
  5
969E
  8
0
 10
4057.5000795940050011
 20
101.5764581864706031
 30
0.0
 11
4057.5055454516868849
 21
101.5244540254096961
 31
0.0
  0
ARC
  5
969F
  8
0
 10
4057.5133763327198722
 20
101.5252770841877066
 30
0.0
 40
0.007874015717092
 50
186.0000001121757123
 51
269.9999998880151111
  0
LINE
  5
96A0
  8
0
 10
4057.5133763327048655
 20
101.5174030684705997
 30
0.0
 11
4057.6059859903048164
 21
101.517403068289596
 31
0.0
  0
ARC
  5
96A1
  8
0
 10
4057.6059859903211873
 20
101.5252770840469054
 30
0.0
 40
0.007874015757281
 50
269.9999998880151111
 51
354.0000008651729786
  0
LINE
  5
96A2
  8
0
 10
4057.6138168714078347
 20
101.524454025398299
 30
0.0
 11
4057.6192827282029612
 21
101.5764581865549019
 31
0.0
  0
LINE
  5
96A3
  8
0
 10
4057.2150066941048863
 20
101.5764581864706031
 30
0.0
 11
4057.2204725517872248
 21
101.5244540254096961
 31
0.0
  0
ARC
  5
96A4
  8
0
 10
4057.228303432820212
 20
101.5252770841877066
 30
0.0
 40
0.007874015717092
 50
186.0000001121757123
 51
269.9999998880151111
  0
LINE
  5
96A5
  8
0
 10
4057.2283034328038411
 20
101.5174030684705997
 30
0.0
 11
4057.4424767709720072
 21
101.5174030680520048
 31
0.0
  0
ARC
  5
96A6
  8
0
 10
4057.3209130904201629
 20
101.5252770840469054
 30
0.0
 40
0.007874015757281
 50
269.9999998880151111
 51
354.0000008651729786
  0
LINE
  5
96A7
  8
0
 10
4057.3287439715081746
 20
101.524454025398299
 30
0.0
 11
4057.3342098283028463
 21
101.5764581865549019
 31
0.0
  0
ARC
  5
96A8
  8
0
 10
4057.3639486743199996
 20
101.5252770840469054
 30
0.0
 40
0.007874015757281
 50
269.9999998880151111
 51
354.0000008651729786
  0
LINE
  5
96A9
  8
0
 10
4057.3717795554071017
 20
101.524454025398299
 30
0.0
 11
4057.3772454122031377
 21
101.5764581865549019
 31
0.0
  0
LINE
  5
96AA
  8
0
 10
4057.4503334939731758
 20
101.5244772933108948
 30
0.0
 11
4057.4557969052029875
 21
101.5764581864706031
 31
0.0
  0
ARC
  5
96AB
  8
0
 10
4057.4424767709870139
 20
101.525303068051997
 30
0.0
 40
0.0079
 50
269.9999998880151111
 51
354.0000008651737744
  0
LINE
  5
96AC
  8
0
 10
4058.1718049688051906
 20
101.5764581864706031
 30
0.0
 11
4058.1772708264870744
 21
101.5244540254096961
 31
0.0
  0
ARC
  5
96AD
  8
0
 10
4058.1851017075209711
 20
101.5252770841877066
 30
0.0
 40
0.007874015717092
 50
186.0000001121757123
 51
269.9999998880151111
  0
LINE
  5
96AE
  8
0
 10
4058.1851017075050549
 20
101.5174030684705997
 30
0.0
 11
4058.2777113651050058
 21
101.517403068289596
 31
0.0
  0
ARC
  5
96AF
  8
0
 10
4058.2777113651200125
 20
101.5252770840469054
 30
0.0
 40
0.007874015757281
 50
269.9999998880151111
 51
354.0000008651729786
  0
LINE
  5
96B0
  8
0
 10
4058.2855422462080242
 20
101.524454025398299
 30
0.0
 11
4058.2910081030031506
 21
101.5764581865549019
 31
0.0
  0
LINE
  5
96B1
  8
0
 10
4057.8867320689041662
 20
101.5764581864706031
 30
0.0
 11
4057.89219792658605
 21
101.5244540254096961
 31
0.0
  0
ARC
  5
96B2
  8
0
 10
4057.9000288076199467
 20
101.5252770841877066
 30
0.0
 40
0.007874015717092
 50
186.0000001121757123
 51
269.9999998880151111
  0
LINE
  5
96B3
  8
0
 10
4057.9000288076049401
 20
101.5174030684705997
 30
0.0
 11
4058.1142021457708324
 21
101.5174030680520048
 31
0.0
  0
ARC
  5
96B4
  8
0
 10
4057.9926384652208071
 20
101.5252770840469054
 30
0.0
 40
0.007874015757281
 50
269.9999998880151111
 51
354.0000008651729786
  0
LINE
  5
96B5
  8
0
 10
4058.0004693463079093
 20
101.524454025398299
 30
0.0
 11
4058.0059352031030357
 21
101.5764581865549019
 31
0.0
  0
ARC
  5
96B6
  8
0
 10
4058.035674049120189
 20
101.5252770840469054
 30
0.0
 40
0.007874015757281
 50
269.9999998880151111
 51
354.0000008651729786
  0
LINE
  5
96B7
  8
0
 10
4058.0435049302068364
 20
101.524454025398299
 30
0.0
 11
4058.0489707870028724
 21
101.5764581865549019
 31
0.0
  0
LINE
  5
96B8
  8
0
 10
4058.122058868772001
 20
101.5244772933108948
 30
0.0
 11
4058.127522280003177
 21
101.5764581864706031
 31
0.0
  0
ARC
  5
96B9
  8
0
 10
4058.1142021457858391
 20
101.525303068051997
 30
0.0
 40
0.0079
 50
269.9999998880151111
 51
354.0000008651737744
  0
LINE
  5
96BA
  8
0
 10
4058.6026443639038916
 20
101.5764581864706031
 30
0.0
 11
4058.6081102215907777
 21
101.524454025370602
 31
0.0
  0
ARC
  5
96BB
  8
0
 10
4058.6159411025810186
 20
101.5252770841440935
 30
0.0
 40
0.0078740156734226
 50
186.0000001121757123
 51
270.0000001741262849
  0
LINE
  5
96BC
  8
0
 10
4058.6159411026042108
 20
101.5174030684706992
 30
0.0
 11
4058.7731175419048668
 21
101.5174030689482976
 31
0.0
  0
ARC
  5
96BD
  8
0
 10
4058.7731175418812199
 20
101.525310661030403
 30
0.0
 40
0.0079075920821055
 50
270.0000001741262849
 51
353.7808984151658933
  0
LINE
  5
96BE
  8
0
 10
4058.7809785970189296
 20
101.524454025370602
 30
0.0
 11
4058.7866432803548378
 21
101.5764369046056004
 31
0.0
  0
LINE
  5
96BF
  8
0
 10
4058.6672413196038178
 20
101.5764581864706031
 30
0.0
 11
4058.6727071772020281
 21
101.524454025398299
 31
0.0
  0
ARC
  5
96C0
  8
0
 10
4058.6805762793801478
 20
101.5252811013674972
 30
0.0
 40
0.0079124473927708
 50
186.0000000184735995
 51
264.6542354894950222
  0
ARC
  5
96C1
  8
0
 10
4058.7464891885761062
 20
102.8008227534705981
 30
0.0
 40
0.0591
 50
90.0
 51
175.5522144233106872
  0
LINE
  5
96C2
  8
0
 10
4058.9281515686548119
 20
103.7063794463706046
 30
0.0
 11
4058.9675216474552144
 21
103.7063794463706046
 31
0.0
  0
LINE
  5
96C3
  8
0
 10
4059.8336633797539434
 20
103.7063794463706046
 30
0.0
 11
4059.8730334584552111
 21
103.7063794463706046
 31
0.0
  0
LINE
  5
96C4
  8
0
 10
4059.8139783403039473
 20
104.0213400762706044
 30
0.0
 11
4059.8139783403039473
 21
104.0595683960706026
 31
0.0
  0
LINE
  5
96C5
  8
0
 10
4059.8139783403039473
 20
104.0595683960706026
 30
0.0
 11
4059.7647657419038296
 21
104.1087810305705972
 31
0.0
  0
LINE
  5
96C6
  8
0
 10
4059.7647657419038296
 20
104.1087810305705972
 30
0.0
 11
4059.7647657419038296
 21
104.2268912573705961
 31
0.0
  0
LINE
  5
96C7
  8
0
 10
4059.8730334584051889
 20
104.0213400762706044
 30
0.0
 11
4059.8730334584051889
 21
103.7063794463706046
 31
0.0
  0
LINE
  5
96C8
  8
0
 10
4059.8336633797539434
 20
103.2058253517160011
 30
0.0
 11
4059.767875581608223
 21
103.1818805514347019
 31
0.0
  0
ARC
  5
96C9
  8
0
 10
4059.7746082615972227
 20
103.1633826651764991
 30
0.0
 40
0.0196850393916007
 50
109.9999999829667985
 51
180.0000000171133081
  0
LINE
  5
96CA
  8
0
 10
4059.7541521511020619
 20
103.163390257807805
 30
0.0
 11
4059.7549232222418141
 21
103.0358361176705984
 31
0.0
  0
ARC
  5
96CB
  8
0
 10
4059.7746082619642038
 20
103.0358361176764959
 30
0.0
 40
0.0196850397208006
 50
180.0000000171133081
 51
223.5152734293878041
  0
ARC
  5
96CC
  8
0
 10
4059.4069672755440479
 20
102.6867715438007025
 30
0.0
 40
0.4872725242141726
 50
37.3555265670535732
 51
43.515273429387797
  0
ARC
  5
96CD
  8
0
 10
4059.3936891608518636
 20
102.6766359801491006
 30
0.0
 40
0.5039769541740444
 50
21.33243595327788
 51
37.3555265670548806
  0
ARC
  5
96CE
  8
0
 10
4047.9888263800608001
 20
101.8622813408154997
 30
0.0
 40
12.1614165456924894
 50
0.93489441964223
 51
4.4477855766868108
  0
LINE
  5
96CF
  8
0
 10
4060.187994088305004
 20
102.0607101549705931
 30
0.0
 11
4060.199805112004924
 21
102.0488991313706038
 31
0.0
  0
LINE
  5
96D0
  8
0
 10
4064.4003136863279906
 20
102.0329251285894969
 30
0.0
 11
4064.3933596167489668
 21
101.63452674925
 31
0.0
  0
ARC
  5
96D1
  8
0
 10
4064.3846160775137832
 20
102.0331991313705942
 30
0.0
 40
0.0157
 50
358.9999999997929763
 51
90.0
  0
ARC
  5
96D2
  8
0
 10
4064.3342686179639713
 20
101.6355581864706039
 30
0.0
 40
0.0591
 50
270.0
 51
358.9999999998207159
  0
LINE
  5
96D3
  8
0
 10
4063.71216258500408
 20
101.5764581864706031
 30
0.0
 11
4063.706696727319013
 21
101.524454025370602
 31
0.0
  0
ARC
  5
96D4
  8
0
 10
4063.6988658463292268
 20
101.525277084143994
 30
0.0
 40
0.0078740156734226
 50
269.9999998258737151
 51
353.9999998878242877
  0
LINE
  5
96D5
  8
0
 10
4063.6988658463051252
 20
101.5174030684705997
 30
0.0
 11
4063.5416894070049239
 21
101.5174030689482976
 31
0.0
  0
ARC
  5
96D6
  8
0
 10
4063.5416894070290255
 20
101.525310661030403
 30
0.0
 40
0.0079075920821055
 50
186.219101584833794
 51
269.9999998258737151
  0
LINE
  5
96D7
  8
0
 10
4063.5338283518908611
 20
101.524454025370602
 30
0.0
 11
4063.5281636685540434
 21
101.5764369046056004
 31
0.0
  0
LINE
  5
96D8
  8
0
 10
4063.6475656293050633
 20
101.5764581864706031
 30
0.0
 11
4063.6420997717068531
 21
101.524454025398299
 31
0.0
  0
ARC
  5
96D9
  8
0
 10
4063.6342306695310072
 20
101.5252811013674972
 30
0.0
 40
0.0079124473927708
 50
275.3457645105049778
 51
353.9999999815264005
  0
LINE
  5
96DA
  8
0
 10
4063.4557375080048587
 20
101.5764581864706031
 30
0.0
 11
4063.4502716503229749
 21
101.5244540254096961
 31
0.0
  0
ARC
  5
96DB
  8
0
 10
4063.4424407692890782
 20
101.5252770841877066
 30
0.0
 40
0.007874015717092
 50
270.0000001119847752
 51
353.9999998878242877
  0
LINE
  5
96DC
  8
0
 10
4063.4424407693049943
 20
101.5174030684705997
 30
0.0
 11
4063.3498311117041339
 21
101.517403068289596
 31
0.0
  0
ARC
  5
96DD
  8
0
 10
4063.3498311116900368
 20
101.5252770840469054
 30
0.0
 40
0.007874015757281
 50
185.9999991348267088
 51
270.0000001119847752
  0
LINE
  5
96DE
  8
0
 10
4063.3420002306011156
 20
101.524454025398299
 30
0.0
 11
4063.3365343738068987
 21
101.5764581865549019
 31
0.0
  0
LINE
  5
96DF
  8
0
 10
4063.1425068215048668
 20
101.5764581864706031
 30
0.0
 11
4063.1370409638220735
 21
101.5244540254096961
 31
0.0
  0
ARC
  5
96E0
  8
0
 10
4063.1292100827899958
 20
101.5252770841877066
 30
0.0
 40
0.007874015717092
 50
270.0000001119847752
 51
353.9999998878242877
  0
LINE
  5
96E1
  8
0
 10
4063.1292100828050025
 20
101.5174030684705997
 30
0.0
 11
4063.0366004252041421
 21
101.517403068289596
 31
0.0
  0
ARC
  5
96E2
  8
0
 10
4063.0366004251882259
 20
101.5252770840469054
 30
0.0
 40
0.007874015757281
 50
185.9999991348267088
 51
270.0000001119847752
  0
LINE
  5
96E3
  8
0
 10
4063.0287695441020333
 20
101.524454025398299
 30
0.0
 11
4063.0233036873069068
 21
101.5764581865549019
 31
0.0
  0
LINE
  5
96E4
  8
0
 10
4062.9838455425051507
 20
101.5764581864706031
 30
0.0
 11
4062.9783796848241764
 21
101.5244540254096961
 31
0.0
  0
ARC
  5
96E5
  8
0
 10
4062.9705488037889154
 20
101.5252770841877066
 30
0.0
 40
0.007874015717092
 50
270.0000001119847752
 51
353.9999998878242877
  0
LINE
  5
96E6
  8
0
 10
4062.9705488038048316
 20
101.5174030684705997
 30
0.0
 11
4062.8779391462039712
 21
101.517403068289596
 31
0.0
  0
ARC
  5
96E7
  8
0
 10
4062.8779391461889645
 20
101.5252770840469054
 30
0.0
 40
0.007874015757281
 50
185.9999991348267088
 51
270.0000001119847752
  0
LINE
  5
96E8
  8
0
 10
4062.8701082651018623
 20
101.524454025398299
 30
0.0
 11
4062.8646424083071906
 21
101.5764581865549019
 31
0.0
  0
LINE
  5
96E9
  8
0
 10
4062.8298343568039854
 20
101.5764581864706031
 30
0.0
 11
4062.8243684991230111
 21
101.5244540254096961
 31
0.0
  0
ARC
  5
96EA
  8
0
 10
4062.8165376180891144
 20
101.5252770841877066
 30
0.0
 40
0.007874015717092
 50
270.0000001119847752
 51
353.9999998878242877
  0
LINE
  5
96EB
  8
0
 10
4062.8165376181050306
 20
101.5174030684705997
 30
0.0
 11
4062.7239279605041702
 21
101.517403068289596
 31
0.0
  0
ARC
  5
96EC
  8
0
 10
4062.7239279604891635
 20
101.5252770840469054
 30
0.0
 40
0.007874015757281
 50
185.9999991348267088
 51
270.0000001119847752
  0
LINE
  5
96ED
  8
0
 10
4062.7160970794020614
 20
101.524454025398299
 30
0.0
 11
4062.7140110739319425
 21
101.5443010445661969
 31
0.0
  0
LINE
  5
96EE
  8
0
 10
4062.7173909258049207
 20
101.5764581864706031
 30
0.0
 11
4062.7119250681230369
 21
101.5244540254096961
 31
0.0
  0
ARC
  5
96EF
  8
0
 10
4062.7040941870900497
 20
101.5252770841877066
 30
0.0
 40
0.007874015717092
 50
270.0000001119847752
 51
353.9999998878242877
  0
LINE
  5
96F0
  8
0
 10
4062.7040941871041468
 20
101.5174030684705997
 30
0.0
 11
4062.611484529504196
 21
101.517403068289596
 31
0.0
  0
ARC
  5
96F1
  8
0
 10
4062.6114845294891893
 20
101.5252770840469054
 30
0.0
 40
0.007874015757281
 50
185.9999991348267088
 51
270.0000001119847752
  0
LINE
  5
96F2
  8
0
 10
4062.6036536484011776
 20
101.524454025398299
 30
0.0
 11
4062.5981877916069607
 21
101.5764581865549019
 31
0.0
  0
LINE
  5
96F3
  8
0
 10
4062.5285430133048976
 20
101.5764581864706031
 30
0.0
 11
4062.5230771556230138
 21
101.5244540254096961
 31
0.0
  0
ARC
  5
96F4
  8
0
 10
4062.5152462745900266
 20
101.5252770841877066
 30
0.0
 40
0.007874015717092
 50
270.0000001119847752
 51
353.9999998878242877
  0
LINE
  5
96F5
  8
0
 10
4062.5152462746041238
 20
101.5174030684705997
 30
0.0
 11
4062.4226366170050824
 21
101.517403068289596
 31
0.0
  0
ARC
  5
96F6
  8
0
 10
4062.4226366169891662
 20
101.5252770840469054
 30
0.0
 40
0.007874015757281
 50
185.9999991348267088
 51
270.0000001119847752
  0
LINE
  5
96F7
  8
0
 10
4062.4148057359029735
 20
101.524454025398299
 30
0.0
 11
4062.4093398791069376
 21
101.5764581865549019
 31
0.0
  0
LINE
  5
96F8
  8
0
 10
4062.2948397503050728
 20
101.5764581864706031
 30
0.0
 11
4062.289373892623189
 21
101.5244540254096961
 31
0.0
  0
ARC
  5
96F9
  8
0
 10
4062.2815430115888375
 20
101.5252770841877066
 30
0.0
 40
0.007874015717092
 50
270.0000001119847752
 51
353.9999998878242877
  0
LINE
  5
96FA
  8
0
 10
4062.2815430116052084
 20
101.5174030684705997
 30
0.0
 11
4062.1889333540038933
 21
101.517403068289596
 31
0.0
  0
ARC
  5
96FB
  8
0
 10
4062.1889333539888867
 20
101.5252770840469054
 30
0.0
 40
0.007874015757281
 50
185.9999991348267088
 51
270.0000001119847752
  0
LINE
  5
96FC
  8
0
 10
4062.181102472900875
 20
101.524454025398299
 30
0.0
 11
4062.1790164674330299
 21
101.5443010445661969
 31
0.0
  0
LINE
  5
96FD
  8
0
 10
4062.1823963193041891
 20
101.5764581864706031
 30
0.0
 11
4062.1769304616232148
 21
101.5244540254096961
 31
0.0
  0
ARC
  5
96FE
  8
0
 10
4062.1690995805888633
 20
101.5252770841877066
 30
0.0
 40
0.007874015717092
 50
270.0000001119847752
 51
353.9999998878242877
  0
LINE
  5
96FF
  8
0
 10
4062.1690995806047795
 20
101.5174030684705997
 30
0.0
 11
4061.9877230286028862
 21
101.5174030681160957
 31
0.0
  0
ARC
  5
9700
  8
0
 10
4062.0764899229889124
 20
101.5252770840469054
 30
0.0
 40
0.007874015757281
 50
185.9999991348267088
 51
270.0000001119847752
  0
LINE
  5
9701
  8
0
 10
4062.0686590419009008
 20
101.524454025398299
 30
0.0
 11
4062.0631931851057743
 21
101.5764581865549019
 31
0.0
  0
ARC
  5
9702
  8
0
 10
4061.98772302858697
 20
101.5252770839626066
 30
0.0
 40
0.007874015757281
 50
185.9999991348267088
 51
270.0000001119847752
  0
LINE
  5
9703
  8
0
 10
4061.9798921474998679
 20
101.5244540253140002
 30
0.0
 11
4061.9744262907061056
 21
101.5764581864706031
 31
0.0
  0
LINE
  5
9704
  8
0
 10
4061.9150692414050354
 20
101.5764581864706031
 30
0.0
 11
4061.9096033837231516
 21
101.5244540254096961
 31
0.0
  0
ARC
  5
9705
  8
0
 10
4061.9017725026901644
 20
101.5252770841877066
 30
0.0
 40
0.007874015717092
 50
270.0000001119847752
 51
353.9999998878242877
  0
LINE
  5
9706
  8
0
 10
4061.9017725027051711
 20
101.5174030684705997
 30
0.0
 11
4061.8091628451038559
 21
101.517403068289596
 31
0.0
  0
ARC
  5
9707
  8
0
 10
4061.8091628450888493
 20
101.5252770840469054
 30
0.0
 40
0.007874015757281
 50
185.9999991348267088
 51
270.0000001119847752
  0
LINE
  5
9708
  8
0
 10
4061.8013319640022019
 20
101.524454025398299
 30
0.0
 11
4061.7958661072070754
 21
101.5764581865549019
 31
0.0
  0
LINE
  5
9709
  8
0
 10
4061.3011054331050218
 20
101.5764581864706031
 30
0.0
 11
4061.2956395754240475
 21
101.5244540254096961
 31
0.0
  0
ARC
  5
970A
  8
0
 10
4061.2878086943887865
 20
101.5252770841877066
 30
0.0
 40
0.007874015717092
 50
270.0000001119847752
 51
353.9999998878242877
  0
LINE
  5
970B
  8
0
 10
4061.2878086944037932
 20
101.5174030684705997
 30
0.0
 11
4061.1951990368052066
 21
101.517403068289596
 31
0.0
  0
ARC
  5
970C
  8
0
 10
4061.1951990367901999
 20
101.5252770840469054
 30
0.0
 40
0.007874015757281
 50
185.9999991348267088
 51
270.0000001119847752
  0
LINE
  5
970D
  8
0
 10
4061.1873681557021882
 20
101.524454025398299
 30
0.0
 11
4061.1819022989070618
 21
101.5764581865549019
 31
0.0
  0
LINE
  5
970E
  8
0
 10
4061.5861783330042272
 20
101.5764581864706031
 30
0.0
 11
4061.5807124753227981
 21
101.5244540254096961
 31
0.0
  0
ARC
  5
970F
  8
0
 10
4061.5728815942889014
 20
101.5252770841877066
 30
0.0
 40
0.007874015717092
 50
270.0000001119847752
 51
353.9999998878242877
  0
LINE
  5
9710
  8
0
 10
4061.5728815943048176
 20
101.5174030684705997
 30
0.0
 11
4061.3587082561389252
 21
101.5174030680520048
 31
0.0
  0
ARC
  5
9711
  8
0
 10
4061.48027193668986
 20
101.5252770840469054
 30
0.0
 40
0.007874015757281
 50
185.9999991348267088
 51
270.0000001119847752
  0
LINE
  5
9712
  8
0
 10
4061.4724410556018483
 20
101.524454025398299
 30
0.0
 11
4061.4669751988071766
 21
101.5764581865549019
 31
0.0
  0
ARC
  5
9713
  8
0
 10
4061.4372363527900234
 20
101.5252770840469054
 30
0.0
 40
0.007874015757281
 50
185.9999991348267088
 51
270.0000001119847752
  0
LINE
  5
9714
  8
0
 10
4061.4294054717011022
 20
101.524454025398299
 30
0.0
 11
4061.4239396149068853
 21
101.5764581865549019
 31
0.0
  0
LINE
  5
9715
  8
0
 10
4061.3508515331368471
 20
101.5244772933108948
 30
0.0
 11
4061.3453881219070354
 21
101.5764581864706031
 31
0.0
  0
ARC
  5
9716
  8
0
 10
4061.3587082561239185
 20
101.525303068051997
 30
0.0
 40
0.0079
 50
185.999999134825913
 51
270.0000001119847752
  0
LINE
  5
9717
  8
0
 10
4060.6293800583048323
 20
101.5764581864706031
 30
0.0
 11
4060.6239142006238581
 21
101.5244540254096961
 31
0.0
  0
ARC
  5
9718
  8
0
 10
4060.6160833195890518
 20
101.5252770841877066
 30
0.0
 40
0.007874015717092
 50
270.0000001119847752
 51
353.9999998878242877
  0
LINE
  5
9719
  8
0
 10
4060.616083319604968
 20
101.5174030684705997
 30
0.0
 11
4060.5234736620041076
 21
101.517403068289596
 31
0.0
  0
ARC
  5
971A
  8
0
 10
4060.5234736619900104
 20
101.5252770840469054
 30
0.0
 40
0.007874015757281
 50
185.9999991348267088
 51
270.0000001119847752
  0
LINE
  5
971B
  8
0
 10
4060.5156427809019988
 20
101.524454025398299
 30
0.0
 11
4060.5101769241068723
 21
101.5764581865549019
 31
0.0
  0
LINE
  5
971C
  8
0
 10
4060.9144529582049472
 20
101.5764581864706031
 30
0.0
 11
4060.9089871005239729
 21
101.5244540254096961
 31
0.0
  0
ARC
  5
971D
  8
0
 10
4060.9011562194891667
 20
101.5252770841877066
 30
0.0
 40
0.007874015717092
 50
270.0000001119847752
 51
353.9999998878242877
  0
LINE
  5
971E
  8
0
 10
4060.9011562195050828
 20
101.5174030684705997
 30
0.0
 11
4060.6869828813378263
 21
101.5174030680520048
 31
0.0
  0
ARC
  5
971F
  8
0
 10
4060.8085465618892158
 20
101.5252770840469054
 30
0.0
 40
0.007874015757281
 50
185.9999991348267088
 51
270.0000001119847752
  0
LINE
  5
9720
  8
0
 10
4060.8007156808012041
 20
101.524454025398299
 30
0.0
 11
4060.7952498240069872
 21
101.5764581865549019
 31
0.0
  0
ARC
  5
9721
  8
0
 10
4060.7655109779889244
 20
101.5252770840469054
 30
0.0
 40
0.007874015757281
 50
185.9999991348267088
 51
270.0000001119847752
  0
LINE
  5
9722
  8
0
 10
4060.7576800969018223
 20
101.524454025398299
 30
0.0
 11
4060.7522142401057863
 21
101.5764581865549019
 31
0.0
  0
LINE
  5
9723
  8
0
 10
4060.6791261583371124
 20
101.5244772933108948
 30
0.0
 11
4060.6736627471068459
 21
101.5764581864706031
 31
0.0
  0
ARC
  5
9724
  8
0
 10
4060.6869828813228196
 20
101.525303068051997
 30
0.0
 40
0.0079
 50
185.999999134825913
 51
270.0000001119847752
  0
LINE
  5
9725
  8
0
 10
4060.1985406632038575
 20
101.5764581864706031
 30
0.0
 11
4060.1930748055187905
 21
101.524454025370602
 31
0.0
  0
ARC
  5
9726
  8
0
 10
4060.1852439245280948
 20
101.5252770841440935
 30
0.0
 40
0.0078740156734226
 50
269.9999998258737151
 51
353.9999998878242877
  0
LINE
  5
9727
  8
0
 10
4060.1852439245049027
 20
101.5174030684706992
 30
0.0
 11
4060.0280674852037919
 21
101.5174030689482976
 31
0.0
  0
ARC
  5
9728
  8
0
 10
4060.028067485228803
 20
101.525310661030403
 30
0.0
 40
0.0079075920821055
 50
186.219101584833794
 51
269.9999998258737151
  0
LINE
  5
9729
  8
0
 10
4060.0202064300910934
 20
101.524454025370602
 30
0.0
 11
4060.0145417467529114
 21
101.5764369046056004
 31
0.0
  0
LINE
  5
972A
  8
0
 10
4060.1339437075039314
 20
101.5764581864706031
 30
0.0
 11
4060.1284778499070853
 21
101.524454025398299
 31
0.0
  0
ARC
  5
972B
  8
0
 10
4060.1206087477289657
 20
101.5252811013674972
 30
0.0
 40
0.0079124473927708
 50
275.3457645105049778
 51
353.9999999815264005
  0
ARC
  5
972C
  8
0
 10
4060.0546958385330072
 20
102.8008227534705981
 30
0.0
 40
0.0591
 50
4.4477855766892462
 51
90.0
  0
CIRCLE
  5
972D
  8
0
 10
4059.4005925136048063
 20
103.0961432258706054
 30
0.0
 40
0.0236220472
  0
LINE
  5
972E
  8
0
 10
4059.8336633797539434
 20
103.7063794463706046
 30
0.0
 11
4059.8336633797539434
 21
103.2058253517705992
 31
0.0
  0
LINE
  5
972F
  8
0
 10
4058.9675216474552144
 20
103.7063794463706046
 30
0.0
 11
4058.9675216474552144
 21
103.2058253517705992
 31
0.0
  0
LINE
  5
9730
  8
0
 10
4059.0408521758508869
 20
103.0222820246706021
 30
0.0
 11
4059.7603328512800545
 21
103.0222820246706021
 31
0.0
  0
LINE
  5
9731
  8
0
 10
4059.0333094454031198
 20
103.1818805514705986
 30
0.0
 11
4059.767875581655062
 21
103.1818805514705986
 31
0.0
  0
LINE
  5
9732
  8
0
 10
4058.9675216474552144
 20
103.2339385014706039
 30
0.0
 11
4059.8336633797539434
 21
103.2339385014706039
 31
0.0
  0
LINE
  5
9733
  8
0
 10
4074.9783880041709381
 20
80.3816058652016068
 30
0.0
 11
4075.5877259875769596
 21
80.6036630274682437
 31
0.0
  0
ARC
  5
9734
  8
0
 10
4034.7937000059710044
 20
65.6518590749860067
 30
0.0
 40
42.8658297092168397
 50
18.5244883168001806
 51
20.1301350823321314
  0
ARC
  5
9735
  8
0
 10
4054.472025132014096
 20
72.2454880417330401
 30
0.0
 40
22.1122174280402284
 50
359.4847521512547246
 51
18.5244883168001806
  0
ARC
  5
9736
  8
0
 10
4041.1259104977698371
 20
67.9565952140687983
 30
0.0
 40
36.6390618665497811
 50
17.6510311150396895
 51
20.1522514388903815
  0
ARC
  5
9737
  8
0
 10
4056.1874312883610401
 20
72.7491598188497477
 30
0.0
 40
20.8334273011036295
 50
8.9631409728627531
 51
17.6510311150396895
  0
ARC
  5
9738
  8
0
 10
4050.0746441462088114
 20
71.7850201113104731
 30
0.0
 40
27.0217818498443982
 50
0.5547370781506351
 51
8.9631409728627531
  0
LINE
  5
9739
  8
0
 10
4076.5833484592540117
 20
72.046640604870646
 30
0.0
 11
4076.5833484592540117
 21
54.058467592365453
 31
0.0
  0
LINE
  5
973A
  8
0
 10
4077.0951594828538873
 20
72.0466406048706602
 30
0.0
 11
4077.0951594828538873
 21
54.058467592365453
 31
0.0
  0
LINE
  5
973B
  8
0
 10
4074.6723084120549174
 20
57.5536629108706705
 30
0.0
 11
4075.7746706167549746
 21
57.5536629108706705
 31
0.0
  0
LINE
  5
973C
  8
0
 10
4074.7510485695552234
 20
57.207206217970672
 30
0.0
 11
4075.6959304592551234
 21
57.207206217970672
 31
0.0
  0
LINE
  5
973D
  8
0
 10
4074.9048626341091222
 20
56.0206024825706734
 30
0.0
 11
4075.5421163946998604
 21
56.0206024825706734
 31
0.0
  0
LINE
  5
973E
  8
0
 10
4074.8262471966968405
 20
56.0956551547175195
 30
0.0
 11
4074.7746772851542119
 21
57.207206217970672
 31
0.0
  0
ARC
  5
973F
  8
0
 10
4074.9048626341091222
 20
56.099302482570657
 30
0.0
 40
0.0787
 50
182.6563071484877128
 51
270.0
  0
LINE
  5
9740
  8
0
 10
4074.7510485695552234
 20
57.5536629108706705
 30
0.0
 11
4074.7510485695552234
 21
57.207206217970672
 31
0.0
  0
LINE
  5
9741
  8
0
 10
4074.6723084120549174
 20
57.5536629108706705
 30
0.0
 11
4074.6723084120549174
 21
57.862065102008053
 31
0.0
  0
LINE
  5
9742
  8
0
 10
4075.620731832112142
 20
56.0956551547175195
 30
0.0
 11
4075.6723017436552254
 21
57.207206217970672
 31
0.0
  0
ARC
  5
9743
  8
0
 10
4075.5421163946998604
 20
56.099302482570657
 30
0.0
 40
0.0787
 50
270.0
 51
357.3436928515121735
  0
LINE
  5
9744
  8
0
 10
4075.6959304592551234
 20
57.5536629108706705
 30
0.0
 11
4075.6959304592551234
 21
57.207206217970672
 31
0.0
  0
LINE
  5
9745
  8
0
 10
4075.7746706167549746
 20
57.5536629108706705
 30
0.0
 11
4075.7746706167549746
 21
57.8568323703478313
 31
0.0
  0
LINE
  5
9746
  8
0
 10
4074.9675052624547789
 20
56.0206024825706734
 30
0.0
 11
4074.9675052624547789
 21
54.058467592365453
 31
0.0
  0
LINE
  5
9747
  8
0
 10
4075.4793162860551092
 20
54.058467592365453
 30
0.0
 11
4075.4793162860551092
 21
56.0206024825706734
 31
0.0
  0
CIRCLE
  5
9748
  8
0
 10
4075.227364167154974
 20
58.6757089660706583
 30
0.0
 40
0.9849381852666574
  0
ARC
  5
9749
  8
0
 10
4075.5544073226969886
 20
43.3785554605915493
 30
0.0
 40
15.8681451783129202
 50
91.2995386641398881
 51
93.2041056483491133
  0
ARC
  5
974A
  8
0
 10
4074.8097166333659516
 20
56.6812211333821026
 30
0.0
 40
2.5446517090753771
 50
93.2041056483491133
 51
95.1339960356724532
  0
ARC
  5
974B
  8
0
 10
4074.6119780937829091
 20
58.8820887223696019
 30
0.0
 40
0.3349189934981636
 50
95.1339960356724532
 51
124.850667381371494
  0
ARC
  5
974C
  8
0
 10
4074.581127138876127
 20
58.9263937753215288
 30
0.0
 40
0.2809308546546928
 50
124.850667381371494
 51
154.2340201196234943
  0
ARC
  5
974D
  8
0
 10
4074.7959040279110923
 20
58.8227238540827813
 30
0.0
 40
0.5194189353493261
 50
154.2340201196224996
 51
167.0180536113765868
  0
ARC
  5
974E
  8
0
 10
4075.6175892142400699
 20
58.6332955703475065
 30
0.0
 40
1.3626565175951371
 50
167.0180536113765868
 51
178.2163008562378934
  0
ARC
  5
974F
  8
0
 10
4075.292799798824035
 20
58.6761205783873976
 30
0.0
 40
1.0372069168723059
 50
180.0226719855085946
 51
197.5621069216263948
  0
ARC
  5
9750
  8
0
 10
4074.6778238201932254
 20
58.4788760702711699
 30
0.0
 40
0.3913861687485696
 50
197.1978037339725063
 51
213.4430089405828141
  0
ARC
  5
9751
  8
0
 10
4074.5929379488420636
 20
58.4382111069253369
 30
0.0
 40
0.2984204651145464
 50
215.910734190603705
 51
255.1351879749655041
  0
ARC
  5
9752
  8
0
 10
4074.6835575122449882
 20
58.799369965508923
 30
0.0
 40
0.6707593090710205
 50
255.5678023157574899
 51
270.3526204601952827
  0
ARC
  5
9753
  8
0
 10
4075.4256252326940739
 20
69.0850889823601619
 30
0.0
 40
10.9812883510838493
 50
266.1468352340543788
 51
271.9890584663361892
  0
ARC
  5
9754
  8
0
 10
4075.7897075445830524
 20
58.6017374793747621
 30
0.0
 40
0.4916165418718247
 50
271.9890584663361892
 51
292.4089295233986263
  0
ARC
  5
9755
  8
0
 10
4075.8870111201099462
 20
58.3657656999801517
 30
0.0
 40
0.2363702559421466
 50
292.4089295233986263
 51
331.0632837118470206
  0
ARC
  5
9756
  8
0
 10
4075.4101149706248179
 20
58.6294253929548077
 30
0.0
 40
0.781298114556412
 50
331.0632837118470206
 51
350.3955499295789195
  0
ARC
  5
9757
  8
0
 10
4075.1495021775899659
 20
58.6735255681750019
 30
0.0
 40
1.045615827446466
 50
350.3955499295789195
 51
9.8909301245125167
  0
ARC
  5
9758
  8
0
 10
4075.3473845473358779
 20
58.7080292924347802
 30
0.0
 40
0.844747862744289
 50
9.8909301245125167
 51
26.4685369954251613
  0
ARC
  5
9759
  8
0
 10
4075.8800743286128636
 20
58.9732534874889325
 30
0.0
 40
0.2496829278677126
 50
26.4685369954255307
 51
62.0810595181574598
  0
ARC
  5
975A
  8
0
 10
4075.8147195489809747
 20
58.8499183964126331
 30
0.0
 40
0.3892636998654218
 50
62.0810595181574598
 51
83.8150199117922057
  0
ARC
  5
975B
  8
0
 10
4075.5825297113710803
 20
55.4786096619704381
 30
0.0
 40
3.7682907506419161
 50
85.8282680338991071
 51
90.2487624987625736
  0
ARC
  5
975C
  8
0
 10
4075.5881691084091472
 20
41.053459249110432
 30
0.0
 40
18.1934189481295796
 50
90.0692844175300849
 51
91.2397707183688453
  0
ARC
  5
975D
  8
0
 10
4075.4629745045899654
 20
46.9882991922897233
 30
0.0
 40
12.2035752165671703
 50
91.0855792592163453
 51
92.7309445368771748
  0
ARC
  5
975E
  8
0
 10
3887.3261379734030925
 20
3991.1483547831489886
 30
0.0
 40
3936.4410040509119426
 50
272.7272060359188117
 51
272.730944536877189
  0
ARC
  5
975F
  8
0
 10
4074.6439549963770332
 20
58.7671412648411007
 30
0.0
 40
0.3990959539087569
 50
92.7272060359187549
 51
107.0376471245490961
  0
ARC
  5
9760
  8
0
 10
4074.6087747352307815
 20
58.881940874795248
 30
0.0
 40
0.2790268020843348
 50
107.0376471245490961
 51
132.5246991690090965
  0
ARC
  5
9761
  8
0
 10
4074.5366757215938378
 20
58.9605550771976681
 30
0.0
 40
0.1723569347975425
 50
132.5246991690094092
 51
156.2476786638565898
  0
ARC
  5
9762
  8
0
 10
4075.0766798852728243
 20
58.7229214439100531
 30
0.0
 40
0.7623351042755074
 50
156.2476786638565898
 51
170.1209493708375078
  0
ARC
  5
9763
  8
0
 10
4075.4172415668290341
 20
58.6636122217429516
 30
0.0
 40
1.108022597219178
 50
170.1209493708383036
 51
179.3744042060725121
  0
ARC
  5
9764
  8
0
 10
4075.1957457919152148
 20
58.6660307651881965
 30
0.0
 40
0.8865136184917217
 50
179.3744042060725121
 51
192.9764911770006961
  0
ARC
  5
9765
  8
0
 10
4075.3054149752779267
 20
58.6913024992991623
 30
0.0
 40
0.9990569004968534
 50
192.9764911770006961
 51
200.6558741754018058
  0
ARC
  5
9766
  8
0
 10
4074.564636261459782
 20
58.4120373228047214
 30
0.0
 40
0.2073864250788243
 50
200.6558741754024027
 51
239.2381476070466988
  0
ARC
  5
9767
  8
0
 10
4074.6307137323888128
 20
58.5230512966439704
 30
0.0
 40
0.3365775027580745
 50
239.2381476070482051
 51
261.8889505128847759
  0
ARC
  5
9768
  8
0
 10
4074.6746021487451799
 20
58.8310016360417194
 30
0.0
 40
0.6476395618805093
 50
261.8889505128847759
 51
269.032419576766813
  0
ARC
  5
9769
  8
0
 10
4076.7756145537550765
 20
101.9896841834628987
 30
0.0
 40
43.8571099601240775
 50
267.239841537911218
 51
267.7530415573896789
  0
ARC
  5
976A
  8
0
 10
4075.4606923331648431
 20
69.0731271655558317
 30
0.0
 40
10.9143330014906592
 50
267.8756682764698098
 51
271.8348696121204853
  0
ARC
  5
976B
  8
0
 10
4075.7721182042860164
 20
58.7447665632464506
 30
0.0
 40
0.5816215189482936
 50
273.7500743700869066
 51
284.0721366301738158
  0
ARC
  5
976C
  8
0
 10
4075.8602950514650729
 20
58.3929958857760667
 30
0.0
 40
0.2189677365244555
 50
284.0721366301738158
 51
325.4907900338104128
  0
ARC
  5
976D
  8
0
 10
4075.6496262788728018
 20
58.5378343867853701
 30
0.0
 40
0.4746228227642247
 50
325.4907900338100148
 51
351.2870095050874966
  0
ARC
  5
976E
  8
0
 10
4074.1250085680580924
 20
58.7714874586122633
 30
0.0
 40
2.0170407045667291
 50
351.2870095050874966
 51
357.278339723013687
  0
ARC
  5
976F
  8
0
 10
4075.1225707015269109
 20
58.678208029746763
 30
0.0
 40
1.0172064066504689
 50
359.8593030624638232
 51
15.7621286725619498
  0
ARC
  5
9770
  8
0
 10
4075.5449702654559587
 20
58.7699979202543332
 30
0.0
 40
0.5863506268957986
 50
18.3430920120100787
 51
31.7204151003773482
  0
ARC
  5
9771
  8
0
 10
4075.8756100910909481
 20
58.9743680232261909
 30
0.0
 40
0.1976478699144899
 50
31.7204151003769894
 51
67.3804161825265027
  0
ARC
  5
9772
  8
0
 10
4075.8037556980539193
 20
58.8019150965721522
 30
0.0
 40
0.3844714918424344
 50
67.3804161825265027
 51
84.1951553063931186
  0
ARC
  5
9773
  8
0
 10
4075.4719273203368175
 20
51.6188832889543576
 30
0.0
 40
7.5746089103375418
 50
87.194728381207355
 51
91.8169149982274462
  0
LINE
  5
9774
  8
0
 10
4076.0741987953151693
 20
58.5300404138987673
 30
0.0
 11
4076.0741987953151693
 21
58.8213798960426715
 31
0.0
  0
ARC
  5
9775
  8
0
 10
4076.0862955187699299
 20
58.8213798960426715
 30
0.0
 40
0.0120967234552723
 50
92.6624194691289631
 51
179.9999999999992042
  0
ARC
  5
9776
  8
0
 10
4076.0892147612589724
 20
58.758602459286152
 30
0.0
 40
0.0749419980782538
 50
87.3375805308710653
 51
92.6624194691289631
  0
ARC
  5
9777
  8
0
 10
4076.0932356845510185
 20
58.8450712121692376
 30
0.0
 40
0.0116201937219741
 50
267.3375805308709801
 51
13.8014646192829709
  0
ARC
  5
9778
  8
0
 10
4075.5082983566080657
 20
58.7666289363322321
 30
0.0
 40
0.6017279098771012
 50
7.756803771172275
 51
25.4066344204561787
  0
ARC
  5
9779
  8
0
 10
4075.841900903781152
 20
58.9316886514146816
 30
0.0
 40
0.2296498926348676
 50
23.9176689962414883
 51
61.0804138982227371
  0
ARC
  5
977A
  8
0
 10
4075.8143437951889609
 20
58.8739986317880408
 30
0.0
 40
0.2934963416309308
 50
61.8177955089438598
 51
87.8270398292185348
  0
ARC
  5
977B
  8
0
 10
4076.6705722705810331
 20
91.0970378997844961
 30
0.0
 40
31.9409358526924301
 50
268.0608821614470116
 51
268.4838789215800716
  0
ARC
  5
977C
  8
0
 10
4075.6733881677860154
 20
40.8446994766050722
 30
0.0
 40
18.3298843777149294
 50
90.2613759704702687
 51
92.5307773117407635
  0
ARC
  5
977D
  8
0
 10
4074.8766407918938057
 20
56.3318153260762813
 30
0.0
 40
2.8249186370664079
 50
90.2561182152453796
 51
96.3353809496545637
  0
ARC
  5
977E
  8
0
 10
4074.5855834803110156
 20
58.9533365949799872
 30
0.0
 40
0.1872893754109616
 50
96.3353809496545637
 51
128.2639418851038897
  0
ARC
  5
977F
  8
0
 10
4074.6570412418759588
 20
58.8627382090476203
 30
0.0
 40
0.3026768930263834
 50
128.2639418851038897
 51
152.6747066460839903
  0
ARC
  5
9780
  8
0
 10
4075.1373792947319998
 20
58.7113436669993334
 30
0.0
 40
0.8035275180066483
 50
158.8183090832183098
 51
172.7637936873933882
  0
ARC
  5
9781
  8
0
 10
4075.4455188613637802
 20
58.6587187432056112
 30
0.0
 40
1.1159218555611861
 50
172.076155151025489
 51
179.1275609498306949
  0
ARC
  5
9782
  8
0
 10
4075.2823560462848036
 20
58.6754552302484811
 30
0.0
 40
0.9526297085391062
 50
179.9846675883414946
 51
192.29810509440739
  0
ARC
  5
9783
  8
0
 10
4074.9108753739869826
 20
58.5765522246543284
 30
0.0
 40
0.5688768995497031
 50
190.5343891392465991
 51
205.4663291057788967
  0
ARC
  5
9784
  8
0
 10
4074.5696017037998899
 20
58.414940501124299
 30
0.0
 40
0.1912739212930293
 50
205.715503923303288
 51
236.93407011577969
  0
ARC
  5
9785
  8
0
 10
4074.6154103991912052
 20
58.4803114479553585
 30
0.0
 40
0.2710646780246572
 50
236.3584834619477135
 51
256.815409196059818
  0
ARC
  5
9786
  8
0
 10
4074.9539694013869848
 20
61.5335764555670579
 30
0.0
 40
3.3412605165120701
 50
263.1176630200989734
 51
267.8060703686643933
  0
ARC
  5
9787
  8
0
 10
4075.4979034974021488
 20
71.2988721339606712
 30
0.0
 40
13.1213183051692805
 50
267.0650306561777825
 51
269.4767490061523745
  0
ARC
  5
9788
  8
0
 10
4075.4721744514490638
 20
65.2477732522038139
 30
0.0
 40
7.0702984707366747
 50
269.2374238702622051
 51
273.1586639532288245
  0
ARC
  5
9789
  8
0
 10
4075.8311931534822179
 20
58.4291307088628713
 30
0.0
 40
0.2428454732919509
 50
277.2300541510808785
 51
320.6636231145388933
  0
ARC
  5
978A
  8
0
 10
4075.5845850823689034
 20
58.5680132135563696
 30
0.0
 40
0.5239024427237461
 50
326.0193979817300942
 51
352.9351310984379779
  0
ARC
  5
978B
  8
0
 10
4076.0925231379010256
 20
58.5057695771275235
 30
0.0
 40
0.0121855803305617
 50
349.6336184585377964
 51
89.2375597890816579
  0
ARC
  5
978C
  8
0
 10
4076.0892094516048019
 20
58.4704784298834923
 30
0.0
 40
0.0476027168889561
 50
85.8126732048312988
 51
94.187326795168687
  0
ARC
  5
978D
  8
0
 10
4076.0865145631501036
 20
58.5302467939258406
 30
0.0
 40
0.0123174969091434
 50
180.9600374127618068
 51
266.3649238995262749
  0
ARC
  5
978E
  8
0
 10
4072.8631259616181524
 20
57.1204666311277904
 30
0.0
 40
1.825533331005575
 50
60.51164038296114
 51
83.6327472747155554
  0
ARC
  5
978F
  8
0
 10
4071.2386184209231033
 20
55.3062723462867183
 30
0.0
 40
4.2365292684556159
 50
40.0723753494258403
 51
53.4472180309480223
  0
LINE
  5
9790
  8
0
 10
4076.5833484592540117
 20
57.9867581138706711
 30
0.0
 11
4076.1504959444541782
 21
57.9867495038706622
 31
0.0
  0
ARC
  5
9791
  8
0
 10
4076.1505080231750071
 20
57.3795132013637428
 30
0.0
 40
0.6072363026270572
 50
90.0011396876359413
 51
123.0844215629071954
  0
ARC
  5
9792
  8
0
 10
4076.1833930591460557
 20
60.0098255800777309
 30
0.0
 40
0.6457789437562582
 50
232.1172947987653004
 51
267.4038549240701741
  0
LINE
  5
9793
  8
0
 10
4076.5833484592540117
 20
59.3647108697706614
 30
0.0
 11
4076.1541420006551562
 21
59.364709451170647
 31
0.0
  0
ARC
  5
9794
  8
0
 10
4076.0435313203438454
 20
59.8134398982930691
 30
0.0
 40
0.4050245344705227
 50
180.8548491490329013
 51
230.6740217163583111
  0
LINE
  5
9795
  8
0
 10
4076.8907828643450557
 20
89.3764646861803698
 30
0.0
 11
4076.8927184978538207
 21
89.3745290526706668
 31
0.0
  0
LINE
  5
9796
  8
0
 10
4076.8927184978538207
 20
89.3745290526706668
 30
0.0
 11
4077.0226397576548152
 21
89.3745290526706668
 31
0.0
  0
LINE
  5
9797
  8
0
 10
4077.0226397576548152
 20
89.3745290526706668
 30
0.0
 11
4077.0245753936278561
 21
89.3764646885405369
 31
0.0
  0
LINE
  5
9798
  8
0
 10
4077.4301200726540628
 20
57.9290602759909632
 30
0.0
 11
4077.4301200726540628
 21
59.4201431814730867
 31
0.0
  0
LINE
  5
9799
  8
0
 10
4077.0951594828538873
 20
59.3154739345706616
 30
0.0
 11
4077.4301200726540628
 21
59.3154739345706616
 31
0.0
  0
LINE
  5
979A
  8
0
 10
4077.0951594828538873
 20
58.9217731471706614
 30
0.0
 11
4077.4301200726540628
 21
58.9217731471706614
 31
0.0
  0
LINE
  5
979B
  8
0
 10
4077.0951594828538873
 20
58.4296471628706726
 30
0.0
 11
4077.4301200726540628
 21
58.4296471628706726
 31
0.0
  0
LINE
  5
979C
  8
0
 10
4077.0951594828538873
 20
58.0359463754706724
 30
0.0
 11
4077.4301200726540628
 21
58.0359463754706724
 31
0.0
  0
ARC
  5
979D
  8
0
 10
4075.681013156462086
 20
60.1620639689221903
 30
0.0
 40
0.1099619177548503
 50
151.0626004684378074
 51
173.7573004968031114
  0
ARC
  5
979E
  8
0
 10
4075.754270236055163
 20
60.1540504599485288
 30
0.0
 40
0.1836559883207178
 50
173.7573004968031114
 51
193.7417505076124087
  0
ARC
  5
979F
  8
0
 10
4075.649617247840979
 20
60.1284580063449567
 30
0.0
 40
0.0759191718483294
 50
193.7417505076132045
 51
211.427308375090206
  0
ARC
  5
97A0
  8
0
 10
4075.6318524358289324
 20
60.1176026935522287
 30
0.0
 40
0.0551002775061272
 50
211.4273083750908029
 51
229.1662853953899912
  0
ARC
  5
97A1
  8
0
 10
4075.6029291863619619
 20
60.0841346211836935
 30
0.0
 40
0.0108660574067504
 50
229.166285395361399
 51
292.7272067281004979
  0
ARC
  5
97A2
  8
0
 10
4075.6013994251529766
 20
60.0877867609072496
 30
0.0
 40
0.0148256399497774
 50
292.7272067281022032
 51
338.3749681043310034
  0
ARC
  5
97A3
  8
0
 10
4075.4765181453949481
 20
60.1372938801720309
 30
0.0
 40
0.1491621163515901
 50
338.3749681043307191
 51
356.5147984548513023
  0
ARC
  5
97A4
  8
0
 10
4075.2616952808962196
 20
60.1503773179224694
 30
0.0
 40
0.3643830248508518
 50
356.5147984548513023
 51
6.5542711879641509
  0
ARC
  5
97A5
  8
0
 10
4075.5331655226409566
 20
60.1815679508326014
 30
0.0
 40
0.0911268305293694
 50
6.5542711879649609
 51
27.9804858748606513
  0
ARC
  5
97A6
  8
0
 10
4075.6028000187848193
 20
60.2185628531790371
 30
0.0
 40
0.012275160586615
 50
27.9804858748845113
 51
87.7163919185039447
  0
ARC
  5
97A7
  8
0
 10
4075.6028349110479212
 20
60.2194378372567769
 30
0.0
 40
0.0113994810754228
 50
87.7163919185039447
 51
135.5370027910238946
  0
ARC
  5
97A8
  8
0
 10
4075.6561591014278747
 20
60.1671367449073529
 30
0.0
 40
0.0860913378476664
 50
135.5525786383686864
 51
146.0071896784565979
  0
ARC
  5
97A9
  8
0
 10
4075.591064177518092
 20
60.2052973199483432
 30
0.0
 40
0.011788759934237
 50
96.1123918230223779
 51
122.198040278563596
  0
ARC
  5
97AA
  8
0
 10
4075.5907499784789252
 20
60.2082313486225118
 30
0.0
 40
0.0088379557562167
 50
63.8896307791015303
 51
96.1123918229699825
  0
ARC
  5
97AB
  8
0
 10
4075.5865338485241409
 20
60.1996290974948565
 30
0.0
 40
0.0184178553514301
 50
39.5244615250568714
 51
63.889630779101438
  0
ARC
  5
97AC
  8
0
 10
4075.570666130211066
 20
60.1865373779919466
 30
0.0
 40
0.0389891364014201
 50
24.1219771652433188
 51
39.5244615250567222
  0
ARC
  5
97AD
  8
0
 10
4075.5228467280398945
 20
60.1651247094003168
 30
0.0
 40
0.091383769715336
 50
9.1169157616696683
 51
24.1219771652413506
  0
ARC
  5
97AE
  8
0
 10
4075.4342098729857753
 20
60.150900544038457
 30
0.0
 40
0.1811546945982035
 50
358.0986310270474746
 51
9.1169157616696683
  0
ARC
  5
97AF
  8
0
 10
4075.4788191139300579
 20
60.1494196360780222
 30
0.0
 40
0.1365208793228548
 50
343.8731276401596233
 51
358.098631027045883
  0
ARC
  5
97B0
  8
0
 10
4075.5522477651379631
 20
60.1281882319238576
 30
0.0
 40
0.0600843740347016
 50
324.8797675463334258
 51
343.8731276401564969
  0
ARC
  5
97B1
  8
0
 10
4075.5875948780540057
 20
60.1033272130286775
 30
0.0
 40
0.0168699244606265
 50
297.7483326252856841
 51
324.8797675463296173
  0
ARC
  5
97B2
  8
0
 10
4075.5904075662751893
 20
60.0979807944793691
 30
0.0
 40
0.0108287816602311
 50
267.2359441942758735
 51
297.748332625283922
  0
ARC
  5
97B3
  8
0
 10
4075.5903540339809297
 20
60.0968719909603379
 30
0.0
 40
0.0097186866415883
 50
235.4011702527500915
 51
267.2359441942758735
  0
LINE
  5
97B4
  8
0
 10
4075.5751960007542039
 20
60.1795553921706698
 30
0.0
 11
4075.5912303020541003
 21
60.1971931432706597
 31
0.0
  0
LINE
  5
97B5
  8
0
 10
4075.5912303020541003
 20
60.1971931432706597
 30
0.0
 11
4075.605092842754857
 21
60.1697258588706632
 31
0.0
  0
LINE
  5
97B6
  8
0
 10
4075.605092842754857
 20
60.1697258588706632
 30
0.0
 11
4075.6029210822548521
 21
60.1246208233706625
 31
0.0
  0
LINE
  5
97B7
  8
0
 10
4075.6029210822548521
 20
60.1246208233706625
 30
0.0
 11
4075.586886781055
 21
60.1069830722706584
 31
0.0
  0
LINE
  5
97B8
  8
0
 10
4075.586886781055
 20
60.1069830722706584
 30
0.0
 11
4075.5730242402551085
 21
60.1344503566706692
 31
0.0
  0
LINE
  5
97B9
  8
0
 10
4075.5730242402551085
 20
60.1344503566706692
 30
0.0
 11
4075.5751960007542039
 21
60.1795553921706698
 31
0.0
  0
ARC
  5
97BA
  8
0
 10
4081.0120400089649593
 20
54.013982768237021
 30
0.0
 40
5.5329025559497991
 50
179.5393339915183049
 51
195.2984438685597866
  0
ARC
  5
97BB
  8
0
 10
4076.9527690758582139
 20
52.9036104018004423
 30
0.0
 40
1.324505319409748
 50
195.2984438685597866
 51
225.918361728009188
  0
ARC
  5
97BC
  8
0
 10
4070.6352608509591846
 20
54.0418392916522805
 30
0.0
 40
5.9481108510469678
 50
347.6022871118021271
 51
0.1601739974521038
  0
ARC
  5
97BD
  8
0
 10
4074.6737656054069703
 20
53.1540854335521189
 30
0.0
 40
1.8131830929992689
 50
318.4797023642624936
 51
347.6022871118021271
  0
ARC
  5
97BE
  8
0
 10
4081.2099889306700788
 20
54.0298867513280712
 30
0.0
 40
6.2425490957156669
 50
179.7376765064514927
 51
194.1784193953737088
  0
ARC
  5
97BF
  8
0
 10
4077.5320469364419296
 20
53.1006982166945818
 30
0.0
 40
2.4490482527199369
 50
194.1784193953737088
 51
210.3005687235651067
  0
ARC
  5
97C0
  8
0
 10
4076.3260606146782266
 20
52.3959606515680889
 30
0.0
 40
1.0522454592005419
 50
210.3005687235651067
 51
234.8544967279692059
  0
ARC
  5
97C1
  8
0
 10
4076.0362355812590067
 20
51.9842767208695875
 30
0.0
 40
0.5487752924664538
 50
234.8544967279692059
 51
315.3770854555456253
  0
ARC
  5
97C2
  8
0
 10
4075.227585200042995
 20
52.7823524697525315
 30
0.0
 40
1.684926840454509
 50
315.3770854555459096
 51
342.5726737328467948
  0
ARC
  5
97C3
  8
0
 10
4071.5110557916991638
 20
53.9489890918975732
 30
0.0
 40
5.5802614668010762
 50
342.5726737328467948
 51
354.6757970293346034
  0
ARC
  5
97C4
  8
0
 10
4070.6125454429238744
 20
54.0327242082683696
 30
0.0
 40
6.4826651550531853
 50
354.6757970293346034
 51
0.2275285088130515
  0
ENDSEC
  0
EOF
