  0
SECTION
  2
HEADER
  9
$ACADVER
  1
AC1009
  9
$INSBASE
 10
4111.5641518013226232
 20
68.3579371881677105
 30
0.0
  9
$EXTMIN
 10
4087.3341161741750511
 20
46.3418187291293009
 30
0.0
  9
$EXTMAX
 10
4111.5708996597977603
 20
101.4389465466753961
 30
0.0
  9
$LIMMIN
 10
0.0
 20
0.0
  9
$LIMMAX
 10
11.6929133858000007
 20
8.2677165353999982
  9
$ORTHOMODE
 70
     0
  9
$REGENMODE
 70
     1
  9
$FILLMODE
 70
     1
  9
$QTEXTMODE
 70
     0
  9
$MIRRTEXT
 70
     0
  9
$DRAGMODE
 70
     2
  9
$LTSCALE
 40
0.6431102362
  9
$OSMODE
 70
  4095
  9
$ATTMODE
 70
     1
  9
$TEXTSIZE
 40
0.2
  9
$TRACEWID
 40
0.05
  9
$TEXTSTYLE
  7
STANDARD
  9
$CLAYER
  8
0
  9
$CELTYPE
  6
BYLAYER
  9
$CECOLOR
 62
   256
  9
$DIMSCALE
 40
1.0
  9
$DIMASZ
 40
0.1875
  9
$DIMEXO
 40
0.0625
  9
$DIMDLI
 40
0.4443307087
  9
$DIMRND
 40
0.0
  9
$DIMDLE
 40
0.0
  9
$DIMEXE
 40
0.125
  9
$DIMTP
 40
0.01
  9
$DIMTM
 40
0.01
  9
$DIMTXT
 40
2.0
  9
$DIMCEN
 40
0.1052362205
  9
$DIMTSZ
 40
0.0
  9
$DIMTOL
 70
     1
  9
$DIMLIM
 70
     0
  9
$DIMTIH
 70
     1
  9
$DIMTOH
 70
     1
  9
$DIMSE1
 70
     0
  9
$DIMSE2
 70
     0
  9
$DIMTAD
 70
     0
  9
$DIMZIN
 70
     0
  9
$DIMBLK
  1

  9
$DIMASO
 70
     1
  9
$DIMSHO
 70
     1
  9
$DIMPOST
  1
\X
  9
$DIMAPOST
  1

  9
$DIMALT
 70
     1
  9
$DIMALTD
 70
     2
  9
$DIMALTF
 40
25.3999999999999986
  9
$DIMLFAC
 40
1.0
  9
$DIMTOFL
 70
     0
  9
$DIMTVP
 40
0.0
  9
$DIMTIX
 70
     0
  9
$DIMSOXD
 70
     0
  9
$DIMSAH
 70
     0
  9
$DIMBLK1
  1

  9
$DIMBLK2
  1

  9
$DIMSTYLE
  2
STANDARD
  9
$DIMCLRD
 70
     0
  9
$DIMCLRE
 70
     0
  9
$DIMCLRT
 70
     0
  9
$DIMTFAC
 40
1.0
  9
$DIMGAP
 40
0.09
  9
$LUNITS
 70
     2
  9
$LUPREC
 70
     4
  9
$SKETCHINC
 40
0.1
  9
$FILLETRAD
 40
0.0
  9
$AUNITS
 70
     0
  9
$AUPREC
 70
     0
  9
$MENU
  1
.
  9
$ELEVATION
 40
0.0
  9
$PELEVATION
 40
0.0
  9
$THICKNESS
 40
0.0
  9
$LIMCHECK
 70
     0
  9
$BLIPMODE
 70
     0
  9
$CHAMFERA
 40
0.0
  9
$CHAMFERB
 40
0.0
  9
$SKPOLY
 70
     0
  9
$TDCREATE
 40
2458060.468368056230247
  9
$TDUPDATE
 40
2460243.6090393518097699
  9
$TDINDWG
 40
0.4250880787
  9
$TDUSRTIMER
 40
0.4250880787
  9
$USRTIMER
 70
     1
  9
$ANGBASE
 50
0.0
  9
$ANGDIR
 70
     0
  9
$PDMODE
 70
     0
  9
$PDSIZE
 40
0.3125
  9
$PLINEWID
 40
0.0
  9
$COORDS
 70
     1
  9
$SPLFRAME
 70
     0
  9
$SPLINETYPE
 70
     6
  9
$SPLINESEGS
 70
     8
  9
$ATTDIA
 70
     1
  9
$ATTREQ
 70
     1
  9
$HANDLING
 70
     1
  9
$HANDSEED
  5
9EAE
  9
$SURFTAB1
 70
     6
  9
$SURFTAB2
 70
     6
  9
$SURFTYPE
 70
     6
  9
$SURFU
 70
     6
  9
$SURFV
 70
     6
  9
$UCSNAME
  2

  9
$UCSORG
 10
0.0
 20
0.0
 30
0.0
  9
$UCSXDIR
 10
1.0
 20
0.0
 30
0.0
  9
$UCSYDIR
 10
0.0
 20
1.0
 30
0.0
  9
$PUCSNAME
  2

  9
$PUCSORG
 10
0.0
 20
0.0
 30
0.0
  9
$PUCSXDIR
 10
1.0
 20
0.0
 30
0.0
  9
$PUCSYDIR
 10
0.0
 20
1.0
 30
0.0
  9
$USERI1
 70
     0
  9
$USERI2
 70
     0
  9
$USERI3
 70
     0
  9
$USERI4
 70
     0
  9
$USERI5
 70
     0
  9
$USERR1
 40
0.0
  9
$USERR2
 40
0.0
  9
$USERR3
 40
0.0
  9
$USERR4
 40
0.0
  9
$USERR5
 40
0.0
  9
$WORLDVIEW
 70
     1
  9
$SHADEDGE
 70
     3
  9
$SHADEDIF
 70
    70
  9
$TILEMODE
 70
     1
  9
$MAXACTVP
 70
    64
  9
$PLIMCHECK
 70
     0
  9
$PEXTMIN
 10
1.0000000000000000E+20
 20
1.0000000000000000E+20
 30
1.0000000000000000E+20
  9
$PEXTMAX
 10
-1.0000000000000000E+20
 20
-1.0000000000000000E+20
 30
-1.0000000000000000E+20
  9
$PLIMMIN
 10
0.0
 20
0.0
  9
$PLIMMAX
 10
12.0
 20
9.0
  9
$UNITMODE
 70
     0
  9
$VISRETAIN
 70
     1
  9
$PLINEGEN
 70
     0
  9
$PSLTSCALE
 70
     1
  0
ENDSEC
  0
SECTION
  2
TABLES
  0
TABLE
  2
VPORT
 70
     1
  0
VPORT
  2
*ACTIVE
 70
     0
 10
0.0
 20
0.0
 11
1.0
 21
1.0
 12
307.0874239225086058
 22
-45.9947880424558235
 13
0.0
 23
0.0
 14
1.0
 24
1.0
 15
0.0
 25
0.0
 16
0.0
 26
0.0
 36
5.1040778033513332
 17
3792.35791015625
 27
120.1806564331053977
 37
0.0
 40
56.1365680014652781
 41
2.498684210526315
 42
50.0
 43
0.0
 44
0.0
 50
0.0
 51
0.0
 71
     0
 72
   100
 73
     1
 74
     1
 75
     0
 76
     0
 77
     0
 78
     0
  0
ENDTAB
  0
TABLE
  2
LTYPE
 70
     2
  0
LTYPE
  2
CONTINUOUS
 70
     0
  3
Solid line
 72
    65
 73
     0
 40
0.0
  0
LTYPE
  2
PHANTOM2
 70
     0
  3
___ _ _ ___ _ _ ___ _ _ ___ _ _
 72
    65
 73
     6
 40
1.25
 49
0.625
 49
-0.125
 49
0.125
 49
-0.125
 49
0.125
 49
-0.125
  0
ENDTAB
  0
TABLE
  2
LAYER
 70
     2
  0
LAYER
  2
0
 70
     0
 62
   255
  6
CONTINUOUS
  0
LAYER
  2
DEFPOINTS
 70
     0
 62
     7
  6
CONTINUOUS
  0
ENDTAB
  0
TABLE
  2
STYLE
 70
     1
  0
STYLE
  2
STANDARD
 70
     0
 40
0.0
 41
0.8
 50
0.0
 71
     0
 42
0.2
  3
txt
  4

  0
ENDTAB
  0
TABLE
  2
VIEW
 70
     0
  0
ENDTAB
  0
TABLE
  2
UCS
 70
     0
  0
ENDTAB
  0
TABLE
  2
APPID
 70
     9
  0
APPID
  2
ACAD
 70
     0
  0
APPID
  2
ACAD_MLEADERVER
 70
     0
  0
APPID
  2
ACAD_EXEMPT_FROM_CAD_STANDARDS
 70
     0
  0
APPID
  2
ACAD_NAV_VCDISPLAY
 70
     0
  0
APPID
  2
ACAECLAYERSTANDARD
 70
     0
  0
APPID
  2
ACCMTRANSPARENCY
 70
     0
  0
APPID
  2
ACAD_DSTYLE_DIMJAG
 70
     0
  0
APPID
  2
ACAD_DSTYLE_DIMTALN
 70
     0
  0
APPID
  2
ACDBATTR
 70
     0
  0
ENDTAB
  0
TABLE
  2
DIMSTYLE
 70
     1
  0
DIMSTYLE
  2
STANDARD
 70
     0
  3

  4

  5

  6

  7

 40
1.0
 41
0.1875
 42
0.0625
 43
0.38
 44
0.125
 45
0.0
 46
0.0
 47
0.01
 48
0.01
140
0.15625
141
0.09
142
0.0
143
25.3999999999999986
144
1.0
145
0.0
146
1.0
147
0.09
 71
     1
 72
     0
 73
     1
 74
     1
 75
     0
 76
     0
 77
     0
 78
     4
170
     0
171
     2
172
     0
173
     0
174
     0
175
     0
176
     0
177
     0
178
     0
  0
ENDTAB
  0
ENDSEC
  0
SECTION
  2
BLOCKS
  0
BLOCK
  8
0
  2
$MODEL_SPACE
 70
     0
 10
0.0
 20
0.0
 30
0.0
  3
$MODEL_SPACE
  1

  0
ENDBLK
  5
21
  8
0
  0
BLOCK
 67
     1
  8
0
  2
$PAPER_SPACE
 70
     0
 10
0.0
 20
0.0
 30
0.0
  3
$PAPER_SPACE
  1

  0
ENDBLK
  5
1D
 67
     1
  8
0
  0
BLOCK
  8
0
  2
_FILLED
 70
     0
 10
0.0
 20
0.0
 30
0.0
  3
_FILLED
  1

  0
SOLID
  5
69B4
  8
0
  6
BYBLOCK
 62
     0
 10
0.0
 20
0.0
 30
0.0
 11
-1.0
 21
0.1666666667
 31
0.0
 12
-1.0
 22
-0.1666666667
 32
0.0
 13
-1.0
 23
-0.1666666667
 33
0.0
  0
ENDBLK
  5
69B5
  8
0
  6
BYBLOCK
 62
     0
  0
BLOCK
  8
0
  2
A$CDFAF6206
 70
     0
 10
0.0
 20
0.0
 30
0.0
  3
A$CDFAF6206
  1

  0
LINE
  5
6A0E
  8
0
 10
7.4646650085734834
 20
10.9287685970688493
 30
0.0
 11
7.4646650085734896
 21
10.8905784766688498
 31
0.0
  0
ARC
  5
6A0F
  8
0
 10
7.7269027075262349
 20
10.8926811525838598
 30
0.0
 40
0.2622461286616791
 50
180.4593995232625048
 51
217.0214027758331099
  0
LINE
  5
6A10
  8
0
 10
9.767814609867095
 20
10.9287685970688493
 30
0.0
 11
9.767814609867095
 21
10.8905433757650094
 31
0.0
  0
ARC
  5
6A11
  8
0
 10
9.5068669568548287
 20
10.8922438613003703
 30
0.0
 40
0.2609531936261092
 50
322.8847083717149076
 51
359.6266329125650145
  0
LINE
  5
6A12
  8
0
 10
7.517522606271406
 20
10.7347792678688396
 30
0.0
 11
9.7149570120691777
 21
10.7347792678688396
 31
0.0
  0
LINE
  5
6A13
  8
0
 10
7.4646650085734834
 20
10.9287685970688493
 30
0.0
 11
9.7678146123202936
 21
10.9287685970688493
 31
0.0
  0
ARC
  5
6A14
  8
0
 10
4.0826771419203629
 20
8.527951346868889
 30
0.0
 40
4.0826771653999172
 50
13.3117747050523896
 51
32.7200330051415591
  0
ARC
  5
6A15
  8
0
 10
4.0826771460567306
 20
8.5279513475907933
 30
0.0
 40
4.0826771612084691
 50
359.6656501984817851
 51
13.3117747085593798
  0
ARC
  5
6A16
  8
0
 10
13.1498041284835097
 20
8.5279508235212234
 30
0.0
 40
4.0826788382043553
 50
147.2799733478981068
 51
166.6882233021349862
  0
ARC
  5
6A17
  8
0
 10
13.1498064934207992
 20
8.5279506557033251
 30
0.0
 40
4.0826811782395342
 50
166.688228652086309
 51
180.3343397625230011
  0
LINE
  5
6A18
  8
0
 10
8.1652847935202928
 20
8.504127000268852
 30
0.0
 11
9.0671948248202892
 21
8.5041270002687881
 31
0.0
  0
LINE
  5
6A19
  8
0
 10
8.1652847935202786
 20
8.5041270002667204
 30
0.0
 11
8.1652847935202928
 21
8.3607006934688481
 31
0.0
  0
ARC
  5
6A1A
  8
0
 10
5.6196779630382627
 20
8.3631022096452732
 30
0.0
 40
2.545607963272567
 50
342.0511668832173768
 51
359.945947387132378
  0
LINE
  5
6A1B
  8
0
 10
9.0671948248202892
 20
8.5041270002687881
 30
0.0
 11
9.0671948248202892
 21
8.2885990108688503
 31
0.0
  0
ARC
  5
6A1C
  8
0
 10
9.4521885297801163
 20
7.9614488056228501
 30
0.0
 40
0.5052201595850959
 50
139.6436242991769916
 51
174.6757930071850069
  0
ARC
  5
6A1D
  8
0
 10
9.9238413395551746
 20
8.1492417579399508
 30
0.0
 40
0.9848265662939324
 50
188.2263441834095943
 51
209.5593615864376034
  0
ARC
  5
6A1E
  8
0
 10
8.0788764238271256
 20
7.5665710856463297
 30
0.0
 40
0.0393715937169877
 50
162.1669117288323037
 51
227.2023190037006088
  0
ARC
  5
6A1F
  8
0
 10
8.7223682141740682
 20
8.2079667397440517
 30
0.0
 40
0.947895137885075
 50
225.0018610752970858
 51
261.4598823366255829
  0
ARC
  5
6A20
  8
0
 10
8.6645157662702701
 20
8.1695128573935332
 30
0.0
 40
0.9027466462812931
 50
264.7303071214498118
 51
281.8608311947915013
  0
ARC
  5
6A21
  8
0
 10
8.6645157662698935
 20
8.1695128573999671
 30
0.0
 40
0.9027466462876658
 50
299.1741886792128753
 51
299.1743179154552195
  0
ARC
  5
6A22
  8
0
 10
9.0843330931590316
 20
7.4150554710086141
 30
0.0
 40
0.0393703053609601
 50
251.9700352025496954
 51
252.4698971938937859
  0
ARC
  5
6A23
  8
0
 10
9.0843330931590316
 20
7.4150554710086141
 30
0.0
 40
0.0393703053609601
 50
297.2453716727138726
 51
6.8376113572703074
  0
LINE
  5
6A24
  8
0
 10
9.0671948248202892
 20
7.663402160468852
 30
0.0
 11
9.1234233799329516
 21
7.419742732911689
 31
0.0
  0
ARC
  5
6A25
  8
0
 10
8.8843741880892395
 20
9.8961379890094676
 30
0.0
 40
2.5255097382132701
 50
263.792800240752797
 51
274.9514951129821156
  0
ARC
  5
6A26
  8
0
 10
8.8258167405968848
 20
9.2763025889666508
 30
0.0
 40
1.9029970832759311
 50
246.0108363320686067
 51
263.5276935074397215
  0
ARC
  5
6A27
  8
0
 10
8.607491361665744
 20
8.3225444804829642
 30
0.0
 40
1.064510137163637
 50
283.1717405874071005
 51
297.7022170607311864
  0
LINE
  5
6A28
  8
0
 10
9.0671948248202892
 20
8.2885990108688503
 30
0.0
 11
26.2014378595979593
 21
8.2885990108689942
 31
0.0
  0
LINE
  5
6A29
  8
0
 10
26.2014378595979913
 20
7.6634021604689053
 30
0.0
 11
9.0671948248202892
 21
7.6634021604688618
 31
0.0
  0
LINE
  5
6A2A
  8
0
 10
27.8039676758446994
 20
10.9287685970690802
 30
0.0
 11
27.8039676758446888
 21
10.8905784766690807
 31
0.0
  0
ARC
  5
6A2B
  8
0
 10
27.5417299768919399
 20
10.8926811525840801
 30
0.0
 40
0.2622461286616791
 50
322.9785972241680838
 51
359.5406004767386889
  0
LINE
  5
6A2C
  8
0
 10
25.5008180745510913
 20
10.9287685970690305
 30
0.0
 11
25.5008180745510913
 21
10.8905433757651799
 31
0.0
  0
ARC
  5
6A2D
  8
0
 10
25.7617657275633505
 20
10.8922438613005497
 30
0.0
 40
0.2609531936261092
 50
180.3733670874362929
 51
217.1152916282862861
  0
LINE
  5
6A2E
  8
0
 10
27.7511100781467803
 20
10.7347792678690706
 30
0.0
 11
25.5536756723490015
 21
10.7347792678690208
 31
0.0
  0
LINE
  5
6A2F
  8
0
 10
27.8039676758446888
 20
10.9287685970686006
 30
0.0
 11
25.5008180745510806
 21
10.9287685970686006
 31
0.0
  0
ARC
  5
6A30
  8
0
 10
31.1859555424978616
 20
8.5279513468691981
 30
0.0
 40
4.0826771653999172
 50
147.2799669948597057
 51
166.6882252949490066
  0
ARC
  5
6A31
  8
0
 10
31.185955538361501
 20
8.5279513475911024
 30
0.0
 40
4.0826771612084691
 50
166.6882252914419098
 51
180.3343498015194086
  0
ARC
  5
6A32
  8
0
 10
22.1188285559344706
 20
8.5279508235212251
 30
0.0
 40
4.0826788382046102
 50
13.3117766978667795
 51
32.7200266521023977
  0
ARC
  5
6A33
  8
0
 10
22.1188261909974315
 20
8.5279506557034264
 30
0.0
 40
4.0826811782395342
 50
359.665660237478221
 51
13.31177134791497
  0
LINE
  5
6A34
  8
0
 10
27.1033478908979397
 20
8.5041270002690652
 30
0.0
 11
26.2014378595979416
 21
8.5041270002689835
 31
0.0
  0
LINE
  5
6A35
  8
0
 10
27.1033478908979504
 20
8.5041270002669354
 30
0.0
 11
27.1033478908979397
 21
8.3607006934690649
 31
0.0
  0
ARC
  5
6A36
  8
0
 10
29.6489547213799689
 20
8.3631022096455467
 30
0.0
 40
2.545607963272567
 50
180.0540526128687873
 51
197.9488331167837032
  0
LINE
  5
6A37
  8
0
 10
26.2014378595979416
 20
8.5041270002689835
 30
0.0
 11
26.2014378595979487
 21
8.2885990108690457
 31
0.0
  0
ARC
  5
6A38
  8
0
 10
25.8164441546381305
 20
7.9614488056230366
 30
0.0
 40
0.5052201595850959
 50
5.324206992816312
 51
40.3563757008241879
  0
ARC
  5
6A39
  8
0
 10
25.3447913448601803
 20
8.149241757940846
 30
0.0
 40
0.9848265662968968
 50
330.4406384136033807
 51
351.7736558165743759
  0
ARC
  5
6A3A
  8
0
 10
27.1897562605911212
 20
7.5665710856465473
 30
0.0
 40
0.0393715937169877
 50
312.7976809963004143
 51
17.8330882711689185
  0
ARC
  5
6A3B
  8
0
 10
26.5462644702441715
 20
8.2079667397442542
 30
0.0
 40
0.947895137885075
 50
278.5401176633754972
 51
314.9981389247041079
  0
ARC
  5
6A3C
  8
0
 10
26.6041169181479695
 20
8.1695128573937392
 30
0.0
 40
0.9027466462812931
 50
258.139168805210204
 51
275.2696928785518935
  0
ARC
  5
6A3D
  8
0
 10
26.6041169181483497
 20
8.1695128574001732
 30
0.0
 40
0.9027466462876658
 50
240.8256820845460027
 51
240.8258113207880058
  0
ARC
  5
6A3E
  8
0
 10
26.1842995912592293
 20
7.4150554710088086
 30
0.0
 40
0.0393703053609601
 50
287.5301028061073794
 51
288.0299647974517825
  0
ARC
  5
6A3F
  8
0
 10
26.1842995912592293
 20
7.4150554710088086
 30
0.0
 40
0.0393703053609601
 50
173.1623886427310026
 51
242.7546283272870085
  0
LINE
  5
6A40
  8
0
 10
26.2014378595981192
 20
7.6634021604690448
 30
0.0
 11
26.1452093044853093
 21
7.4197427329118826
 31
0.0
  0
ARC
  5
6A41
  8
0
 10
26.384258496328961
 20
9.8961379890096666
 30
0.0
 40
2.5255097382132701
 50
265.0485048870193054
 51
276.2071997592482262
  0
ARC
  5
6A42
  8
0
 10
26.4428159438213299
 20
9.2763025889668516
 30
0.0
 40
1.9029970832759311
 50
276.4723064925619838
 51
293.9891636679327007
  0
ARC
  5
6A43
  8
0
 10
26.6611413227524885
 20
8.3225444804831703
 30
0.0
 40
1.064510137163637
 50
242.2977829392704052
 51
256.8282594125943774
  0
LINE
  5
6A44
  8
0
 62
     4
 10
17.9031473532159602
 20
10.9287685970686006
 30
0.0
 11
24.6329820359843588
 21
20.0952817181593808
 31
0.0
  0
LINE
  5
6A45
  8
0
 62
     4
 10
17.9031473532159602
 20
-0.0000000300842942
 30
0.0
 11
22.3963351323106608
 21
4.993614497796286
 31
0.0
  0
ENDBLK
  5
6A49
  8
0
  0
ENDSEC
  0
SECTION
  2
ENTITIES
  0
ATTDEF
  5
3930
  8
DEFPOINTS
 10
4111.56023299312983
 20
68.361706196532765
 30
0.0
 40
0.001
  1
K-97822T-B9
  3

  2
MODELNUMBER
 70
     0
1001
ACDBATTR
1070
     0
1070
     1
  0
ATTDEF
  5
3931
  8
DEFPOINTS
 10
4111.56023299312983
 20
68.3600395298660999
 30
0.0
 40
0.001
  1
ALEO
  3

  2
TRADENAME
 70
     0
1001
ACDBATTR
1070
     0
1070
     1
  0
ATTDEF
  5
3932
  8
DEFPOINTS
 10
4111.56023299312983
 20
68.3583728631994347
 30
0.0
 40
0.001
  1
SHOWER COLUMN
  3

  2
PRODUCT
 70
     0
1001
ACDBATTR
1070
     0
1070
     1
  0
LINE
  5
9A84
  8
0
 10
4107.4519723271641851
 20
83.3090252867405212
 30
0.0
 11
4108.7117849255637339
 21
83.3090252867405212
 31
0.0
  0
ARC
  5
9A85
  8
0
 10
4107.4519723271641851
 20
83.3287252867405215
 30
0.0
 40
0.0197
 50
180.0
 51
270.0
  0
LINE
  5
9A86
  8
0
 10
4107.4322723271634459
 20
84.529482767040534
 30
0.0
 11
4107.4322723271634459
 21
83.3287252867405215
 31
0.0
  0
LINE
  5
9A87
  8
0
 10
4108.7314849255626541
 20
83.4960433969405074
 30
0.0
 11
4108.7314849255626541
 21
83.3287252867405215
 31
0.0
  0
LINE
  5
9A88
  8
0
 10
4107.4519723271641851
 20
85.1003638694753732
 30
0.0
 11
4108.7117849255637339
 21
85.1003638694753732
 31
0.0
  0
LINE
  5
9A89
  8
0
 10
4107.4519723271641851
 20
84.6669662923434458
 30
0.0
 11
4108.7117849255637339
 21
84.6669662923434458
 31
0.0
  0
LINE
  5
9A8A
  8
0
 10
4107.4519723271641851
 20
84.5491827670405343
 30
0.0
 11
4108.7117849255637339
 21
84.5491827670405343
 31
0.0
  0
LINE
  5
9A8B
  8
0
 10
4107.5306975240628162
 20
84.6669662923434458
 30
0.0
 11
4107.5306975240628162
 21
84.5491827670405343
 31
0.0
  0
LINE
  5
9A8C
  8
0
 10
4108.6330597287633282
 20
84.5491827670405343
 30
0.0
 11
4108.6330597287633282
 21
84.6669662923434458
 31
0.0
  0
ARC
  5
9A8D
  8
0
 10
4107.4519723271641851
 20
84.529482767040534
 30
0.0
 40
0.0197
 50
90.0000000000521254
 51
180.0000000000098055
  0
ARC
  5
9A8E
  8
0
 10
4108.7117849255637339
 20
84.529482767040534
 30
0.0
 40
0.0197
 50
0.0000000000097707
 51
90.0
  0
LINE
  5
9A8F
  8
0
 10
4107.4322723271634459
 20
84.6866662923433893
 30
0.0
 11
4107.4322723271634459
 21
85.0806638694405279
 31
0.0
  0
LINE
  5
9A90
  8
0
 10
4108.7314849255626541
 20
85.0806638694405279
 30
0.0
 11
4108.7314849255626541
 21
84.6866662923433893
 31
0.0
  0
ARC
  5
9A91
  8
0
 10
4107.4519723271641851
 20
84.6866662923433893
 30
0.0
 40
0.0197
 50
180.0000000000098055
 51
269.9999999999478746
  0
ARC
  5
9A92
  8
0
 10
4107.4519723272223928
 20
85.0806638694159147
 30
0.0
 40
0.0197000000594514
 50
90.0000001729537473
 51
179.9999999283973011
  0
ARC
  5
9A93
  8
0
 10
4108.7117849255037072
 20
85.0806638694159147
 30
0.0
 40
0.0197000000594514
 50
0.0000000716385083
 51
89.9999998270983355
  0
ARC
  5
9A94
  8
0
 10
4108.7117849255637339
 20
84.6866662923433893
 30
0.0
 40
0.0197
 50
269.9999999999478746
 51
359.9999999999902229
  0
ARC
  5
9A95
  8
0
 10
4108.7117849255637339
 20
83.3287252867405641
 30
0.0
 40
0.0197
 50
270.0000000000521254
 51
359.9999999999674856
  0
LINE
  5
9A96
  8
0
 10
4111.5641518013226232
 20
82.6889465465404925
 30
0.0
 11
4111.5641518013226232
 21
85.1692615071405186
 31
0.0
  0
LINE
  5
9A97
  8
0
 10
4111.1704510139215927
 20
82.7184468548393426
 30
0.0
 11
4111.1704510139215927
 21
85.1397611988416685
 31
0.0
  0
LINE
  5
9A98
  8
0
 10
4111.1896353280408221
 20
82.698753605537334
 30
0.0
 11
4111.5641518013226232
 21
82.6889465465404925
 31
0.0
  0
LINE
  5
9A99
  8
0
 10
4111.1896353280408221
 20
85.159454448143677
 30
0.0
 11
4111.5641518013226232
 21
85.1692615071405186
 31
0.0
  0
LINE
  5
9A9A
  8
0
 10
4109.2610050925341056
 20
83.436989556295444
 30
0.0
 11
4109.812185131933802
 21
83.4370356097738437
 31
0.0
  0
LINE
  5
9A9B
  8
0
 10
4109.2610050925341056
 20
84.4212300111405085
 30
0.0
 11
4111.1704510139215927
 21
84.4212300111405085
 31
0.0
  0
LINE
  5
9A9C
  8
0
 10
4109.2610050925341056
 20
84.4212875782738621
 30
0.0
 11
4109.2610050925341056
 21
84.4212300111405085
 31
0.0
  0
LINE
  5
9A9D
  8
0
 10
4109.2610050925341056
 20
84.4212300111405085
 30
0.0
 11
4109.2610050925341056
 21
83.436989556295444
 31
0.0
  0
LINE
  5
9A9E
  8
0
 10
4109.2610050925341056
 20
83.6141433969405199
 30
0.0
 11
4108.8495849255641588
 21
83.6141433969405199
 31
0.0
  0
ARC
  5
9A9F
  8
0
 10
4108.8495849255641588
 20
83.4960433969405074
 30
0.0
 40
0.1181
 50
90.0
 51
180.0
  0
LINE
  5
9AA0
  8
0
 10
4109.2610050925341056
 20
84.244064656740548
 30
0.0
 11
4108.8495849255641588
 21
84.244064656740548
 31
0.0
  0
ARC
  5
9AA1
  8
0
 10
4108.8495849255641588
 20
84.3621646567405463
 30
0.0
 40
0.1181
 50
180.0
 51
270.0
  0
ARC
  5
9AA2
  8
0
 10
4111.1901510139232414
 20
82.7184468548393426
 30
0.0
 40
0.0197
 50
180.0000000000098055
 51
268.499999999801787
  0
ARC
  5
9AA3
  8
0
 10
4111.1901510139232414
 20
85.1397611988416685
 30
0.0
 40
0.0197
 50
91.500000000198213
 51
180.0
  0
LINE
  5
9AA4
  8
0
 10
4108.7314849255626541
 20
84.3621646567405463
 30
0.0
 11
4108.7314849255626541
 21
84.529482767040534
 31
0.0
  0
ARC
  5
9AA5
  8
0
 10
4109.4277295006595523
 20
83.9457210921473944
 30
0.0
 40
0.7889112489321983
 50
181.2069267946189086
 51
210.0515911074406858
  0
ARC
  5
9AA6
  8
0
 10
4109.4361056426596406
 20
83.910300705150064
 30
0.0
 40
0.7973341142382361
 50
150.1104367894133134
 51
178.6486833560657885
  0
LINE
  5
9AA7
  8
0
 10
4107.8558248155131878
 20
85.1003638694753732
 30
0.0
 11
4107.855825586913852
 21
84.6669662924782642
 31
0.0
  0
LINE
  5
9AA8
  8
0
 10
4108.3079325341122967
 20
84.6669662926340152
 30
0.0
 11
4108.3079315689137729
 21
85.1003638694405282
 31
0.0
  0
LINE
  5
9AA9
  8
0
 10
4107.6881702788359689
 20
99.0773698402786778
 30
0.0
 11
4107.6881648200078416
 21
85.1003638694753732
 31
0.0
  0
LINE
  5
9AAA
  8
0
 10
4107.5897535858093761
 20
83.3090252867405212
 30
0.0
 11
4107.5897513830559546
 21
77.6101992450418692
 31
0.0
  0
LINE
  5
9AAB
  8
0
 10
4108.4755720216344343
 20
85.1003638694753732
 30
0.0
 11
4108.4755720216344343
 21
99.0767465466753663
 31
0.0
  0
LINE
  5
9AAC
  8
0
 10
4109.9696675914337902
 20
83.4370356097738437
 30
0.0
 11
4111.1704510139215927
 21
83.4369692417900097
 31
0.0
  0
LINE
  5
9AAD
  8
0
 10
4108.5740079306251573
 20
72.7899394289027981
 30
0.0
 11
4108.5717990897328491
 21
53.8698461739753682
 31
0.0
  0
ARC
  5
9AAE
  8
0
 10
4108.0810645170940916
 20
74.9192665444090125
 30
0.0
 40
0.7844070245923653
 50
139.8097995881057045
 51
270.9674064398603264
  0
ARC
  5
9AAF
  8
0
 10
4059.6923687886601329
 20
56.7001810181623469
 30
0.0
 40
51.3803728554873231
 50
20.2027609876289809
 51
21.3544156557251803
  0
ARC
  5
9AB0
  8
0
 10
4107.5079420097954426
 20
75.3950693997301613
 30
0.0
 40
0.0400583628921653
 50
21.2998538697953599
 51
130.6416442085640881
  0
LINE
  5
9AB1
  8
0
 10
4107.5897425949597164
 20
53.7994705543030705
 30
0.0
 11
4107.5897452499848441
 21
74.2340575263065858
 31
0.0
  0
LINE
  5
9AB2
  8
0
 10
4108.5739972184837825
 20
83.3090252867405212
 30
0.0
 11
4108.5739972184837825
 21
75.6078073242025397
 31
0.0
  0
ARC
  5
9AB3
  8
0
 10
4108.1152118316231281
 20
74.9066657527858837
 30
0.0
 40
0.75573199251876
 50
307.5677424153381025
 51
82.133796087878963
  0
ARC
  5
9AB4
  8
0
 10
4153.7627267862762892
 20
91.6554922597974269
 30
0.0
 40
48.3265486816133389
 50
199.4012582169642087
 51
200.5823799368995992
  0
ARC
  5
9AB5
  8
0
 10
4108.2182945566910348
 20
75.6152297212721152
 30
0.0
 40
0.0400583628921653
 50
89.5037380898971264
 51
198.8455283388836961
  0
LINE
  5
9AB6
  8
0
 10
4108.2197685569908572
 20
75.8354184467226418
 30
0.0
 11
4107.3165095356589518
 21
75.5066590649515064
 31
0.0
  0
LINE
  5
9AB7
  8
0
 10
4107.3665856817879103
 20
75.5248852907112251
 30
0.0
 11
4107.4425485218589529
 21
75.3748888705307962
 31
0.0
  0
LINE
  5
9AB8
  8
0
 10
4108.2164173141818537
 20
75.8341986941511408
 30
0.0
 11
4108.2764894373922289
 21
75.6449884318315782
 31
0.0
  0
ARC
  5
9AB9
  8
0
 10
4090.1490044414881595
 20
69.7065922256337132
 30
0.0
 40
18.1086442776892689
 50
18.7054132130725499
 51
28.6897770615035306
  0
ARC
  5
9ABA
  8
0
 10
4107.312439496126899
 20
75.5178414072018285
 30
0.0
 40
0.0119
 50
198.4295732998066057
 51
289.9999991135759956
  0
ARC
  5
9ABB
  8
0
 10
4089.1668764922069386
 20
69.8631893924366949
 30
0.0
 40
19.9783425358640905
 50
17.4378308974889293
 51
27.613763848449409
  0
ARC
  5
9ABC
  8
0
 10
4108.2156985174588044
 20
75.8466007889729639
 30
0.0
 40
0.0119
 50
289.9999991135474033
 51
17.1763383142223809
  0
LINE
  5
9ABD
  8
0
 10
4102.856514125756803
 20
83.5164064632256071
 30
0.0
 11
4103.295280149656719
 21
83.8095470743256072
 31
0.0
  0
ARC
  5
9ABE
  8
0
 10
4103.3183391622342242
 20
83.7576052908965778
 30
0.0
 40
0.0568301586035224
 50
60.6546283372230874
 51
113.9383283783610068
  0
ARC
  5
9ABF
  8
0
 10
4093.5912100955879396
 20
72.6369979586780943
 30
0.0
 40
14.8300969892035894
 50
26.0563148128927686
 51
48.8690190985006723
  0
ARC
  5
9AC0
  8
0
 10
4351.5983302564000041
 20
255.6398474140785027
 30
0.0
 40
302.5379427144309261
 50
214.7422039311562116
 51
214.9367369258085034
  0
ARC
  5
9AC1
  8
0
 10
4013.300702961152183
 20
18.4677789517185786
 30
0.0
 40
110.6172362968347045
 50
33.4763426323027105
 51
35.2975636034741029
  0
ARC
  5
9AC2
  8
0
 10
4096.3196952224707275
 20
73.2835055577367456
 30
0.0
 40
11.1342321553867993
 50
30.6654061727037792
 51
33.8371689426359623
  0
ARC
  5
9AC3
  8
0
 10
4104.915167450341869
 20
78.4240718644461339
 30
0.0
 40
1.1195759983635289
 50
358.7656667333762925
 51
28.7296955311890407
  0
ARC
  5
9AC4
  8
0
 10
4102.879031151930576
 20
83.4841811578690454
 30
0.0
 40
0.0393126795453947
 50
124.9434400634811055
 51
202.2297986630215973
  0
ARC
  5
9AC5
  8
0
 10
4060.1905066921472098
 20
53.7444580050418281
 30
0.0
 40
51.9764143409557633
 50
34.5586087467333769
 51
34.8137916910252585
  0
ARC
  5
9AC6
  8
0
 10
4245.5751210718335642
 20
142.6150142355095909
 30
0.0
 40
154.5017008375220939
 50
202.5082147341074972
 51
202.5286616775590005
  0
ARC
  5
9AC7
  8
0
 10
4122.3135294351586708
 20
91.5848562222768834
 30
0.0
 40
21.0946691667092487
 50
202.7763355589187029
 51
203.7853578547164091
  0
ARC
  5
9AC8
  8
0
 10
4107.3741512357164538
 20
84.4256903081636949
 30
0.0
 40
4.521975762304101
 50
206.8982859944574955
 51
209.6561557798814874
  0
ARC
  5
9AC9
  8
0
 10
4059.0352200495040051
 20
57.3260570497775817
 30
0.0
 40
50.8892134836439709
 50
28.8893214587038791
 51
29.0994030778555413
  0
ARC
  5
9ACA
  8
0
 10
4112.6545526956660979
 20
86.9377511727780501
 30
0.0
 40
10.3825388766886704
 50
209.7326659398034963
 51
210.518268619195311
  0
LINE
  5
9ACB
  8
0
 10
4103.7726215311640772
 20
81.5641689540867958
 30
0.0
 11
4103.8347140599225895
 21
81.4165531686256116
 31
0.0
  0
ARC
  5
9ACC
  8
0
 10
4109.275917936208316
 20
84.6884639630246454
 30
0.0
 40
6.3243109204923744
 50
211.1235586742810995
 51
214.8551713389173869
  0
ARC
  5
9ACD
  8
0
 10
4166.4275396374796401
 20
122.9258463603352993
 30
0.0
 40
75.0865755997285476
 50
213.9187644350089101
 51
213.9779650953616965
  0
ARC
  5
9ACE
  8
0
 10
10384.2435632321194134
 20
4557.6715927658406144
 30
0.0
 40
7712.3532710348108594
 50
215.4836197233339874
 51
215.484785148386095
  0
ARC
  5
9ACF
  8
0
 10
4115.662924801195004
 20
88.9946821055726645
 30
0.0
 40
14.0112557126564692
 50
216.4951063364480888
 51
217.609295557754308
  0
ARC
  5
9AD0
  8
0
 10
4119.1127896218504247
 20
91.6719594083500482
 30
0.0
 40
18.3782548814968116
 50
218.1355130866024012
 51
218.4535789988451029
  0
ARC
  5
9AD1
  8
0
 10
4093.3437218454728281
 20
70.8579737540713239
 30
0.0
 40
14.74680744920901
 50
38.8315558178063611
 51
39.0200638414959187
  0
ARC
  5
9AD2
  8
0
 10
4045.1794052860991542
 20
30.5790131862464882
 30
0.0
 40
77.5299979448264764
 50
38.926394764898177
 51
39.598288820485898
  0
ARC
  5
9AD3
  8
0
 10
4104.5840657394683149
 20
78.2722833441542178
 30
0.0
 40
1.3673631974450109
 50
24.7269953847942112
 51
48.272892821996102
  0
ARC
  5
9AD4
  8
0
 10
4096.158376862888872
 20
72.4969406406164438
 30
0.0
 40
11.5651332920293708
 50
31.5813495085054505
 51
33.286853550441748
  0
ARC
  5
9AD5
  8
0
 10
4106.0208176591322626
 20
78.5598099790726536
 30
0.0
 40
0.0118323435254232
 50
211.0854174344260059
 51
305.1155654164688258
  0
ARC
  5
9AD6
  8
0
 10
4104.5467475527011629
 20
80.5152875732825777
 30
0.0
 40
0.0212403456230125
 50
126.080262787361093
 51
208.4612487505550007
  0
ARC
  5
9AD7
  8
0
 10
4104.7017556526388944
 20
80.5856335950859233
 30
0.0
 40
0.1914167430581637
 50
204.8587923457278919
 51
231.5992489823437097
  0
ARC
  5
9AD8
  8
0
 10
4104.600494007708221
 20
80.4550429733700838
 30
0.0
 40
0.0262344180682851
 50
227.7521994990246981
 51
305.6220191917212787
  0
ARC
  5
9AD9
  8
0
 10
4108.153668488895164
 20
75.3161801547002341
 30
0.0
 40
6.2214056360445751
 50
124.2849250900864035
 51
124.6571732209693977
  0
ARC
  5
9ADA
  8
0
 10
4104.5059669419879356
 20
80.4296077061251111
 30
0.0
 40
0.0704995538360558
 50
18.88872315754395
 51
58.1484954492916017
  0
ARC
  5
9ADB
  8
0
 10
4104.6038317297461617
 20
80.5075047840507949
 30
0.0
 40
0.0632788743411514
 50
196.5389770096890061
 51
240.4982415971703062
  0
LINE
  5
9ADC
  8
0
 10
4102.9624260177097312
 20
83.0335788944067161
 30
0.0
 11
4103.0021803667232234
 21
83.0616350434255963
 31
0.0
  0
LINE
  5
9ADD
  8
0
 10
4103.0172802403885726
 20
82.9523020655999943
 30
0.0
 11
4103.0586190989233728
 21
82.9813255226255535
 31
0.0
  0
LINE
  5
9ADE
  8
0
 10
4103.0769508619860062
 20
82.8379258472256055
 30
0.0
 11
4103.1052355874226123
 21
82.8576744243255661
 31
0.0
  0
LINE
  5
9ADF
  8
0
 10
4103.1246254776569913
 20
82.793539984781205
 30
0.0
 11
4103.1637845100231061
 21
82.820900466025634
 31
0.0
  0
LINE
  5
9AE0
  8
0
 10
4103.1854145955230706
 20
82.679946548825626
 30
0.0
 11
4103.2141966919216429
 21
82.700043311025567
 31
0.0
  0
LINE
  5
9AE1
  8
0
 10
4103.1522484353117761
 20
82.6271070034030544
 30
0.0
 11
4103.1909559724217615
 21
82.6542186031255568
 31
0.0
  0
LINE
  5
9AE2
  8
0
 10
4103.2136785685415816
 20
82.5140283060809736
 30
0.0
 11
4103.2425276407220736
 21
82.5341708763256037
 31
0.0
  0
LINE
  5
9AE3
  8
0
 10
4103.2539176595073513
 20
82.4748648912360949
 30
0.0
 11
4103.2881351337764499
 21
82.498778339845046
 31
0.0
  0
LINE
  5
9AE4
  8
0
 10
4103.3165041737820502
 20
82.3625267410831583
 30
0.0
 11
4103.3450927402900561
 21
82.3824883138167365
 31
0.0
  0
LINE
  5
9AE5
  8
0
 10
4103.342704093300199
 20
82.2426626990998528
 30
0.0
 11
4103.381123949371613
 21
82.2695331824256044
 31
0.0
  0
LINE
  5
9AE6
  8
0
 10
4103.4065727734250686
 20
82.1312032060603485
 30
0.0
 11
4103.4362825836233242
 21
82.1519476874255901
 31
0.0
  0
LINE
  5
9AE7
  8
0
 10
4103.5710990194556871
 20
81.8973639341847246
 30
0.0
 11
4103.6059109997913765
 21
81.9216727443830877
 31
0.0
  0
LINE
  5
9AE8
  8
0
 10
4103.6376608264217793
 20
81.7877849473256049
 30
0.0
 11
4103.6685122155040517
 21
81.8093265047121747
 31
0.0
  0
LINE
  5
9AE9
  8
0
 10
4103.7176061208938336
 20
81.6753761635266642
 30
0.0
 11
4103.746781667688083
 21
81.6958354215735625
 31
0.0
  0
ARC
  5
9AEA
  8
0
 10
4103.3533801224866693
 20
82.2274273226314847
 30
0.0
 40
0.0186036097391725
 50
125.0204444186758934
 51
202.0926452158190045
  0
ARC
  5
9AEB
  8
0
 10
4103.3959360500557523
 20
82.1465804146667296
 30
0.0
 40
0.0186975514049215
 50
207.1722362207067079
 51
304.672386393729596
  0
LINE
  5
9AEC
  8
0
 10
4103.3361424471231658
 20
82.2204304059255691
 30
0.0
 11
4103.3793020022230849
 21
82.1380418620255739
 31
0.0
  0
ARC
  5
9AED
  8
0
 10
4103.367637249109066
 20
82.2861618215610946
 30
0.0
 40
0.0214103415086008
 50
309.0438688720868754
 51
7.3979793214769511
  0
ARC
  5
9AEE
  8
0
 10
4103.2657079622167657
 20
82.4585521273214965
 30
0.0
 40
0.020127531009628
 50
125.8581041111720964
 51
203.8695870952963958
  0
ARC
  5
9AEF
  8
0
 10
4103.6840956215428378
 20
82.6197483774963501
 30
0.0
 40
0.4684709909249627
 50
201.1908648540627951
 51
212.1972028059539923
  0
ARC
  5
9AF0
  8
0
 10
4103.305815448514295
 20
82.3804751037233558
 30
0.0
 40
0.0208900112325522
 50
209.682043744060195
 51
300.7749185798742246
  0
ARC
  5
9AF1
  8
0
 10
4103.1260788517920446
 20
82.3354621491937309
 30
0.0
 40
0.1626806958014118
 50
18.388559956331779
 51
35.2869339249212572
  0
ARC
  5
9AF2
  8
0
 10
4103.4204743387817871
 20
82.4844155305472952
 30
0.0
 40
0.1706998444106704
 50
198.7881851168664014
 51
214.8873087644103919
  0
LINE
  5
9AF3
  8
0
 10
4102.9556036960229903
 20
83.0115398105256048
 30
0.0
 11
4102.9936457908715965
 21
82.9267945818256038
 31
0.0
  0
LINE
  5
9AF4
  8
0
 10
4103.0099144937230449
 20
82.9309800656256471
 30
0.0
 11
4103.0413429836007708
 21
82.8585711289158837
 31
0.0
  0
ARC
  5
9AF5
  8
0
 10
4103.0661998158720962
 20
82.8536089465921748
 30
0.0
 40
0.0190150086396406
 50
217.0980620338098959
 51
304.4343369516324742
  0
ARC
  5
9AF6
  8
0
 10
4103.1164852084621089
 20
82.8918121084735162
 30
0.0
 40
0.0821663962878635
 50
203.8633609033836933
 51
217.1955559875293034
  0
ARC
  5
9AF7
  8
0
 10
4103.0286930237252818
 20
82.9364262272810464
 30
0.0
 40
0.0195523365820001
 50
125.7115088325657979
 51
196.1732508846039877
  0
ARC
  5
9AF8
  8
0
 10
4102.9724266268285646
 20
83.0184076640582873
 30
0.0
 40
0.0181708121184292
 50
123.3921708023906945
 51
202.207423064833705
  0
ARC
  5
9AF9
  8
0
 10
4103.010839791080798
 20
82.9345567792934588
 30
0.0
 40
0.0188649238713971
 50
204.2967023701392009
 51
286.5429500592833278
  0
ARC
  5
9AFA
  8
0
 10
4102.9909079720064256
 20
83.0777736203121862
 30
0.0
 40
0.0196855415614102
 50
304.9333418323607248
 51
23.8795309032803011
  0
ARC
  5
9AFB
  8
0
 10
4104.7595745434227865
 20
79.0707045887005933
 30
0.0
 40
0.7902264244969289
 50
19.4162178075550287
 51
61.7188584929375494
  0
ARC
  5
9AFC
  8
0
 10
4106.7820272457356623
 20
80.8021695410825913
 30
0.0
 40
1.946393239914457
 50
212.1436071424905094
 51
228.9914691579963915
  0
ARC
  5
9AFD
  8
0
 10
4100.8572949178897034
 20
82.0192160840993836
 30
0.0
 40
2.4014411194897098
 50
23.6035894617566697
 51
26.3670106155095496
  0
ARC
  5
9AFE
  8
0
 10
4102.3923121067791726
 20
82.6027481225631846
 30
0.0
 40
0.7824507146687624
 50
18.4511121320418887
 51
30.8730091789062691
  0
ARC
  5
9AFF
  8
0
 10
4102.8055189372644236
 20
82.5801674263666854
 30
0.0
 40
0.4515263919986819
 50
14.3868552283034692
 51
35.9853053208285729
  0
ARC
  5
9B00
  8
0
 10
4103.4398164850990725
 20
82.8744278149718241
 30
0.0
 40
0.3392949167593449
 50
198.6496864308276997
 51
214.1658573078715904
  0
ARC
  5
9B01
  8
0
 10
4103.1386727346471162
 20
82.7758189547534329
 30
0.0
 40
0.0226132778299696
 50
128.4034583576205932
 51
205.9386410262121956
  0
ARC
  5
9B02
  8
0
 10
4103.1744531597159948
 20
82.6966769663051622
 30
0.0
 40
0.020001498543368
 50
219.7656035440942048
 51
303.2320172966008158
  0
ARC
  5
9B03
  8
0
 10
4103.0312933970199083
 20
82.6744716040549719
 30
0.0
 40
0.1221363669134746
 50
14.2611422563768908
 51
36.8031459656612512
  0
ARC
  5
9B04
  8
0
 10
4103.2523655230688746
 20
82.7800698825384842
 30
0.0
 40
0.1274720521479775
 50
194.7387103963974084
 51
216.3255778256136921
  0
ARC
  5
9B05
  8
0
 10
4213.1800846542182626
 20
134.5148646885961057
 30
0.0
 40
121.5892564988205038
 50
205.1401488846964867
 51
205.1703842888755958
  0
ARC
  5
9B06
  8
0
 10
4103.1163399508450311
 20
82.8417715620243342
 30
0.0
 40
0.0193960799230119
 50
97.0596989765904539
 51
124.9251309003571038
  0
ARC
  5
9B07
  8
0
 10
4103.1164777100693755
 20
82.8406591862821244
 30
0.0
 40
0.0205169534198152
 50
28.313089419072579
 51
97.0596989765904539
  0
ARC
  5
9B08
  8
0
 10
4103.0447837537258238
 20
82.9965796629336836
 30
0.0
 40
0.0205938236679339
 50
312.2076988448116026
 51
21.8748470352702284
  0
ARC
  5
9B09
  8
0
 10
4103.1502676491945749
 20
82.838114236456974
 30
0.0
 40
0.0218865122641999
 50
308.1402555101091139
 51
19.6505382884291109
  0
ARC
  5
9B0A
  8
0
 10
4103.2251659911053139
 20
82.6836024648403338
 30
0.0
 40
0.0197642846530342
 50
26.2925186945846505
 51
123.711137159081801
  0
LINE
  5
9B0B
  8
0
 10
4103.2753891298671078
 20
82.5632783219957531
 30
0.0
 11
4103.3128698251366586
 21
82.592896276548899
 31
0.0
  0
LINE
  5
9B0C
  8
0
 10
4103.3427589903658372
 20
82.4534598925786639
 30
0.0
 11
4103.3703082850961437
 21
82.4752159327515955
 31
0.0
  0
ARC
  5
9B0D
  8
0
 10
4102.9693950055961977
 20
82.3314930146157593
 30
0.0
 40
0.4515263919986819
 50
17.7612488665470885
 51
39.3596989590783721
  0
ARC
  5
9B0E
  8
0
 10
4103.5852725925769846
 20
82.662578129575536
 30
0.0
 40
0.3392949167593449
 50
202.0240800690729088
 51
217.5402509461326872
  0
ARC
  5
9B0F
  8
0
 10
4103.2904550962530266
 20
82.5464148410059551
 30
0.0
 40
0.0226132778299696
 50
131.777851995841587
 51
209.313034664471104
  0
ARC
  5
9B10
  8
0
 10
4103.3308318027611676
 20
82.4695161106838412
 30
0.0
 40
0.020001498543368
 50
223.1399971823863098
 51
306.6064109348582178
  0
ARC
  5
9B11
  8
0
 10
4103.1892272586428589
 20
82.4389228295077885
 30
0.0
 40
0.1221363669134746
 50
17.6355358946404088
 51
40.1775396039194135
  0
ARC
  5
9B12
  8
0
 10
4103.4037005572627095
 20
82.5573503833718263
 30
0.0
 40
0.1274720521479775
 50
198.1131040346581074
 51
219.6999714638704972
  0
ARC
  5
9B13
  8
0
 10
4103.2983631927518218
 20
82.6092845966571048
 30
0.0
 40
0.0218865122641999
 50
311.5146491483355931
 51
23.024931926683589
  0
ARC
  5
9B14
  8
0
 10
4103.3822262782050529
 20
82.4594492467317934
 30
0.0
 40
0.0197642846530342
 50
29.6669123328643316
 51
127.0855307973342008
  0
LINE
  5
9B15
  8
0
 10
4103.4700774574166644
 20
82.2767107801457627
 30
0.0
 11
4103.5075581526880342
 21
82.3063287346989085
 31
0.0
  0
LINE
  5
9B16
  8
0
 10
4103.538410048950027
 20
82.1697715733073863
 30
0.0
 11
4103.5649966126447907
 21
82.188648390901605
 31
0.0
  0
ARC
  5
9B17
  8
0
 10
4103.3191203305113959
 20
82.1283387586940847
 30
0.0
 40
0.2842427424677305
 50
11.4635963646015497
 51
45.7071320277029471
  0
ARC
  5
9B18
  8
0
 10
4103.6859056155153667
 20
82.323656249451048
 30
0.0
 40
0.2316817598125628
 50
198.7671504721047882
 51
220.6789058507677908
  0
ARC
  5
9B19
  8
0
 10
4103.4904041183699519
 20
82.2600833556864757
 30
0.0
 40
0.026261081272843
 50
140.7164693949613934
 51
204.6778893412318041
  0
ARC
  5
9B1A
  8
0
 10
4103.5258779641062574
 20
82.1866447766309847
 30
0.0
 40
0.0210180432237131
 50
221.7778739578440934
 51
306.6020531681160719
  0
ARC
  5
9B1B
  8
0
 10
4103.4281644251741454
 20
82.1801455239785668
 30
0.0
 40
0.0742347657270434
 50
9.8904680727874386
 51
47.2850525532258672
  0
ARC
  5
9B1C
  8
0
 10
4103.5539356588187729
 20
82.2486833763544354
 30
0.0
 40
0.0767015114954066
 50
190.5129419016303984
 51
226.6625787244051935
  0
ARC
  5
9B1D
  8
0
 10
4103.4724153061160905
 20
82.3349250604059648
 30
0.0
 40
0.0453074994792091
 50
320.8641705386024796
 51
356.0372243598869204
  0
ARC
  5
9B1E
  8
0
 10
4103.5787684746183004
 20
82.1646760607425648
 30
0.0
 40
0.0276466416672484
 50
46.8032354574599978
 51
119.8769331998257996
  0
LINE
  5
9B1F
  8
0
 10
4103.6932957347926276
 20
81.9493505526313442
 30
0.0
 11
4103.7307764300630879
 21
81.9789685071844758
 31
0.0
  0
LINE
  5
9B20
  8
0
 10
4103.7616283263268997
 20
81.8424113457929678
 30
0.0
 11
4103.788214890020754
 21
81.8612881633871865
 31
0.0
  0
ARC
  5
9B21
  8
0
 10
4103.5423386078873591
 20
81.8009785311796662
 30
0.0
 40
0.2842427424677305
 50
11.4635963646015497
 51
45.7071320277029471
  0
ARC
  5
9B22
  8
0
 10
4103.9091238928913299
 20
81.9962960219366295
 30
0.0
 40
0.2316817598125628
 50
198.7671504721047882
 51
220.6789058507677908
  0
ARC
  5
9B23
  8
0
 10
4103.7136223957459151
 20
81.9327231281720714
 30
0.0
 40
0.026261081272843
 50
140.7164693949613934
 51
204.6778893412318041
  0
ARC
  5
9B24
  8
0
 10
4103.7490962414813112
 20
81.8592845491165662
 30
0.0
 40
0.0210180432237131
 50
221.7778739578440934
 51
306.6020531681160719
  0
ARC
  5
9B25
  8
0
 10
4103.6513827025501087
 20
81.8527852964642051
 30
0.0
 40
0.0742347657270434
 50
9.8904680727874386
 51
47.2850525532258672
  0
ARC
  5
9B26
  8
0
 10
4103.7771539361947362
 20
81.9213231488400169
 30
0.0
 40
0.0767015114954066
 50
190.5129419016303984
 51
226.6625787244051935
  0
ARC
  5
9B27
  8
0
 10
4103.6956335834920537
 20
82.0075648328915889
 30
0.0
 40
0.0453074994792091
 50
320.8641705386024796
 51
356.0372243598869204
  0
ARC
  5
9B28
  8
0
 10
4103.8019867519951731
 20
81.8373158332281463
 30
0.0
 40
0.0276466416672484
 50
46.8032354574599978
 51
119.8769331998257996
  0
LINE
  5
9B29
  8
0
 10
4103.9371025829932478
 20
81.591432468231389
 30
0.0
 11
4103.9745832782627986
 21
81.6210504227844638
 31
0.0
  0
LINE
  5
9B2A
  8
0
 10
4104.0054351745266104
 20
81.4844932613929558
 30
0.0
 11
4104.0320217382222836
 21
81.5033700789871745
 31
0.0
  0
ARC
  5
9B2B
  8
0
 10
4103.7861454560861603
 20
81.4430604467796542
 30
0.0
 40
0.2842427424677305
 50
11.4635963646015497
 51
45.7071320277029471
  0
ARC
  5
9B2C
  8
0
 10
4104.15293074109195
 20
81.6383779375366174
 30
0.0
 40
0.2316817598125628
 50
198.7671504721047882
 51
220.6789058507677908
  0
ARC
  5
9B2D
  8
0
 10
4103.9574292439447163
 20
81.5748050437720593
 30
0.0
 40
0.026261081272843
 50
140.7164693949613934
 51
204.6778893412318041
  0
ARC
  5
9B2E
  8
0
 10
4103.9929030896819313
 20
81.5013664647165541
 30
0.0
 40
0.0210180432237131
 50
221.7778739578440934
 51
306.6020531681160719
  0
ARC
  5
9B2F
  8
0
 10
4103.8951895507507288
 20
81.494867212064193
 30
0.0
 40
0.0742347657270434
 50
9.8904680727874386
 51
47.2850525532258672
  0
ARC
  5
9B30
  8
0
 10
4104.0209607843953563
 20
81.5634050644400048
 30
0.0
 40
0.0767015114954066
 50
190.5129419016303984
 51
226.6625787244051935
  0
ARC
  5
9B31
  8
0
 10
4103.9394404316908549
 20
81.6496467484915769
 30
0.0
 40
0.0453074994792091
 50
320.8641705386024796
 51
356.0372243598869204
  0
ARC
  5
9B32
  8
0
 10
4104.0457936001948838
 20
81.4793977488282053
 30
0.0
 40
0.0276466416672484
 50
46.8032354574599978
 51
119.8769331998257996
  0
LINE
  5
9B33
  8
0
 10
4104.1792088339389011
 20
81.2210892857492439
 30
0.0
 11
4104.2124917055125479
 21
81.2553569995567813
 31
0.0
  0
LINE
  5
9B34
  8
0
 10
4104.2609470847673947
 20
81.1240109906654965
 30
0.0
 11
4104.2848349901842084
 21
81.1462044037951244
 31
0.0
  0
ARC
  5
9B35
  8
0
 10
4104.0489643903865726
 20
81.0542399649906855
 30
0.0
 40
0.2842427424677305
 50
18.9824133026994417
 51
53.2259489658483531
  0
ARC
  5
9B36
  8
0
 10
4104.3870383899256922
 20
81.2958726166073546
 30
0.0
 40
0.2316817598125627
 50
206.2859674102026872
 51
228.1977227888692141
  0
ARC
  5
9B37
  8
0
 10
4104.2015364533617685
 20
81.2072646049016811
 30
0.0
 40
0.026261081272843
 50
148.2352863330517891
 51
212.1967062793127923
  0
ARC
  5
9B38
  8
0
 10
4104.2463148626202383
 20
81.1390992714158727
 30
0.0
 40
0.0210180432237131
 50
229.2966908959573971
 51
314.1208701062324735
  0
ARC
  5
9B39
  8
0
 10
4104.1502919093436503
 20
81.119869907948825
 30
0.0
 40
0.0742347657270434
 50
17.4092850108863217
 51
54.803869491365937
  0
ARC
  5
9B3A
  8
0
 10
4104.2660134536017722
 20
81.2042758592491936
 30
0.0
 40
0.0767015114954066
 50
198.0317588397230963
 51
234.1813956625173034
  0
ARC
  5
9B3B
  8
0
 10
4104.1739091387225926
 20
81.2791089478766224
 30
0.0
 40
0.0453074994792091
 50
328.3829874767009755
 51
3.5560412979908791
  0
ARC
  5
9B3C
  8
0
 10
4104.3016252632587566
 20
81.124240261982365
 30
0.0
 40
0.0276466416672484
 50
54.3220523955412986
 51
127.3957501379208992
  0
LINE
  5
9B3D
  8
0
 10
4103.9889562843163731
 20
81.360139821218965
 30
0.0
 11
4104.0228341996353265
 21
81.3938193788682582
 31
0.0
  0
LINE
  5
9B3E
  8
0
 10
4104.0689818155287867
 20
81.2616448904912403
 30
0.0
 11
4104.0932547420652554
 21
81.2834165383139151
 31
0.0
  0
ARC
  5
9B3F
  8
0
 10
4103.8558096970928091
 20
81.1955971300271671
 30
0.0
 40
0.2842427424677305
 50
17.9789109414395902
 51
52.2224466045475921
  0
ARC
  5
9B40
  8
0
 10
4104.1980636844718902
 20
81.431271854203743
 30
0.0
 40
0.2316817598125628
 50
205.2824650489185956
 51
227.1942204275970028
  0
ARC
  5
9B41
  8
0
 10
4104.011038360382372
 20
81.3459262253944502
 30
0.0
 40
0.026261081272843
 50
147.2317839717694881
 51
211.1932039180454126
  0
ARC
  5
9B42
  8
0
 10
4104.0546160865560523
 20
81.2769871188844917
 30
0.0
 40
0.0210180432237131
 50
228.2931885346463048
 51
313.1173677449613137
  0
ARC
  5
9B43
  8
0
 10
4103.9582710867252899
 20
81.2594424050694641
 30
0.0
 40
0.0742347657270434
 50
16.4057826495959205
 51
53.8003671300908977
  0
ARC
  5
9B44
  8
0
 10
4104.075453128085428
 20
81.3418087185916932
 30
0.0
 40
0.0767015114954066
 50
197.028256478440511
 51
233.1778933012311086
  0
ARC
  5
9B45
  8
0
 10
4103.9846735307255585
 20
81.4182434010093061
 30
0.0
 40
0.0453074994792091
 50
327.3794851153986087
 51
2.552538936705989
  0
ARC
  5
9B46
  8
0
 10
4104.1096577704129231
 20
81.2611617083548907
 30
0.0
 40
0.0276466416672484
 50
53.3185500342438274
 51
126.3922477766240036
  0
LINE
  5
9B47
  8
0
 10
4104.4206840595661561
 20
80.867006175518938
 30
0.0
 11
4104.4545619748851095
 21
80.9006857331682312
 31
0.0
  0
LINE
  5
9B48
  8
0
 10
4104.5007095907776602
 20
80.7685112447912701
 30
0.0
 11
4104.5249825173150384
 21
80.7902828926139449
 31
0.0
  0
ARC
  5
9B49
  8
0
 10
4104.2875374723444111
 20
80.7024634843271969
 30
0.0
 40
0.2842427424677305
 50
17.9789109414395902
 51
52.2224466045475921
  0
ARC
  5
9B4A
  8
0
 10
4104.6297914597207637
 20
80.9381382085037302
 30
0.0
 40
0.2316817598125628
 50
205.2824650489185956
 51
227.1942204275970028
  0
ARC
  5
9B4B
  8
0
 10
4104.4427661356312456
 20
80.85279257969448
 30
0.0
 40
0.026261081272843
 50
147.2317839717694881
 51
211.1932039180454126
  0
ARC
  5
9B4C
  8
0
 10
4104.4863438618067448
 20
80.7838534731845215
 30
0.0
 40
0.0210180432237131
 50
228.2931885346463048
 51
313.1173677449613137
  0
ARC
  5
9B4D
  8
0
 10
4104.3899988619741634
 20
80.7663087593694939
 30
0.0
 40
0.0742347657270434
 50
16.4057826495959205
 51
53.8003671300908977
  0
ARC
  5
9B4E
  8
0
 10
4104.507180903335211
 20
80.8486750728917229
 30
0.0
 40
0.0767015114954066
 50
197.028256478440511
 51
233.1778933012311086
  0
ARC
  5
9B4F
  8
0
 10
4104.416401305976251
 20
80.9251097553092649
 30
0.0
 40
0.0453074994792091
 50
327.3794851153986087
 51
2.552538936705989
  0
ARC
  5
9B50
  8
0
 10
4104.5413855456627061
 20
80.7680280626549205
 30
0.0
 40
0.0276466416672484
 50
53.3185500342438274
 51
126.3922477766240036
  0
LINE
  5
9B51
  8
0
 10
4104.2835626602663979
 20
80.9182229221689653
 30
0.0
 11
4104.3174405755844418
 21
80.9519024798182443
 31
0.0
  0
LINE
  5
9B52
  8
0
 10
4104.363588191477902
 20
80.8197279914412974
 30
0.0
 11
4104.3878611180161897
 21
80.8414996392639864
 31
0.0
  0
ARC
  5
9B53
  8
0
 10
4104.1504160730437434
 20
80.7536802309771531
 30
0.0
 40
0.2842427424677305
 50
17.9789109414395902
 51
52.2224466045475921
  0
ARC
  5
9B54
  8
0
 10
4104.492670060421915
 20
80.9893549551537433
 30
0.0
 40
0.2316817598125628
 50
205.2824650489185956
 51
227.1942204275970028
  0
ARC
  5
9B55
  8
0
 10
4104.3056447363305779
 20
80.9040093263444504
 30
0.0
 40
0.026261081272843
 50
147.2317839717694881
 51
211.1932039180454126
  0
ARC
  5
9B56
  8
0
 10
4104.3492224625069866
 20
80.8350702198345488
 30
0.0
 40
0.0210180432237131
 50
228.2931885346463048
 51
313.1173677449613137
  0
ARC
  5
9B57
  8
0
 10
4104.2528774626753147
 20
80.8175255060195354
 30
0.0
 40
0.0742347657270434
 50
16.4057826495959205
 51
53.8003671300908977
  0
ARC
  5
9B58
  8
0
 10
4104.3700595040354528
 20
80.8998918195417644
 30
0.0
 40
0.0767015114954066
 50
197.028256478440511
 51
233.1778933012311086
  0
ARC
  5
9B59
  8
0
 10
4104.2792799066755833
 20
80.9763265019592353
 30
0.0
 40
0.0453074994792091
 50
327.3794851153986087
 51
2.552538936705989
  0
ARC
  5
9B5A
  8
0
 10
4104.4042641463629479
 20
80.8192448093049336
 30
0.0
 40
0.0276466416672484
 50
53.3185500342438274
 51
126.3922477766240036
  0
LINE
  5
9B5B
  8
0
 10
4104.6409197871162178
 20
80.5356611710189156
 30
0.0
 11
4104.6747977024351712
 21
80.5693407286682088
 31
0.0
  0
LINE
  5
9B5C
  8
0
 10
4104.7209453183277219
 20
80.4371662402912619
 30
0.0
 11
4104.7452182448651001
 21
80.4589378881139368
 31
0.0
  0
ARC
  5
9B5D
  8
0
 10
4104.5077731998935633
 20
80.3711184798271887
 30
0.0
 40
0.2842427424677305
 50
17.9789109414395902
 51
52.2224466045475921
  0
ARC
  5
9B5E
  8
0
 10
4104.8500271872708254
 20
80.6067932040037363
 30
0.0
 40
0.2316817598125628
 50
205.2824650489185956
 51
227.1942204275970028
  0
ARC
  5
9B5F
  8
0
 10
4104.6630018631822168
 20
80.521447575194486
 30
0.0
 40
0.026261081272843
 50
147.2317839717694881
 51
211.1932039180454126
  0
ARC
  5
9B60
  8
0
 10
4104.7065795893568065
 20
80.4525084686845133
 30
0.0
 40
0.0210180432237131
 50
228.2931885346463048
 51
313.1173677449613137
  0
ARC
  5
9B61
  8
0
 10
4104.6102345895242252
 20
80.4349637548694858
 30
0.0
 40
0.0742347657270434
 50
16.4057826495959205
 51
53.8003671300908977
  0
ARC
  5
9B62
  8
0
 10
4104.7274166308852728
 20
80.517330068391729
 30
0.0
 40
0.0767015114954066
 50
197.028256478440511
 51
233.1778933012311086
  0
ARC
  5
9B63
  8
0
 10
4104.6366370335263127
 20
80.5937647508092567
 30
0.0
 40
0.0453074994792091
 50
327.3794851153986087
 51
2.552538936705989
  0
ARC
  5
9B64
  8
0
 10
4104.7616212732127678
 20
80.4366830581549692
 30
0.0
 40
0.0276466416672484
 50
53.3185500342438274
 51
126.3922477766240036
  0
LINE
  5
9B65
  8
0
 10
4104.8270835186540353
 20
80.2452486575697748
 30
0.0
 11
4104.8609614339729887
 21
80.278928215219068
 31
0.0
  0
LINE
  5
9B66
  8
0
 10
4104.9071090498664489
 20
80.1467537268421069
 30
0.0
 11
4104.9313819764029176
 21
80.1685253746647248
 31
0.0
  0
ARC
  5
9B67
  8
0
 10
4104.6939369314322903
 20
80.0807059663780336
 30
0.0
 40
0.2842427424677305
 50
17.9789109414395902
 51
52.2224466045475921
  0
ARC
  5
9B68
  8
0
 10
4105.0361909188095524
 20
80.316380690554567
 30
0.0
 40
0.2316817598125628
 50
205.2824650489185956
 51
227.1942204275970028
  0
ARC
  5
9B69
  8
0
 10
4104.8491655947200343
 20
80.2310350617453167
 30
0.0
 40
0.026261081272843
 50
147.2317839717694881
 51
211.1932039180454126
  0
ARC
  5
9B6A
  8
0
 10
4104.892743320894624
 20
80.1620959552353582
 30
0.0
 40
0.0210180432237131
 50
228.2931885346463048
 51
313.1173677449613137
  0
ARC
  5
9B6B
  8
0
 10
4104.7963983210638617
 20
80.1445512414203307
 30
0.0
 40
0.0742347657270434
 50
16.4057826495959205
 51
53.8003671300908977
  0
ARC
  5
9B6C
  8
0
 10
4104.9135803624230903
 20
80.2269175549425739
 30
0.0
 40
0.0767015114954066
 50
197.028256478440511
 51
233.1778933012311086
  0
ARC
  5
9B6D
  8
0
 10
4104.8228007650650397
 20
80.3033522373601016
 30
0.0
 40
0.0453074994792091
 50
327.3794851153986087
 51
2.552538936705989
  0
ARC
  5
9B6E
  8
0
 10
4104.9477850047505854
 20
80.1462705447057573
 30
0.0
 40
0.0276466416672484
 50
53.3185500342438274
 51
126.3922477766240036
  0
LINE
  5
9B6F
  8
0
 10
4104.9604949580370885
 20
79.9997963825280038
 30
0.0
 11
4104.9929426520293418
 21
80.0348559447669743
 31
0.0
  0
LINE
  5
9B70
  8
0
 10
4105.0445481297101651
 20
79.9047153573098257
 30
0.0
 11
4105.0678944572446198
 21
79.9274777957163423
 31
0.0
  0
ARC
  5
9B71
  8
0
 10
4104.8343077582248952
 20
79.8298578597701152
 30
0.0
 40
0.2842427424677305
 50
20.3628176289382914
 51
54.6063532920894801
  0
ARC
  5
9B72
  8
0
 10
4105.1664626486390262
 20
80.0795646803922239
 30
0.0
 40
0.2316817598125628
 50
207.6663717364602917
 51
229.5781271151381873
  0
ARC
  5
9B73
  8
0
 10
4104.9831491379918589
 20
79.9865135921536847
 30
0.0
 40
0.026261081272843
 50
149.6156906592927953
 51
213.5771106055844939
  0
ARC
  5
9B74
  8
0
 10
4105.0295566732647785
 20
79.9194467650708447
 30
0.0
 40
0.0210180432237131
 50
230.6770952221588118
 51
315.5012744324891969
  0
ARC
  5
9B75
  8
0
 10
4104.9340248276203056
 20
79.8979097633573332
 30
0.0
 40
0.0742347657270434
 50
18.7896893371133693
 51
56.1842738176019409
  0
ARC
  5
9B76
  8
0
 10
4105.0476794258820519
 20
79.9850789822045698
 30
0.0
 40
0.0767015114954066
 50
199.412163165954496
 51
235.561799988720793
  0
ARC
  5
9B77
  8
0
 10
4104.9537990915450791
 20
80.0576715355272626
 30
0.0
 40
0.0453074994792091
 50
329.7633918029172833
 51
4.9364456242192976
  0
ARC
  5
9B78
  8
0
 10
4105.0852089796699147
 20
79.9059245103839402
 30
0.0
 40
0.0276466416672484
 50
55.702456721739587
 51
128.7761544641560079
  0
LINE
  5
9B79
  8
0
 10
4104.534378423839371
 20
80.5325303086804496
 30
0.0
 11
4104.565880217322956
 21
80.5545470995256068
 31
0.0
  0
ARC
  5
9B7A
  8
0
 10
4104.5557317280117786
 20
80.5709447546964128
 30
0.0
 40
0.0192840589704692
 50
301.7533157972832782
 51
39.2964228041561014
  0
ARC
  5
9B7B
  8
0
 10
4104.4379129676817684
 20
80.3755960608877302
 30
0.0
 40
0.2463787086819123
 50
36.7130403912869028
 51
57.399819791736661
  0
ARC
  5
9B7C
  8
0
 10
4104.6606009667721082
 20
80.4366567635159271
 30
0.0
 40
0.0230672823635985
 50
47.8270935305072697
 51
118.5323503879494069
  0
ARC
  5
9B7D
  8
0
 10
4103.8419661967664069
 20
81.4196201926311431
 30
0.0
 40
0.0078740158138735
 50
202.9241411223241016
 51
292.9241399485987927
  0
LINE
  5
9B7E
  8
0
 10
4103.845033220730329
 20
81.4123680557711822
 30
0.0
 11
4103.864456214094389
 21
81.4205738393477958
 31
0.0
  0
LINE
  5
9B7F
  8
0
 10
4103.7818594009231674
 20
81.564874941225554
 30
0.0
 11
4103.8175426978232281
 21
81.5891134582256541
 31
0.0
  0
ARC
  5
9B80
  8
0
 10
4103.7305785019952964
 20
81.6583102793529463
 30
0.0
 40
0.0214365826120321
 50
127.2397477747483947
 51
206.5357844839496124
  0
ARC
  5
9B81
  8
0
 10
4104.021368962698034
 20
81.7836154980709438
 30
0.0
 40
0.3380441738924739
 50
203.516146076875998
 51
218.317855663751601
  0
ARC
  5
9B82
  8
0
 10
4103.7754734797863421
 20
81.5876430330252447
 30
0.0
 40
0.0236466909514583
 50
215.1767961145702088
 51
285.6675749565308138
  0
ARC
  5
9B83
  8
0
 10
4103.8282337055206881
 20
81.5736809055025986
 30
0.0
 40
0.0187739534771209
 50
79.1624282365523584
 51
124.7125493531448939
  0
ARC
  5
9B84
  8
0
 10
4102.9965290967211331
 20
81.2025121627137167
 30
0.0
 40
0.9329612733319674
 50
22.8855737536531088
 51
32.5056237913982002
  0
ARC
  5
9B85
  8
0
 10
4103.88865697653182
 20
81.6193006312245615
 30
0.0
 40
0.0630526185602676
 50
205.5360170691037922
 51
238.8602893725789045
  0
ARC
  5
9B86
  8
0
 10
4103.6361242798793683
 20
81.5510856187438975
 30
0.0
 40
0.1190478487557399
 50
19.1469294272071586
 51
42.1679335187552979
  0
ARC
  5
9B87
  8
0
 10
4103.8300163233498097
 20
81.6657878780930986
 30
0.0
 40
0.1112348479341701
 50
198.2228889998557975
 51
222.8686548232230962
  0
ARC
  5
9B88
  8
0
 10
4103.8713583603066581
 20
81.3960565913479712
 30
0.0
 40
0.0254702782047849
 50
46.9325665885559005
 51
105.7230821620510994
  0
LINE
  5
9B89
  8
0
 10
4103.8888277705937071
 20
81.4147094150649053
 30
0.0
 11
4103.9441034522233167
 21
81.3083603597255973
 31
0.0
  0
LINE
  5
9B8A
  8
0
 10
4103.9441034522233167
 20
81.3083603597255973
 30
0.0
 11
4103.8644562141107599
 21
81.4205738393527412
 31
0.0
  0
LINE
  5
9B8B
  8
0
 10
4103.7903306288581007
 20
81.5706291741624199
 30
0.0
 11
4103.8095923512519221
 21
81.5417032487392248
 31
0.0
  0
LINE
  5
9B8C
  8
0
 10
4103.8095923512519221
 20
81.5417032487392248
 30
0.0
 11
4103.8219024261179584
 21
81.5227862716260745
 31
0.0
  0
LINE
  5
9B8D
  8
0
 10
4103.8219024261179584
 20
81.5227862716260745
 30
0.0
 11
4103.8729911311220349
 21
81.4411256241256041
 31
0.0
  0
LINE
  5
9B8E
  8
0
 10
4103.8729911311220349
 20
81.4411256241256041
 30
0.0
 11
4103.8823401877370998
 21
81.4190377692578835
 31
0.0
  0
ARC
  5
9B8F
  8
0
 10
4103.764006331886776
 20
81.2242948126910562
 30
0.0
 40
0.290351303079249
 50
32.4502202624026168
 51
54.4090147656567567
  0
ARC
  5
9B90
  8
0
 10
4104.2654921327439297
 20
81.5428580492422554
 30
0.0
 40
0.3425732011868796
 50
193.9268955648248038
 51
214.9739853636845055
  0
ARC
  5
9B91
  8
0
 10
4104.230146341683394
 20
81.3395374729737455
 30
0.0
 40
0.2029204599364825
 50
203.421048562644188
 51
239.9455823708777018
  0
ARC
  5
9B92
  8
0
 10
4103.8515354244036644
 20
81.1063013669745914
 30
0.0
 40
0.2829091753542661
 50
11.7471362013768594
 51
35.2188373538476966
  0
ARC
  5
9B93
  8
0
 10
17407.2693990866391687
 20
5707.1851175871697706
 30
0.0
 40
14443.9540519403708458
 50
202.9238037076295029
 51
202.9244071804363045
  0
ARC
  5
9B94
  8
0
 10
4104.1124345557664128
 20
81.0322607660993839
 30
0.0
 40
0.0078739991726873
 50
202.9240197384004887
 51
292.9242612009740014
  0
ARC
  5
9B95
  8
0
 10
6004.866350080023949
 20
-4413.3723373438942872
 30
0.0
 40
4879.8013578144118583
 50
112.9240201311671967
 51
112.924261200973902
  0
ARC
  5
9B96
  8
0
 10
4104.1420792468616128
 20
81.0148753227931877
 30
0.0
 40
0.0196853298605462
 50
96.7141421076753289
 51
112.9240201311671967
  0
ARC
  5
9B97
  8
0
 10
4102.0299378326153601
 20
79.6493070241161689
 30
0.0
 40
2.523880477018035
 50
31.9055892903855209
 51
33.9570434277728168
  0
ARC
  5
9B98
  8
0
 10
4101.3102696356581873
 20
79.1646693376662114
 30
0.0
 40
3.3915186509352129
 50
33.9570434277728168
 51
36.2333290264305319
  0
ARC
  5
9B99
  8
0
 10
4103.5857594547223925
 20
80.8321096816073776
 30
0.0
 40
0.5704884814275585
 50
36.2333290264305319
 51
44.0869918590693075
  0
ARC
  5
9B9A
  8
0
 10
4104.9145784825559531
 20
81.6825158427644027
 30
0.0
 40
1.0248404761709751
 50
206.2633154572631895
 51
215.5780933544315872
  0
ARC
  5
9B9B
  8
0
 10
4103.1630584044705756
 20
82.6117203889566269
 30
0.0
 40
0.0188738425506471
 50
125.220036734439006
 51
204.8198030649519126
  0
ARC
  5
9B9C
  8
0
 10
4105.1849384422366711
 20
83.5468082814001463
 30
0.0
 40
2.2465157019412598
 50
204.8198030649519126
 51
207.1869350004785986
  0
ARC
  5
9B9D
  8
0
 10
4103.2028472994361437
 20
82.5287230811068753
 30
0.0
 40
0.0182466936246022
 50
207.1869350004961916
 51
306.4413664887086952
  0
ARC
  5
9B9E
  8
0
 10
4103.1795697378829573
 20
82.6704113898592254
 30
0.0
 40
0.0197952691117274
 50
305.1136244723282971
 51
25.2951985720047716
  0
ARC
  5
9B9F
  8
0
 10
4101.7108139755855518
 20
81.8619997799091124
 30
0.0
 40
1.6962940349780891
 50
23.0715551191272716
 51
29.0517664945049816
  0
ARC
  5
9BA0
  8
0
 10
4103.2537819535946255
 20
82.5180117912772602
 30
0.0
 40
0.0196920183791777
 50
26.3241355378513404
 51
124.8560418063891007
  0
ARC
  5
9BA1
  8
0
 10
4104.5809904899560934
 20
83.1615194966183537
 30
0.0
 40
1.4584945154474549
 50
205.4485970794358138
 51
207.1710406991942932
  0
ARC
  5
9BA2
  8
0
 10
4103.3571535842147568
 20
82.3661450180111245
 30
0.0
 40
0.0203117521108773
 50
29.6217370953718415
 51
126.4261717487842986
  0
ARC
  5
9BA3
  8
0
 10
4102.1504484355391469
 20
81.9438371372572476
 30
0.0
 40
1.298455750671438
 50
19.4491696664991416
 51
23.1645464987919603
  0
ARC
  5
9BA4
  8
0
 10
4103.4446485776470581
 20
82.1403361562038157
 30
0.0
 40
0.0143114469334307
 50
101.7778978777188996
 51
125.7723789246401935
  0
ARC
  5
9BA5
  8
0
 10
4103.4590112316009254
 20
82.171260413516535
 30
0.0
 40
0.022433480929571
 50
118.7209865190085054
 51
206.7147358508499053
  0
ARC
  5
9BA6
  8
0
 10
4103.7048169509580475
 20
82.2589171051856027
 30
0.0
 40
0.2832432793756758
 50
200.1866888466661862
 51
219.0839792865097024
  0
ARC
  5
9BA7
  8
0
 10
4103.4985668449689911
 20
82.0937814569461182
 30
0.0
 40
0.0191257382024304
 50
224.6352314587404919
 51
308.2435058125082037
  0
ARC
  5
9BA8
  8
0
 10
4103.0766751981063862
 20
82.7475689855718173
 30
0.0
 40
0.7971368781673024
 50
302.9639016371424987
 51
305.5762678744370078
  0
ARC
  5
9BA9
  8
0
 10
4103.5486210646258769
 20
82.0743618508731032
 30
0.0
 40
0.0261743101619635
 50
43.5440337476614303
 51
108.2173645226961014
  0
ARC
  5
9BAA
  8
0
 10
4103.3319979995503672
 20
82.047730340083703
 30
0.0
 40
0.239791569377638
 50
10.7345352359378996
 51
30.5937246271083509
  0
ARC
  5
9BAB
  8
0
 10
4103.1413247255832175
 20
82.0252662725343953
 30
0.0
 40
0.3638354079710427
 50
28.6315637593977499
 51
40.2525600494552123
  0
ARC
  5
9BAC
  8
0
 10
4103.7833729526682873
 20
82.372877970330407
 30
0.0
 40
0.3813447395954611
 50
197.160652493560292
 51
208.4969362256537124
  0
ARC
  5
9BAD
  8
0
 10
4223.9451076317109255
 20
-90.6089240487086585
 30
0.0
 40
210.6639224031000026
 50
124.8777622983203059
 51
124.8888526871251941
  0
ARC
  5
9BAE
  8
0
 10
4103.5940786110186309
 20
81.9403738318466566
 30
0.0
 40
0.022129981840933
 50
302.3219981868566038
 51
21.3276106860188683
  0
ARC
  5
9BAF
  8
0
 10
4103.2132397642853903
 20
81.6264299615548055
 30
0.0
 40
0.5146299035226845
 50
20.0649979633950899
 51
38.7319595533604826
  0
ARC
  5
9BB0
  8
0
 10
4103.6776418639401527
 20
81.7898729591272939
 30
0.0
 40
0.0230825802778962
 50
34.6361531431204668
 51
80.2672557389300749
  0
ARC
  5
9BB1
  8
0
 10
4103.6787427701319757
 20
81.79629143702509
 30
0.0
 40
0.0165703722827538
 50
80.2672557389300749
 51
128.1265461063300108
  0
ARC
  5
9BB2
  8
0
 10
4103.6265413205610457
 20
81.8048493610287295
 30
0.0
 40
0.0203675630760644
 50
213.1564581551359936
 51
303.0890525626538192
  0
ARC
  5
9BB3
  8
0
 10
4103.9309249532343529
 20
82.0292843653727886
 30
0.0
 40
0.3985170144396718
 50
203.263495299311586
 51
216.2370976020274043
  0
ARC
  5
9BB4
  8
0
 10
4103.5831863302228157
 20
81.880863730820451
 30
0.0
 40
0.02045384542512
 50
126.2248368942953931
 51
206.0354461952242104
  0
ARC
  5
9BB5
  8
0
 10
4103.4822501347916841
 20
81.7711375734969863
 30
0.0
 40
0.1251933978462207
 50
18.683135963958879
 51
40.7083524942633517
  0
ARC
  5
9BB6
  8
0
 10
4103.7071390942755897
 20
81.8993898334958743
 30
0.0
 40
0.1380880065283694
 50
199.7225651530575021
 51
219.6689233052024122
  0
ARC
  5
9BB7
  8
0
 10
4103.7174915312962185
 20
81.7848413042293458
 30
0.0
 40
0.0231019836070217
 50
125.8612344404702981
 51
202.8061604170378018
  0
ARC
  5
9BB8
  8
0
 10
4103.9889821975912128
 20
81.8989998219616808
 30
0.0
 40
0.3176174315155706
 50
202.8061604170378018
 51
218.1748304037461992
  0
ARC
  5
9BB9
  8
0
 10
4103.7638754104073087
 20
81.722018316147043
 30
0.0
 40
0.0312688344584878
 50
218.1748304037461992
 51
254.2866496233253031
  0
ARC
  5
9BBA
  8
0
 10
4103.7602767849029988
 20
81.7092272398820541
 30
0.0
 40
0.0179811808830811
 50
254.2866496232711029
 51
307.2610537436859204
  0
ARC
  5
9BBB
  8
0
 10
4104.057046650463235
 20
81.3191112846148343
 30
0.0
 40
0.4721849253074892
 50
122.4710097175885011
 51
127.2610537436859062
  0
ARC
  5
9BBC
  8
0
 10
4103.8140804695685802
 20
81.7009179692200149
 30
0.0
 40
0.0196267417914854
 50
31.2799588325572486
 51
122.4710097175885011
  0
ARC
  5
9BBD
  8
0
 10
4103.484548019410795
 20
81.6118781608206945
 30
0.0
 40
0.3602425555356659
 50
15.9890972906847502
 51
39.4184753628495272
  0
ARC
  5
9BBE
  8
0
 10
4104.7648517381594502
 20
80.3517298602605337
 30
0.0
 40
1.7981430281611219
 50
124.7571144532687981
 51
126.1565946275537016
  0
ARC
  5
9BBF
  8
0
 10
4103.7308532786219075
 20
81.8418373719696177
 30
0.0
 40
0.0155750344871162
 50
304.7571144532687981
 51
344.5545773733962278
  0
ARC
  5
9BC0
  8
0
 10
4098.1037875170122788
 20
77.8243383929040959
 30
0.0
 40
6.82424973201441
 50
34.4512593041246191
 51
35.6090752543780908
  0
ARC
  5
9BC1
  8
0
 10
4102.6329632108490841
 20
81.6125604421463748
 30
0.0
 40
1.0117207383576401
 50
19.5904445774815805
 51
28.083694109144961
  0
ARC
  5
9BC2
  8
0
 10
4104.1707577305987797
 20
82.3973072110302667
 30
0.0
 40
0.735046143014273
 50
205.7770218839671088
 51
217.3091115948323022
  0
LINE
  5
9BC3
  8
0
 10
4104.1837815486805994
 20
80.9913401173337633
 30
0.0
 11
4103.801594971088889
 21
81.5782806798911651
 31
0.0
  0
ARC
  5
9BC4
  8
0
 10
4104.181251682049151
 20
80.9654929355554458
 30
0.0
 40
0.019775001032682
 50
116.2326801648064958
 51
190.4408772696154983
  0
ARC
  5
9BC5
  8
0
 10
4104.3994097447657623
 20
81.0634158281145432
 30
0.0
 40
0.2583795960505028
 50
203.1324602073204915
 51
225.078062464858391
  0
ARC
  5
9BC6
  8
0
 10
4104.2322946361537106
 20
80.8949031609936782
 30
0.0
 40
0.0210642895999638
 50
223.2692596987552065
 51
303.7205796567432117
  0
ARC
  5
9BC7
  8
0
 10
4098.2302195020001818
 20
89.5459826374885068
 30
0.0
 40
10.5503572476401004
 50
304.750656700015611
 51
304.9731573713223156
  0
ARC
  5
9BC8
  8
0
 10
4104.4349342905270532
 20
80.6441214987950588
 30
0.0
 40
0.4287907552610965
 50
122.7303273744491037
 51
127.7348590495319058
  0
ARC
  5
9BC9
  8
0
 10
4104.1922507087438134
 20
81.0217002616741837
 30
0.0
 40
0.0200533636092251
 50
302.7303273744490753
 51
32.1522372751163772
  0
ARC
  5
9BCA
  8
0
 10
4103.9706374984389186
 20
80.7579097943526421
 30
0.0
 40
0.363669177902741
 50
27.9866852718966683
 51
48.9994396588732428
  0
ARC
  5
9BCB
  8
0
 10
4104.1090840526476313
 20
80.8604728778152975
 30
0.0
 40
0.1038202952626925
 50
21.9092126346945406
 51
48.488803502278401
  0
ARC
  5
9BCC
  8
0
 10
4104.2700438684869368
 20
80.974013364335562
 30
0.0
 40
0.0988599029569444
 50
201.2291932296724895
 51
229.168822907273011
  0
ARC
  5
9BCD
  8
0
 10
4102.1124681955661799
 20
79.5419798016107364
 30
0.0
 40
2.5254936832850401
 50
28.9369305239295613
 51
32.0764336644175998
  0
ARC
  5
9BCE
  8
0
 10
4103.3895449047249713
 20
82.1046133746547042
 30
0.0
 40
1.6334425265773269
 50
304.3849931209679767
 51
305.8493434078368978
  0
ARC
  5
9BCF
  8
0
 10
4104.334394891437114
 20
80.7969217705809655
 30
0.0
 40
0.0201233304003709
 50
305.8493434078368978
 51
27.7998859060438406
  0
ARC
  5
9BD0
  8
0
 10
4104.0562827690000631
 20
80.4894196514689355
 30
0.0
 40
0.4335689130369355
 50
25.0722238601541498
 51
46.9603130464233587
  0
ARC
  5
9BD1
  8
0
 10
4104.4329148719598379
 20
80.6594887369755469
 30
0.0
 40
0.0211016770234998
 50
40.3423330204556621
 51
114.4922163708231011
  0
ARC
  5
9BD2
  8
0
 10
4106.4149450989816614
 20
77.7689838833442622
 30
0.0
 40
3.5255634444335802
 50
124.3793477654930939
 51
125.1034773035924985
  0
ARC
  5
9BD3
  8
0
 10
4104.3761654472009468
 20
80.6707025005060103
 30
0.0
 40
0.0207972994547964
 50
224.3951230979029958
 51
303.1975784492739763
  0
ARC
  5
9BD4
  8
0
 10
4104.5829539106462107
 20
80.8788347663827807
 30
0.0
 40
0.3141902514525722
 50
208.1873229163427936
 51
225.1332428093834892
  0
ARC
  5
9BD5
  8
0
 10
4104.3241094765753587
 20
80.7400481277461921
 30
0.0
 40
0.020486123017754
 50
126.1212337715472955
 51
208.0167382738029005
  0
ARC
  5
9BD6
  8
0
 10
4104.246382180324872
 20
80.6287933146316931
 30
0.0
 40
0.1122975831583
 50
24.3541932080654711
 51
48.8094258758153217
  0
ARC
  5
9BD7
  8
0
 10
4104.4225918743377406
 20
80.7595913796480289
 30
0.0
 40
0.112244640409243
 50
204.3567148680787966
 51
228.8241010188502003
  0
ARC
  5
9BD8
  8
0
 10
4104.5446260428043388
 20
80.4381598676572338
 30
0.0
 40
0.0195976559046072
 50
304.8785409765349073
 51
17.2803608740738497
  0
ARC
  5
9BD9
  8
0
 10
4104.5350665240239323
 20
80.3844153725784025
 30
0.0
 40
0.0189966905019616
 50
125.5486824456401962
 51
221.0915032274878911
  0
ARC
  5
9BDA
  8
0
 10
4104.5903702846308079
 20
80.3131442828303506
 30
0.0
 40
0.0187970609482054
 50
217.5413330579930005
 51
304.8794358208975268
  0
ARC
  5
9BDB
  8
0
 10
4104.6471836403916313
 20
80.3070469366618198
 30
0.0
 40
0.0186680949965879
 50
56.5649138555594533
 51
126.1215212923973041
  0
ARC
  5
9BDC
  8
0
 10
4103.3456743458436904
 20
79.4013068586480557
 30
0.0
 40
1.604676035296434
 50
34.1742258814779305
 51
41.5072676877127975
  0
ARC
  5
9BDD
  8
0
 10
4100.5315920511829972
 20
86.1818637805341012
 30
0.0
 40
7.154310179253967
 50
304.668104812908723
 51
305.0101978207158027
  0
ARC
  5
9BDE
  8
0
 10
4088.8043453927371047
 20
102.947491787861793
 30
0.0
 40
27.4864223219133805
 50
304.8833120468801212
 51
304.9641862883847239
  0
ARC
  5
9BDF
  8
0
 10
4105.7654750509273072
 20
81.2851433837658846
 30
0.0
 40
1.5437944533125649
 50
216.2662604047204979
 51
219.5711615367659988
  0
ARC
  5
9BE0
  8
0
 10
4463.1525928521077731
 20
-433.0642031524423032
 30
0.0
 40
626.0652459899057476
 50
124.9237552673089056
 51
124.9272158728038988
  0
ARC
  5
9BE1
  8
0
 10
4104.7272219225678782
 20
80.2728214523332753
 30
0.0
 40
0.0207284226047054
 50
304.9237552673088771
 51
34.5435546088918528
  0
ARC
  5
9BE2
  8
0
 10
4104.5118994457716326
 20
79.9849926270288023
 30
0.0
 40
0.3791540072833147
 50
26.7684949086986705
 51
52.1980453771466912
  0
ARC
  5
9BE3
  8
0
 10
4104.8338389362461385
 20
80.1312656026999264
 30
0.0
 40
0.0295781149342557
 50
55.9016266836461213
 51
108.8329982231624058
  0
ARC
  5
9BE4
  8
0
 10
4104.7761916389781618
 20
80.1517549546597792
 30
0.0
 40
0.0213980555548573
 50
228.469468128997903
 51
302.7545548909066042
  0
ARC
  5
9BE5
  8
0
 10
4104.4694684562109614
 20
80.628526240930384
 30
0.0
 40
0.5883107210150906
 50
302.7545548909066042
 51
307.0937261270191243
  0
ARC
  5
9BE6
  8
0
 10
4104.7209965164538517
 20
80.2171845666664893
 30
0.0
 40
0.0213412294414282
 50
127.2280424246389998
 51
218.118021548514605
  0
ARC
  5
9BE7
  8
0
 10
4104.9641630802780128
 20
80.3654751980879922
 30
0.0
 40
0.3060197999705551
 50
211.8452403402677078
 51
228.6538329693107983
  0
ARC
  5
9BE8
  8
0
 10
4104.6549024274818294
 20
80.1083721862998317
 30
0.0
 40
0.1039480866878511
 50
26.5481720558651091
 51
53.0843510116579509
  0
ARC
  5
9BE9
  8
0
 10
4104.811670991540268
 20
80.2390563349199937
 30
0.0
 40
0.1056492994502211
 50
206.7632201783509913
 51
232.8643793694297131
  0
ARC
  5
9BEA
  8
0
 10
4102.4704919337727915
 20
83.4216492720349123
 30
0.0
 40
4.0775607975668766
 50
304.6974091230986232
 51
305.2401673912764863
  0
ARC
  5
9BEB
  8
0
 10
4104.8119544657110964
 20
80.107349805646308
 30
0.0
 40
0.0196022293483331
 50
305.2401673912764863
 51
36.470147755100399
  0
ARC
  5
9BEC
  8
0
 10
4104.212631267382676
 20
79.5113669106075207
 30
0.0
 40
0.8646105054663621
 50
33.5914182550660811
 51
44.6508036116671931
  0
ARC
  5
9BED
  8
0
 10
4104.9176283949873323
 20
79.9767089018494488
 30
0.0
 40
0.0200333926703226
 50
40.5287358698777282
 51
121.5151911898330042
  0
ARC
  5
9BEE
  8
0
 10
4105.1051080558108879
 20
79.670951898464395
 30
0.0
 40
0.3786919605892663
 50
121.5151911898330042
 51
128.2577379531363988
  0
ARC
  5
9BEF
  8
0
 10
4104.8594668495379665
 20
79.9824597431102546
 30
0.0
 40
0.0180154120358173
 50
216.2568178849525964
 51
308.2577379531364272
  0
ARC
  5
9BF0
  8
0
 10
4105.367606234494815
 20
80.4572852532087808
 30
0.0
 40
0.7133520027717148
 50
215.5239626346545947
 51
222.8875380663552903
  0
ARC
  5
9BF1
  8
0
 10
4104.7996559567791337
 20
80.0542052712719681
 30
0.0
 40
0.0170177461792116
 50
118.2076388852306934
 51
222.0969776041580985
  0
ARC
  5
9BF2
  8
0
 10
4104.1102104517667613
 20
80.2425535810052963
 30
0.0
 40
0.5171945685201543
 50
34.3618080415553919
 51
51.0450194974303813
  0
ARC
  5
9BF3
  8
0
 10
4106.9482715566000479
 20
82.2130562933506752
 30
0.0
 40
2.9621354953313919
 50
211.968501381937898
 51
215.209953971055711
  0
ARC
  5
9BF4
  8
0
 10
4468.3820269787438519
 20
337.141214185608419
 30
0.0
 40
444.3301855588322837
 50
214.7605632844937134
 51
215.3081923477195119
  0
ARC
  5
9BF5
  8
0
 10
4089.0501165706918982
 20
68.4778133309238513
 30
0.0
 40
20.5060449704011312
 50
30.840434580895991
 51
35.3081924361664719
  0
LINE
  5
9BF6
  8
0
 10
4106.0218535612548294
 20
78.5934715929674184
 30
0.0
 11
4106.9140349379940744
 21
79.1511471222070639
 31
0.0
  0
LINE
  5
9BF7
  8
0
 10
4108.6630894188137972
 20
74.3861266149975648
 30
0.0
 11
4108.2090348710153194
 21
75.5965387684133958
 31
0.0
  0
ARC
  5
9BF8
  8
0
 10
4108.2564752753669381
 20
75.6009388394464423
 30
0.0
 40
0.0476440194591934
 50
86.2766133958841266
 51
185.2989914950952084
  0
LINE
  5
9BF9
  8
0
 10
4107.9843575335926289
 20
74.1408436904458057
 30
0.0
 11
4107.5299500133132824
 21
75.3878689745458104
 31
0.0
  0
ARC
  5
9BFA
  8
0
 10
4107.4904032155345703
 20
75.3601206065635409
 30
0.0
 40
0.0483106731492514
 50
35.0557662769562199
 51
131.5350885964448935
  0
LINE
  5
9BFB
  8
0
 10
4110.934230541522993
 20
53.8592583641136429
 30
0.0
 11
4110.934230541522993
 21
51.6155268490018528
 31
0.0
  0
LINE
  5
9BFC
  8
0
 10
4110.9922977821297536
 20
53.9183493398039531
 30
0.0
 11
4111.5641518013226232
 21
53.9278485955027094
 31
0.0
  0
LINE
  5
9BFD
  8
0
 10
4111.5641518013226232
 20
51.5472456305711404
 30
0.0
 11
4110.9922991043040383
 21
51.5564358502181008
 31
0.0
  0
ARC
  5
9BFE
  8
0
 10
4110.9933305415215727
 20
51.6155268490018528
 30
0.0
 40
0.0591
 50
179.9999999999967031
 51
269.0000000019526851
  0
ARC
  5
9BFF
  8
0
 10
4110.8751754234217515
 20
53.5541155179815718
 30
0.0
 40
0.0590551181000052
 50
271.0000000001841727
 51
359.9999999999935199
  0
LINE
  5
9C00
  8
0
 10
4110.8762060773460689
 20
53.4950693942621314
 30
0.0
 11
4110.323994321021928
 21
53.4825921715777923
 31
0.0
  0
ARC
  5
9C01
  8
0
 10
4110.8751754234217515
 20
51.9206824942815928
 30
0.0
 40
0.0590551180999945
 50
0.0000000000065138
 51
88.9999999998158131
  0
LINE
  5
9C02
  8
0
 10
4110.8762060773460689
 20
51.9797286180010332
 30
0.0
 11
4110.323994321021928
 21
51.9915092660956617
 31
0.0
  0
ARC
  5
9C03
  8
0
 10
4111.0019904671316908
 20
53.8507484693608234
 30
0.0
 40
0.0682922091252218
 50
98.1595185186087633
 51
172.841763485050592
  0
LINE
  5
9C04
  8
0
 10
4107.4997948980417277
 20
74.363370286698725
 30
0.0
 11
4107.4997948997934145
 21
74.3128313096074606
 31
0.0
  0
ARC
  5
9C05
  8
0
 10
4108.116664904731806
 20
75.0056617313978649
 30
0.0
 40
0.9343539863856474
 50
229.1952278667102973
 51
270.0202087382593845
  0
ARC
  5
9C06
  8
0
 10
4108.281893668057819
 20
74.6844663489667226
 30
0.0
 40
0.5391591983867599
 50
305.8179517261468732
 51
314.8123107321162024
  0
ARC
  5
9C07
  8
0
 10
4108.6445002667551307
 20
74.3131210945544325
 30
0.0
 40
0.0206509970414797
 50
327.3389080130535262
 51
359.1959710537614114
  0
LINE
  5
9C08
  8
0
 10
4108.665149230492716
 20
74.3633702849410696
 30
0.0
 11
4108.665149230492716
 21
74.3134108795016886
 31
0.0
  0
ARC
  5
9C09
  8
0
 10
4108.0824720651917232
 20
74.9773542049210704
 30
0.0
 40
0.8464566929008851
 50
306.0893257985985088
 51
313.5013836682650208
  0
LINE
  5
9C0A
  8
0
 10
4108.6316846635936599
 20
74.333262243540716
 30
0.0
 11
4108.6316846635936599
 21
74.3549532748127291
 31
0.0
  0
ARC
  5
9C0B
  8
0
 10
4107.519905687231585
 20
74.313016866296536
 30
0.0
 40
0.0201116434610223
 50
180.5286373540646139
 51
226.5710633218023986
  0
ARC
  5
9C0C
  8
0
 10
4108.0824720651944517
 20
74.9773542049207862
 30
0.0
 40
0.8464566929005674
 50
226.4986161588863922
 51
233.3082698115520088
  0
ARC
  5
9C0D
  8
0
 10
4108.0824720651944517
 20
74.9773542049202177
 30
0.0
 40
0.8464566928997886
 50
233.3082698115520088
 51
248.0284256027943002
  0
ARC
  5
9C0E
  8
0
 10
4108.0815290465343423
 20
74.9750168138063344
 30
0.0
 40
0.8439362402797614
 50
248.0284256027943002
 51
270.9591143839741108
  0
LINE
  5
9C0F
  8
0
 10
4107.5332594666933801
 20
74.3332622436259811
 30
0.0
 11
4107.5332594666933801
 21
74.3578362219417812
 31
0.0
  0
LINE
  5
9C10
  8
0
 10
4108.665149230492716
 20
75.4732278886996539
 30
0.0
 11
4108.6651492287401197
 21
75.5237668657909325
 31
0.0
  0
ARC
  5
9C11
  8
0
 10
4108.0831652431679686
 20
74.9229479313220423
 30
0.0
 40
0.8425843672948374
 50
46.9015612972422531
 51
79.0594059022494235
  0
ARC
  5
9C12
  8
0
 10
4108.6450384413010397
 20
75.5235813091019139
 30
0.0
 40
0.0201116434610223
 50
0.5286373540646494
 51
46.57106332180458
  0
ARC
  5
9C13
  8
0
 10
4108.082472063339992
 20
74.8592439704776069
 30
0.0
 40
0.8464566929005674
 50
46.498616158886378
 51
53.3082698115520301
  0
ARC
  5
9C14
  8
0
 10
4108.0824720633409015
 20
74.859243970478289
 30
0.0
 40
0.8464566928997886
 50
53.3082698115520301
 51
77.6560970696881583
  0
LINE
  5
9C15
  8
0
 10
4108.6316846618401541
 20
75.5033359317724688
 30
0.0
 11
4108.6316846618401541
 21
75.4583782323996815
 31
0.0
  0
ARC
  5
9C16
  8
0
 10
4109.8909263616851604
 20
82.9787071082947278
 30
0.0
 40
0.4650432200673619
 50
80.2517012490087467
 51
99.7482987509912533
  0
LINE
  5
9C17
  8
0
 10
4092.7275405256341401
 20
98.2899657292286548
 30
0.0
 11
4092.7275405256341401
 21
99.0773704536286033
 31
0.0
  0
LINE
  5
9C18
  8
0
 10
4091.940138950833898
 20
98.2899657292286548
 30
0.0
 11
4091.940138950833898
 21
99.0767465466753663
 31
0.0
  0
LINE
  5
9C19
  8
0
 10
4094.3023389508339278
 20
101.4389465466753961
 30
0.0
 11
4106.1133720216339498
 21
101.4389465466753961
 31
0.0
  0
LINE
  5
9C1A
  8
0
 10
4094.3023405256340084
 20
100.6521704536285995
 30
0.0
 11
4106.1133702788356459
 21
100.6521704536285995
 31
0.0
  0
ARC
  5
9C1B
  8
0
 10
4094.3023405256340084
 20
99.0773704536286033
 30
0.0
 40
1.5747999999999991
 50
90.0
 51
180.0
  0
ARC
  5
9C1C
  8
0
 10
4094.3023389508339278
 20
99.0767465466753663
 30
0.0
 40
2.3622000000000001
 50
90.0
 51
180.0
  0
ARC
  5
9C1D
  8
0
 10
4106.1133720216339498
 20
99.0767465466753663
 30
0.0
 40
2.3622000000000001
 50
0.0
 51
90.0
  0
ARC
  5
9C1E
  8
0
 10
4106.1133702788356459
 20
99.0773704536286033
 30
0.0
 40
1.5747999999999991
 50
359.9999776845542101
 51
90.0
  0
LINE
  5
9C1F
  8
0
 10
4107.5897452499848441
 20
53.9983004355967111
 30
0.0
 11
4108.5718140862245491
 21
53.9983004355967111
 31
0.0
  0
LINE
  5
9C20
  8
0
 10
4087.4001636337238779
 20
95.6389071765753442
 30
0.0
 11
4097.2675158425436166
 21
95.6389071765753869
 31
0.0
  0
LINE
  5
9C21
  8
0
 10
4092.3798534766779085
 20
95.5798520584753533
 30
0.0
 11
4092.2878157173508953
 21
95.5798520584753533
 31
0.0
  0
LINE
  5
9C22
  8
0
 10
4092.3877691176789995
 20
95.5866933404131061
 30
0.0
 11
4092.3954123540338514
 21
95.6389071765754153
 31
0.0
  0
LINE
  5
9C23
  8
0
 10
4092.2799000763479853
 20
95.5866933404307133
 30
0.0
 11
4092.2722568401140961
 21
95.6389071765754153
 31
0.0
  0
ARC
  5
9C24
  8
0
 10
4092.3798534766779085
 20
95.5878520584753346
 30
0.0
 40
0.008
 50
270.0
 51
351.6719999699856203
  0
ARC
  5
9C25
  8
0
 10
4092.2878157173508953
 20
95.5878520584753346
 30
0.0
 40
0.008
 50
188.3279999023876883
 51
270.0
  0
LINE
  5
9C26
  8
0
 10
4091.9696665097831101
 20
98.1712300206753667
 30
0.0
 11
4092.6980129664839296
 21
98.1712300206753667
 31
0.0
  0
LINE
  5
9C27
  8
0
 10
4091.9204539113839019
 20
98.122017386175358
 30
0.0
 11
4092.7472255648840473
 21
98.122017386175358
 31
0.0
  0
LINE
  5
9C28
  8
0
 10
4091.8613987932840246
 20
98.0837890663753456
 30
0.0
 11
4092.8062806829839246
 21
98.0837890663753456
 31
0.0
  0
LINE
  5
9C29
  8
0
 10
4091.9401389507338536
 20
98.2893402474753515
 30
0.0
 11
4092.7275405253330973
 21
98.2893402474753941
 31
0.0
  0
LINE
  5
9C2A
  8
0
 10
4091.9204539113839019
 20
98.0837890663753456
 30
0.0
 11
4091.9204539113839019
 21
98.122017386175358
 31
0.0
  0
LINE
  5
9C2B
  8
0
 10
4091.9204539113839019
 20
98.122017386175358
 30
0.0
 11
4091.9696665097831101
 21
98.1712300206753667
 31
0.0
  0
LINE
  5
9C2C
  8
0
 10
4091.9696665097831101
 20
98.1712300206753667
 30
0.0
 11
4091.9696665097831101
 21
98.2893402474753515
 31
0.0
  0
LINE
  5
9C2D
  8
0
 10
4091.8613987932840246
 20
98.0837890663753456
 30
0.0
 11
4091.8613987932840246
 21
97.7688284364753741
 31
0.0
  0
LINE
  5
9C2E
  8
0
 10
4091.9007688720339502
 20
97.2682743417843056
 30
0.0
 11
4091.9665566700800809
 21
97.2443295415394147
 31
0.0
  0
ARC
  5
9C2F
  8
0
 10
4091.9598239900929002
 20
97.2258316552812545
 30
0.0
 40
0.0196850393916007
 50
359.9999999828867203
 51
70.0000000170336705
  0
LINE
  5
9C30
  8
0
 10
4091.9802801005857873
 20
97.2258392479125746
 30
0.0
 11
4091.9795090294460351
 21
97.0982851077753679
 31
0.0
  0
ARC
  5
9C31
  8
0
 10
4091.9598239897241001
 20
97.0982851077812512
 30
0.0
 40
0.0196850397208006
 50
316.4847265706121107
 51
359.9999999828867203
  0
ARC
  5
9C32
  8
0
 10
4092.3274649761451656
 20
96.7492205339055147
 30
0.0
 40
0.4872725242141726
 50
136.4847265706121107
 51
142.6444734329460005
  0
ARC
  5
9C33
  8
0
 10
4092.3407430908359856
 20
96.7390849702537849
 30
0.0
 40
0.5039769541740444
 50
142.6444734329460005
 51
158.6675640467217931
  0
LINE
  5
9C34
  8
0
 10
4091.6797364131562063
 20
96.9223717435753542
 30
0.0
 11
4092.9879430631108335
 21
96.9223717435753542
 31
0.0
  0
ARC
  5
9C35
  8
0
 10
4103.7456058716270491
 20
95.924730330920184
 30
0.0
 40
12.1614165456924894
 50
175.5522144233140978
 51
179.0651055803569136
  0
LINE
  5
9C36
  8
0
 10
4091.5464381633828452
 20
96.1231591450753768
 30
0.0
 11
4093.1212413128841945
 21
96.1231591450753768
 31
0.0
  0
LINE
  5
9C37
  8
0
 10
4087.349816174174066
 20
96.1113481214753591
 30
0.0
 11
4097.317863302094338
 21
96.1113481214753591
 31
0.0
  0
LINE
  5
9C38
  8
0
 10
4091.5464381633828452
 20
96.1231591450753768
 30
0.0
 11
4091.5346271396838347
 21
96.1113481214753591
 31
0.0
  0
LINE
  5
9C39
  8
0
 10
4087.3341185653598586
 20
96.0953741186942523
 30
0.0
 11
4087.3410726349411561
 21
95.6969757393547269
 31
0.0
  0
ARC
  5
9C3A
  8
0
 10
4087.349816174174066
 20
96.0956481214753921
 30
0.0
 40
0.0157
 50
90.0
 51
181.00000000020691
  0
ARC
  5
9C3B
  8
0
 10
4087.4001636337238779
 20
95.6980071765753451
 30
0.0
 40
0.0591
 50
181.0000000001791989
 51
270.0
  0
LINE
  5
9C3C
  8
0
 10
4088.0222696666842239
 20
95.6389071765753442
 30
0.0
 11
4088.0277355243688362
 21
95.5869030154753432
 31
0.0
  0
ARC
  5
9C3D
  8
0
 10
4088.0355664053599867
 20
95.5877260742487636
 30
0.0
 40
0.0078740156734226
 50
186.0000001121755986
 51
270.0000001741262849
  0
LINE
  5
9C3E
  8
0
 10
4088.0355664053840883
 20
95.579852058575355
 30
0.0
 11
4088.1927428446829254
 21
95.5798520590530245
 31
0.0
  0
ARC
  5
9C3F
  8
0
 10
4088.1927428446588237
 20
95.5877596511351584
 30
0.0
 40
0.0079075920821055
 50
270.0000001741262849
 51
353.7808984151652112
  0
LINE
  5
9C40
  8
0
 10
4088.2006038997978976
 20
95.5869030154753432
 30
0.0
 11
4088.2062685831338058
 21
95.6388858947103131
 31
0.0
  0
LINE
  5
9C41
  8
0
 10
4088.0868666223841501
 20
95.6389071765753442
 30
0.0
 11
4088.0923324799800866
 21
95.5869030155030543
 31
0.0
  0
ARC
  5
9C42
  8
0
 10
4088.1002015821582063
 20
95.5877300914722241
 30
0.0
 40
0.0079124473927708
 50
186.0000000184743953
 51
264.654235489495079
  0
LINE
  5
9C43
  8
0
 10
4088.2786947436839
 20
95.6389071765753442
 30
0.0
 11
4088.2841606013648743
 21
95.5869030155144657
 31
0.0
  0
ARC
  5
9C44
  8
0
 10
4088.2919914823992258
 20
95.5877260742924477
 30
0.0
 40
0.007874015717092
 50
186.0000001121755986
 51
269.9999998880151111
  0
LINE
  5
9C45
  8
0
 10
4088.2919914823842191
 20
95.579852058575355
 30
0.0
 11
4088.38460113998417
 21
95.5798520583943656
 31
0.0
  0
ARC
  5
9C46
  8
0
 10
4088.3846011399991767
 20
95.5877260741516181
 30
0.0
 40
0.007874015757281
 50
269.9999998880151111
 51
354.0000008651721828
  0
LINE
  5
9C47
  8
0
 10
4088.3924320210871883
 20
95.5869030155030543
 30
0.0
 11
4088.3978978778809505
 21
95.6389071766596572
 31
0.0
  0
LINE
  5
9C48
  8
0
 10
4088.5919254301838919
 20
95.6389071765753442
 30
0.0
 11
4088.5973912878657757
 21
95.5869030155144657
 31
0.0
  0
ARC
  5
9C49
  8
0
 10
4088.6052221688992176
 20
95.5877260742924477
 30
0.0
 40
0.007874015717092
 50
186.0000001121755986
 51
269.9999998880151111
  0
LINE
  5
9C4A
  8
0
 10
4088.605222168884211
 20
95.579852058575355
 30
0.0
 11
4088.6978318264827976
 21
95.5798520583943656
 31
0.0
  0
ARC
  5
9C4B
  8
0
 10
4088.6978318264991685
 20
95.5877260741516181
 30
0.0
 40
0.007874015757281
 50
269.9999998880151111
 51
354.0000008651721828
  0
LINE
  5
9C4C
  8
0
 10
4088.7056627075871802
 20
95.5869030155030543
 30
0.0
 11
4088.7111285643818519
 21
95.6389071766596572
 31
0.0
  0
LINE
  5
9C4D
  8
0
 10
4088.7505867091840628
 20
95.6389071765753442
 30
0.0
 11
4088.7560525668659466
 21
95.5869030155144657
 31
0.0
  0
ARC
  5
9C4E
  8
0
 10
4088.7638834478980243
 20
95.5877260742924477
 30
0.0
 40
0.007874015717092
 50
186.0000001121755986
 51
269.9999998880151111
  0
LINE
  5
9C4F
  8
0
 10
4088.7638834478839271
 20
95.579852058575355
 30
0.0
 11
4088.856493105483878
 21
95.5798520583943656
 31
0.0
  0
ARC
  5
9C50
  8
0
 10
4088.8564931054988847
 20
95.5877260741516181
 30
0.0
 40
0.007874015757281
 50
269.9999998880151111
 51
354.0000008651721828
  0
LINE
  5
9C51
  8
0
 10
4088.8643239865859869
 20
95.5869030155030543
 30
0.0
 11
4088.8697898433811133
 21
95.6389071766596572
 31
0.0
  0
LINE
  5
9C52
  8
0
 10
4088.9045978948838638
 20
95.6389071765753442
 30
0.0
 11
4088.9100637525662023
 21
95.5869030155144657
 31
0.0
  0
ARC
  5
9C53
  8
0
 10
4088.9178946335991895
 20
95.5877260742924477
 30
0.0
 40
0.007874015717092
 50
186.0000001121755986
 51
269.9999998880151111
  0
LINE
  5
9C54
  8
0
 10
4088.9178946335841829
 20
95.579852058575355
 30
0.0
 11
4089.0105042911832243
 21
95.5798520583943656
 31
0.0
  0
ARC
  5
9C55
  8
0
 10
4089.0105042911991404
 20
95.5877260741516181
 30
0.0
 40
0.007874015757281
 50
269.9999998880151111
 51
354.0000008651721828
  0
LINE
  5
9C56
  8
0
 10
4089.0183351722857878
 20
95.5869030155030543
 30
0.0
 11
4089.0204211777559067
 21
95.6067500346709238
 31
0.0
  0
LINE
  5
9C57
  8
0
 10
4089.017041325883838
 20
95.6389071765753442
 30
0.0
 11
4089.0225071835661765
 21
95.5869030155144657
 31
0.0
  0
ARC
  5
9C58
  8
0
 10
4089.0303380645991638
 20
95.5877260742924477
 30
0.0
 40
0.007874015717092
 50
186.0000001121755986
 51
269.9999998880151111
  0
LINE
  5
9C59
  8
0
 10
4089.0303380645841571
 20
95.579852058575355
 30
0.0
 11
4089.1229477221831985
 21
95.5798520583943656
 31
0.0
  0
ARC
  5
9C5A
  8
0
 10
4089.1229477221991147
 20
95.5877260741516181
 30
0.0
 40
0.007874015757281
 50
269.9999998880151111
 51
354.0000008651721828
  0
LINE
  5
9C5B
  8
0
 10
4089.1307786032862168
 20
95.5869030155030543
 30
0.0
 11
4089.1362444600808885
 21
95.6389071766596572
 31
0.0
  0
LINE
  5
9C5C
  8
0
 10
4089.2058892383838611
 20
95.6389071765753442
 30
0.0
 11
4089.2113550960661996
 21
95.5869030155144657
 31
0.0
  0
ARC
  5
9C5D
  8
0
 10
4089.2191859770991869
 20
95.5877260742924477
 30
0.0
 40
0.007874015717092
 50
186.0000001121755986
 51
269.9999998880151111
  0
LINE
  5
9C5E
  8
0
 10
4089.2191859770841802
 20
95.579852058575355
 30
0.0
 11
4089.3117956346841311
 21
95.5798520583943656
 31
0.0
  0
ARC
  5
9C5F
  8
0
 10
4089.3117956346991377
 20
95.5877260741516181
 30
0.0
 40
0.007874015757281
 50
269.9999998880151111
 51
354.0000008651721828
  0
LINE
  5
9C60
  8
0
 10
4089.3196265157871494
 20
95.5869030155030543
 30
0.0
 11
4089.3250923725818211
 21
95.6389071766596572
 31
0.0
  0
LINE
  5
9C61
  8
0
 10
4089.4395925013841406
 20
95.6389071765753442
 30
0.0
 11
4089.4450583590660244
 21
95.5869030155144657
 31
0.0
  0
ARC
  5
9C62
  8
0
 10
4089.4528892400990117
 20
95.5877260742924477
 30
0.0
 40
0.007874015717092
 50
186.0000001121755986
 51
269.9999998880151111
  0
LINE
  5
9C63
  8
0
 10
4089.452889240084005
 20
95.579852058575355
 30
0.0
 11
4089.5454988976839559
 21
95.5798520583943656
 31
0.0
  0
ARC
  5
9C64
  8
0
 10
4089.5454988976989625
 20
95.5877260741516181
 30
0.0
 40
0.007874015757281
 50
269.9999998880151111
 51
354.0000008651721828
  0
LINE
  5
9C65
  8
0
 10
4089.5533297787860647
 20
95.5869030155030543
 30
0.0
 11
4089.5554157842561835
 21
95.6067500346709238
 31
0.0
  0
LINE
  5
9C66
  8
0
 10
4089.5520359323841149
 20
95.6389071765753442
 30
0.0
 11
4089.5575017900659986
 21
95.5869030155144657
 31
0.0
  0
ARC
  5
9C67
  8
0
 10
4089.5653326710989859
 20
95.5877260742924477
 30
0.0
 40
0.007874015717092
 50
186.0000001121755986
 51
269.9999998880151111
  0
LINE
  5
9C68
  8
0
 10
4089.5653326710839792
 20
95.579852058575355
 30
0.0
 11
4089.7467092230858725
 21
95.5798520582208511
 31
0.0
  0
ARC
  5
9C69
  8
0
 10
4089.6579423286989368
 20
95.5877260741516181
 30
0.0
 40
0.007874015757281
 50
269.9999998880151111
 51
354.0000008651721828
  0
LINE
  5
9C6A
  8
0
 10
4089.6657732097860389
 20
95.5869030155030543
 30
0.0
 11
4089.6712390665811654
 21
95.6389071766596572
 31
0.0
  0
ARC
  5
9C6B
  8
0
 10
4089.7467092231008792
 20
95.5877260740673336
 30
0.0
 40
0.007874015757281
 50
269.9999998880151111
 51
354.0000008651721828
  0
LINE
  5
9C6C
  8
0
 10
4089.7545401041888908
 20
95.5869030154187413
 30
0.0
 11
4089.7600059609840173
 21
95.6389071765753442
 31
0.0
  0
LINE
  5
9C6D
  8
0
 10
4089.819363010284178
 20
95.6389071765753442
 30
0.0
 11
4089.8248288679660618
 21
95.5869030155144657
 31
0.0
  0
ARC
  5
9C6E
  8
0
 10
4089.832659748999049
 20
95.5877260742924477
 30
0.0
 40
0.007874015717092
 50
186.0000001121755986
 51
269.9999998880151111
  0
LINE
  5
9C6F
  8
0
 10
4089.8326597489840424
 20
95.579852058575355
 30
0.0
 11
4089.9252694065839933
 21
95.5798520583943656
 31
0.0
  0
ARC
  5
9C70
  8
0
 10
4089.9252694065989999
 20
95.5877260741516181
 30
0.0
 40
0.007874015757281
 50
269.9999998880151111
 51
354.0000008651721828
  0
LINE
  5
9C71
  8
0
 10
4089.9331002876861021
 20
95.5869030155030543
 30
0.0
 11
4089.938566144482138
 21
95.6389071766596572
 31
0.0
  0
LINE
  5
9C72
  8
0
 10
4090.4333268185828274
 20
95.6389071765753442
 30
0.0
 11
4090.4387926762651659
 21
95.5869030155144657
 31
0.0
  0
ARC
  5
9C73
  8
0
 10
4090.4466235572999722
 20
95.5877260742924477
 30
0.0
 40
0.007874015717092
 50
186.0000001121755986
 51
269.9999998880151111
  0
LINE
  5
9C74
  8
0
 10
4090.446623557284056
 20
95.579852058575355
 30
0.0
 11
4090.5392332148840069
 21
95.5798520583943656
 31
0.0
  0
ARC
  5
9C75
  8
0
 10
4090.539233214899923
 20
95.5877260741516181
 30
0.0
 40
0.007874015757281
 50
269.9999998880151111
 51
354.0000008651721828
  0
LINE
  5
9C76
  8
0
 10
4090.5470640959870252
 20
95.5869030155030543
 30
0.0
 11
4090.5525299527807874
 21
95.6389071766596572
 31
0.0
  0
LINE
  5
9C77
  8
0
 10
4090.1482539186840768
 20
95.6389071765753442
 30
0.0
 11
4090.1537197763659606
 21
95.5869030155144657
 31
0.0
  0
ARC
  5
9C78
  8
0
 10
4090.1615506573989478
 20
95.5877260742924477
 30
0.0
 40
0.007874015717092
 50
186.0000001121755986
 51
269.9999998880151111
  0
LINE
  5
9C79
  8
0
 10
4090.1615506573830316
 20
95.579852058575355
 30
0.0
 11
4090.3757239955498335
 21
95.5798520581567601
 31
0.0
  0
ARC
  5
9C7A
  8
0
 10
4090.2541603149988987
 20
95.5877260741516181
 30
0.0
 40
0.007874015757281
 50
269.9999998880151111
 51
354.0000008651721828
  0
LINE
  5
9C7B
  8
0
 10
4090.2619911960860009
 20
95.5869030155030543
 30
0.0
 11
4090.2674570528820368
 21
95.6389071766596572
 31
0.0
  0
ARC
  5
9C7C
  8
0
 10
4090.2971958988991901
 20
95.5877260741516181
 30
0.0
 40
0.007874015757281
 50
269.9999998880151111
 51
354.0000008651721828
  0
LINE
  5
9C7D
  8
0
 10
4090.3050267799858375
 20
95.5869030155030543
 30
0.0
 11
4090.3104926367809639
 21
95.6389071766596572
 31
0.0
  0
LINE
  5
9C7E
  8
0
 10
4090.3835807185510021
 20
95.5869262834155791
 30
0.0
 11
4090.3890441297808138
 21
95.6389071765753442
 31
0.0
  0
ARC
  5
9C7F
  8
0
 10
4090.3757239955662044
 20
95.5877520581567666
 30
0.0
 40
0.0079
 50
269.9999998880151111
 51
354.0000008651738881
  0
LINE
  5
9C80
  8
0
 10
4091.1050521933830169
 20
95.6389071765753442
 30
0.0
 11
4091.1105180510658101
 21
95.5869030155144657
 31
0.0
  0
ARC
  5
9C81
  8
0
 10
4091.1183489320987974
 20
95.5877260742924477
 30
0.0
 40
0.007874015717092
 50
186.0000001121755986
 51
269.9999998880151111
  0
LINE
  5
9C82
  8
0
 10
4091.1183489320828812
 20
95.579852058575355
 30
0.0
 11
4091.2109585896841963
 21
95.5798520583943656
 31
0.0
  0
ARC
  5
9C83
  8
0
 10
4091.210958589699203
 20
95.5877260741516181
 30
0.0
 40
0.007874015757281
 50
269.9999998880151111
 51
354.0000008651721828
  0
LINE
  5
9C84
  8
0
 10
4091.2187894707858504
 20
95.5869030155030543
 30
0.0
 11
4091.2242553275809769
 21
95.6389071766596572
 31
0.0
  0
LINE
  5
9C85
  8
0
 10
4090.8199792934838115
 20
95.6389071765753442
 30
0.0
 11
4090.82544515116615
 21
95.5869030155144657
 31
0.0
  0
ARC
  5
9C86
  8
0
 10
4090.833276032197773
 20
95.5877260742924477
 30
0.0
 40
0.007874015717092
 50
186.0000001121755986
 51
269.9999998880151111
  0
LINE
  5
9C87
  8
0
 10
4090.8332760321841306
 20
95.579852058575355
 30
0.0
 11
4091.0474493703500229
 21
95.5798520581567601
 31
0.0
  0
ARC
  5
9C88
  8
0
 10
4090.9258856897999976
 20
95.5877260741516181
 30
0.0
 40
0.007874015757281
 50
269.9999998880151111
 51
354.0000008651721828
  0
LINE
  5
9C89
  8
0
 10
4090.9337165708861903
 20
95.5869030155030543
 30
0.0
 11
4090.939182427680862
 21
95.6389071766596572
 31
0.0
  0
ARC
  5
9C8A
  8
0
 10
4090.9689212736989248
 20
95.5877260741516181
 30
0.0
 40
0.007874015757281
 50
269.9999998880151111
 51
354.0000008651721828
  0
LINE
  5
9C8B
  8
0
 10
4090.9767521547860269
 20
95.5869030155030543
 30
0.0
 11
4090.9822180115820629
 21
95.6389071766596572
 31
0.0
  0
LINE
  5
9C8C
  8
0
 10
4091.0553060933511915
 20
95.5869262834155791
 30
0.0
 11
4091.0607695045819128
 21
95.6389071765753442
 31
0.0
  0
ARC
  5
9C8D
  8
0
 10
4091.0474493703650296
 20
95.5877520581567666
 30
0.0
 40
0.0079
 50
269.9999998880151111
 51
354.0000008651738881
  0
LINE
  5
9C8E
  8
0
 10
4091.5358915884839917
 20
95.6389071765753442
 30
0.0
 11
4091.5413574461699682
 21
95.5869030154753858
 31
0.0
  0
ARC
  5
9C8F
  8
0
 10
4091.5491883271602092
 20
95.5877260742488062
 30
0.0
 40
0.0078740156734226
 50
186.0000001121755986
 51
270.0000001741262849
  0
LINE
  5
9C90
  8
0
 10
4091.549188327183856
 20
95.5798520585753835
 30
0.0
 11
4091.7063647664831478
 21
95.5798520590530671
 31
0.0
  0
ARC
  5
9C91
  8
0
 10
4091.7063647664590462
 20
95.5877596511351584
 30
0.0
 40
0.0079075920821055
 50
270.0000001741262849
 51
353.7808984151652112
  0
LINE
  5
9C92
  8
0
 10
4091.7142258215981201
 20
95.5869030154753858
 30
0.0
 11
4091.7198905049349378
 21
95.6388858947103557
 31
0.0
  0
LINE
  5
9C93
  8
0
 10
4091.6004885441839178
 20
95.6389071765753869
 30
0.0
 11
4091.6059544017812186
 21
95.5869030155030543
 31
0.0
  0
ARC
  5
9C94
  8
0
 10
4091.613823503957974
 20
95.5877300914722241
 30
0.0
 40
0.0079124473927708
 50
186.0000000184743953
 51
264.654235489495079
  0
ARC
  5
9C95
  8
0
 10
4091.6797364131562063
 20
96.8632717435753534
 30
0.0
 40
0.0591
 50
90.0
 51
175.5522144233108008
  0
LINE
  5
9C96
  8
0
 10
4091.8613987932330929
 20
97.7688284364753741
 30
0.0
 11
4091.9007688720339502
 21
97.7688284364753741
 31
0.0
  0
LINE
  5
9C97
  8
0
 10
4092.7669106043340435
 20
97.7688284364753457
 30
0.0
 11
4092.8062806830339468
 21
97.7688284364753741
 31
0.0
  0
LINE
  5
9C98
  8
0
 10
4092.7472255648840473
 20
98.0837890663753456
 30
0.0
 11
4092.7472255648840473
 21
98.122017386175358
 31
0.0
  0
LINE
  5
9C99
  8
0
 10
4092.7472255648840473
 20
98.122017386175358
 30
0.0
 11
4092.6980129664839296
 21
98.1712300206753667
 31
0.0
  0
LINE
  5
9C9A
  8
0
 10
4092.6980129664839296
 20
98.1712300206753667
 30
0.0
 11
4092.6980129664839296
 21
98.2893402474753515
 31
0.0
  0
LINE
  5
9C9B
  8
0
 10
4092.8062806829839246
 20
98.0837890663753456
 30
0.0
 11
4092.8062806829839246
 21
97.7688284364753741
 31
0.0
  0
LINE
  5
9C9C
  8
0
 10
4092.7669106043340435
 20
97.2682743418206854
 30
0.0
 11
4092.7011228061869588
 21
97.2443295415394147
 31
0.0
  0
ARC
  5
9C9D
  8
0
 10
4092.707855486175049
 20
97.2258316552812545
 30
0.0
 40
0.0196850393916007
 50
109.9999999829663011
 51
180.0000000171133081
  0
LINE
  5
9C9E
  8
0
 10
4092.6873993756807977
 20
97.2258392479125746
 30
0.0
 11
4092.6881704468219141
 21
97.0982851077753679
 31
0.0
  0
ARC
  5
9C9F
  8
0
 10
4092.7078554865429396
 20
97.0982851077812512
 30
0.0
 40
0.0196850397208006
 50
180.0000000171133081
 51
223.5152734293878893
  0
ARC
  5
9CA0
  8
0
 10
4092.3402145001218742
 20
96.7492205339055147
 30
0.0
 40
0.4872725242141726
 50
37.3555265670539782
 51
43.515273429387868
  0
ARC
  5
9CA1
  8
0
 10
4092.3269363854319636
 20
96.7390849702537849
 30
0.0
 40
0.5039769541740444
 50
21.3324359532782104
 51
37.3555265670539782
  0
ARC
  5
9CA2
  8
0
 10
4080.9220736046399907
 20
95.924730330920184
 30
0.0
 40
12.1614165456924894
 50
0.9348944196430883
 51
4.4477855766859502
  0
LINE
  5
9CA3
  8
0
 10
4093.1212413128841945
 20
96.1231591450753768
 30
0.0
 11
4093.1330523365841145
 21
96.1113481214753591
 31
0.0
  0
LINE
  5
9CA4
  8
0
 10
4097.3335609109062716
 20
96.0953741186942523
 30
0.0
 11
4097.3266068413277026
 21
95.6969757393547269
 31
0.0
  0
ARC
  5
9CA5
  8
0
 10
4097.317863302094338
 20
96.0956481214753921
 30
0.0
 40
0.0157
 50
358.9999999997929763
 51
90.0
  0
ARC
  5
9CA6
  8
0
 10
4097.2675158425436166
 20
95.6980071765753451
 30
0.0
 40
0.0591
 50
270.0
 51
358.9999999998207159
  0
LINE
  5
9CA7
  8
0
 10
4096.6454098095837253
 20
95.6389071765753442
 30
0.0
 11
4096.6399439518982035
 21
95.5869030154753432
 31
0.0
  0
ARC
  5
9CA8
  8
0
 10
4096.6321130709065983
 20
95.5877260742487636
 30
0.0
 40
0.0078740156734226
 50
269.9999998258737151
 51
353.9999998878242877
  0
LINE
  5
9CA9
  8
0
 10
4096.6321130708838609
 20
95.579852058575355
 30
0.0
 11
4096.4749366315827501
 21
95.5798520590530245
 31
0.0
  0
ARC
  5
9CAA
  8
0
 10
4096.474936631608216
 20
95.5877596511351584
 30
0.0
 40
0.0079075920821055
 50
186.2191015848331972
 51
269.9999998258737151
  0
LINE
  5
9CAB
  8
0
 10
4096.4670755764700516
 20
95.5869030154753432
 30
0.0
 11
4096.4614108931327792
 21
95.6388858947103131
 31
0.0
  0
LINE
  5
9CAC
  8
0
 10
4096.5808128538837991
 20
95.6389071765753442
 30
0.0
 11
4096.5753469962855888
 21
95.5869030155030543
 31
0.0
  0
ARC
  5
9CAD
  8
0
 10
4096.5674778941092882
 20
95.5877300914722241
 30
0.0
 40
0.0079124473927708
 50
275.345764510504921
 51
353.999999981525491
  0
LINE
  5
9CAE
  8
0
 10
4096.388984732582685
 20
95.6389071765753442
 30
0.0
 11
4096.3835188749008012
 21
95.5869030155144657
 31
0.0
  0
ARC
  5
9CAF
  8
0
 10
4096.3756879938691782
 20
95.5877260742924477
 30
0.0
 40
0.007874015717092
 50
270.0000001119847752
 51
353.9999998878242877
  0
LINE
  5
9CB0
  8
0
 10
4096.3756879938828206
 20
95.579852058575355
 30
0.0
 11
4096.2830783362833245
 21
95.5798520583943656
 31
0.0
  0
ARC
  5
9CB1
  8
0
 10
4096.2830783362687725
 20
95.5877260741516181
 30
0.0
 40
0.007874015757281
 50
185.9999991348261119
 51
270.0000001119847752
  0
LINE
  5
9CB2
  8
0
 10
4096.2752474551807609
 20
95.5869030155030543
 30
0.0
 11
4096.2697815983856344
 21
95.6389071766596572
 31
0.0
  0
LINE
  5
9CB3
  8
0
 10
4096.0757540460836026
 20
95.6389071765753442
 30
0.0
 11
4096.0702881884017188
 21
95.5869030155144657
 31
0.0
  0
ARC
  5
9CB4
  8
0
 10
4096.0624573073673673
 20
95.5877260742924477
 30
0.0
 40
0.007874015717092
 50
270.0000001119847752
 51
353.9999998878242877
  0
LINE
  5
9CB5
  8
0
 10
4096.0624573073828287
 20
95.579852058575355
 30
0.0
 11
4095.9698476497837873
 21
95.5798520583943656
 31
0.0
  0
ARC
  5
9CB6
  8
0
 10
4095.9698476497678712
 20
95.5877260741516181
 30
0.0
 40
0.007874015757281
 50
185.9999991348261119
 51
270.0000001119847752
  0
LINE
  5
9CB7
  8
0
 10
4095.9620167686812238
 20
95.5869030155030543
 30
0.0
 11
4095.9565509118860973
 21
95.6389071766596572
 31
0.0
  0
LINE
  5
9CB8
  8
0
 10
4095.9170927670829769
 20
95.6389071765753442
 30
0.0
 11
4095.9116269094010931
 21
95.5869030155144657
 31
0.0
  0
ARC
  5
9CB9
  8
0
 10
4095.9037960283690154
 20
95.5877260742924477
 30
0.0
 40
0.007874015717092
 50
270.0000001119847752
 51
353.9999998878242877
  0
LINE
  5
9CBA
  8
0
 10
4095.9037960283840221
 20
95.579852058575355
 30
0.0
 11
4095.8111863707840712
 21
95.5798520583943656
 31
0.0
  0
ARC
  5
9CBB
  8
0
 10
4095.811186370768155
 20
95.5877260741516181
 30
0.0
 40
0.007874015757281
 50
185.9999991348261119
 51
270.0000001119847752
  0
LINE
  5
9CBC
  8
0
 10
4095.8033554896810529
 20
95.5869030155030543
 30
0.0
 11
4095.7978896328859264
 21
95.6389071766596572
 31
0.0
  0
LINE
  5
9CBD
  8
0
 10
4095.7630815813840854
 20
95.6389071765753442
 30
0.0
 11
4095.7576157237022016
 21
95.5869030155144657
 31
0.0
  0
ARC
  5
9CBE
  8
0
 10
4095.7497848426692144
 20
95.5877260742924477
 30
0.0
 40
0.007874015717092
 50
270.0000001119847752
 51
353.9999998878242877
  0
LINE
  5
9CBF
  8
0
 10
4095.7497848426828568
 20
95.579852058575355
 30
0.0
 11
4095.6571751850838154
 21
95.5798520583943656
 31
0.0
  0
ARC
  5
9CC0
  8
0
 10
4095.6571751850688088
 20
95.5877260741516181
 30
0.0
 40
0.007874015757281
 50
185.9999991348261119
 51
270.0000001119847752
  0
LINE
  5
9CC1
  8
0
 10
4095.6493443039807971
 20
95.5869030155030543
 30
0.0
 11
4095.647258298511133
 21
95.6067500346709238
 31
0.0
  0
LINE
  5
9CC2
  8
0
 10
4095.6506381503841112
 20
95.6389071765753442
 30
0.0
 11
4095.6451722927017727
 21
95.5869030155144657
 31
0.0
  0
ARC
  5
9CC3
  8
0
 10
4095.6373414116687854
 20
95.5877260742924477
 30
0.0
 40
0.007874015717092
 50
270.0000001119847752
 51
353.9999998878242877
  0
LINE
  5
9CC4
  8
0
 10
4095.6373414116828826
 20
95.579852058575355
 30
0.0
 11
4095.5447317540838412
 21
95.5798520583943656
 31
0.0
  0
ARC
  5
9CC5
  8
0
 10
4095.5447317540679251
 20
95.5877260741516181
 30
0.0
 40
0.007874015757281
 50
185.9999991348261119
 51
270.0000001119847752
  0
LINE
  5
9CC6
  8
0
 10
4095.5369008729808229
 20
95.5869030155030543
 30
0.0
 11
4095.5314350161861512
 21
95.6389071766596572
 31
0.0
  0
LINE
  5
9CC7
  8
0
 10
4095.4617902378840881
 20
95.6389071765753442
 30
0.0
 11
4095.4563243802022043
 21
95.5869030155144657
 31
0.0
  0
ARC
  5
9CC8
  8
0
 10
4095.4484934991678529
 20
95.5877260742924477
 30
0.0
 40
0.007874015717092
 50
270.0000001119847752
 51
353.9999998878242877
  0
LINE
  5
9CC9
  8
0
 10
4095.4484934991828595
 20
95.579852058575355
 30
0.0
 11
4095.3558838415829086
 21
95.5798520583943656
 31
0.0
  0
ARC
  5
9CCA
  8
0
 10
4095.355883841567902
 20
95.5877260741516181
 30
0.0
 40
0.007874015757281
 50
185.9999991348261119
 51
270.0000001119847752
  0
LINE
  5
9CCB
  8
0
 10
4095.3480529604798903
 20
95.5869030155030543
 30
0.0
 11
4095.3425871036861281
 21
95.6389071766596572
 31
0.0
  0
LINE
  5
9CCC
  8
0
 10
4095.2280869748828991
 20
95.6389071765753442
 30
0.0
 11
4095.2226211172010153
 21
95.5869030155144657
 31
0.0
  0
ARC
  5
9CCD
  8
0
 10
4095.2147902361689376
 20
95.5877260742924477
 30
0.0
 40
0.007874015717092
 50
270.0000001119847752
 51
353.9999998878242877
  0
LINE
  5
9CCE
  8
0
 10
4095.2147902361830347
 20
95.579852058575355
 30
0.0
 11
4095.1221805785839933
 21
95.5798520583943656
 31
0.0
  0
ARC
  5
9CCF
  8
0
 10
4095.1221805785680772
 20
95.5877260741516181
 30
0.0
 40
0.007874015757281
 50
185.9999991348261119
 51
270.0000001119847752
  0
LINE
  5
9CD0
  8
0
 10
4095.114349697480975
 20
95.5869030155030543
 30
0.0
 11
4095.1122636920122204
 21
95.6067500346709238
 31
0.0
  0
LINE
  5
9CD1
  8
0
 10
4095.1156435438829249
 20
95.6389071765753442
 30
0.0
 11
4095.1101776862010411
 21
95.5869030155144657
 31
0.0
  0
ARC
  5
9CD2
  8
0
 10
4095.1023468051689633
 20
95.5877260742924477
 30
0.0
 40
0.007874015717092
 50
270.0000001119847752
 51
353.9999998878242877
  0
LINE
  5
9CD3
  8
0
 10
4095.10234680518397
 20
95.579852058575355
 30
0.0
 11
4094.9209702531820767
 21
95.5798520582208511
 31
0.0
  0
ARC
  5
9CD4
  8
0
 10
4095.009737147568103
 20
95.5877260741516181
 30
0.0
 40
0.007874015757281
 50
185.9999991348261119
 51
270.0000001119847752
  0
LINE
  5
9CD5
  8
0
 10
4095.0019062664810008
 20
95.5869030155030543
 30
0.0
 11
4094.9964404096858743
 21
95.6389071766596572
 31
0.0
  0
ARC
  5
9CD6
  8
0
 10
4094.9209702531661605
 20
95.5877260740673336
 30
0.0
 40
0.007874015757281
 50
185.9999991348261119
 51
270.0000001119847752
  0
LINE
  5
9CD7
  8
0
 10
4094.9131393720790584
 20
95.5869030154187413
 30
0.0
 11
4094.9076735152839319
 21
95.6389071765753442
 31
0.0
  0
LINE
  5
9CD8
  8
0
 10
4094.8483164659828617
 20
95.6389071765753442
 30
0.0
 11
4094.8428506083009779
 21
95.5869030155144657
 31
0.0
  0
ARC
  5
9CD9
  8
0
 10
4094.8350197272689002
 20
95.5877260742924477
 30
0.0
 40
0.007874015717092
 50
270.0000001119847752
 51
353.9999998878242877
  0
LINE
  5
9CDA
  8
0
 10
4094.8350197272829973
 20
95.579852058575355
 30
0.0
 11
4094.742410069683956
 21
95.5798520583943656
 31
0.0
  0
ARC
  5
9CDB
  8
0
 10
4094.7424100696680398
 20
95.5877260741516181
 30
0.0
 40
0.007874015757281
 50
185.9999991348261119
 51
270.0000001119847752
  0
LINE
  5
9CDC
  8
0
 10
4094.7345791885809376
 20
95.5869030155030543
 30
0.0
 11
4094.7291133317858112
 21
95.6389071766596572
 31
0.0
  0
LINE
  5
9CDD
  8
0
 10
4094.2343526576842123
 20
95.6389071765753442
 30
0.0
 11
4094.2288868000018738
 21
95.5869030155144657
 31
0.0
  0
ARC
  5
9CDE
  8
0
 10
4094.221055918967977
 20
95.5877260742924477
 30
0.0
 40
0.007874015717092
 50
270.0000001119847752
 51
353.9999998878242877
  0
LINE
  5
9CDF
  8
0
 10
4094.2210559189838932
 20
95.579852058575355
 30
0.0
 11
4094.1284462613839423
 21
95.5798520583943656
 31
0.0
  0
ARC
  5
9CE0
  8
0
 10
4094.1284462613680262
 20
95.5877260741516181
 30
0.0
 40
0.007874015757281
 50
185.9999991348261119
 51
270.0000001119847752
  0
LINE
  5
9CE1
  8
0
 10
4094.120615380280924
 20
95.5869030155030543
 30
0.0
 11
4094.1151495234857975
 21
95.6389071766596572
 31
0.0
  0
LINE
  5
9CE2
  8
0
 10
4094.5194255575838724
 20
95.6389071765753442
 30
0.0
 11
4094.5139596999010791
 21
95.5869030155144657
 31
0.0
  0
ARC
  5
9CE3
  8
0
 10
4094.5061288188690014
 20
95.5877260742924477
 30
0.0
 40
0.007874015717092
 50
270.0000001119847752
 51
353.9999998878242877
  0
LINE
  5
9CE4
  8
0
 10
4094.5061288188840081
 20
95.579852058575355
 30
0.0
 11
4094.2919554807172062
 21
95.5798520581567601
 31
0.0
  0
ARC
  5
9CE5
  8
0
 10
4094.413519161268141
 20
95.5877260741516181
 30
0.0
 40
0.007874015757281
 50
185.9999991348261119
 51
270.0000001119847752
  0
LINE
  5
9CE6
  8
0
 10
4094.4056882801810389
 20
95.5869030155030543
 30
0.0
 11
4094.4002224233859124
 21
95.6389071766596572
 31
0.0
  0
ARC
  5
9CE7
  8
0
 10
4094.3704835773678496
 20
95.5877260741516181
 30
0.0
 40
0.007874015757281
 50
185.9999991348261119
 51
270.0000001119847752
  0
LINE
  5
9CE8
  8
0
 10
4094.3626526962812022
 20
95.5869030155030543
 30
0.0
 11
4094.3571868394860758
 21
95.6389071766596572
 31
0.0
  0
LINE
  5
9CE9
  8
0
 10
4094.2840987577160377
 20
95.5869262834155791
 30
0.0
 11
4094.2786353464862259
 21
95.6389071765753442
 31
0.0
  0
ARC
  5
9CEA
  8
0
 10
4094.2919554807008353
 20
95.5877520581567666
 30
0.0
 40
0.0079
 50
185.9999991348261119
 51
270.0000001119847752
  0
LINE
  5
9CEB
  8
0
 10
4093.5626272828840229
 20
95.6389071765753442
 30
0.0
 11
4093.5571614252007748
 21
95.5869030155144657
 31
0.0
  0
ARC
  5
9CEC
  8
0
 10
4093.5493305441691518
 20
95.5877260742924477
 30
0.0
 40
0.007874015717092
 50
270.0000001119847752
 51
353.9999998878242877
  0
LINE
  5
9CED
  8
0
 10
4093.5493305441841585
 20
95.579852058575355
 30
0.0
 11
4093.4567208865828434
 21
95.5798520583943656
 31
0.0
  0
ARC
  5
9CEE
  8
0
 10
4093.4567208865678367
 20
95.5877260741516181
 30
0.0
 40
0.007874015757281
 50
185.9999991348261119
 51
270.0000001119847752
  0
LINE
  5
9CEF
  8
0
 10
4093.4488900054811893
 20
95.5869030155030543
 30
0.0
 11
4093.4434241486860628
 21
95.6389071766596572
 31
0.0
  0
LINE
  5
9CF0
  8
0
 10
4093.8477001827827735
 20
95.6389071765753442
 30
0.0
 11
4093.8422343251017992
 21
95.5869030155144657
 31
0.0
  0
ARC
  5
9CF1
  8
0
 10
4093.834403444068812
 20
95.5877260742924477
 30
0.0
 40
0.007874015717092
 50
270.0000001119847752
 51
353.9999998878242877
  0
LINE
  5
9CF2
  8
0
 10
4093.8344034440829091
 20
95.579852058575355
 30
0.0
 11
4093.6202301059170168
 21
95.5798520581567601
 31
0.0
  0
ARC
  5
9CF3
  8
0
 10
4093.7417937864688611
 20
95.5877260741516181
 30
0.0
 40
0.007874015757281
 50
185.9999991348261119
 51
270.0000001119847752
  0
LINE
  5
9CF4
  8
0
 10
4093.7339629053808494
 20
95.5869030155030543
 30
0.0
 11
4093.7284970485861777
 21
95.6389071766596572
 31
0.0
  0
ARC
  5
9CF5
  8
0
 10
4093.6987582025690244
 20
95.5877260741516181
 30
0.0
 40
0.007874015757281
 50
185.9999991348261119
 51
270.0000001119847752
  0
LINE
  5
9CF6
  8
0
 10
4093.6909273214810128
 20
95.5869030155030543
 30
0.0
 11
4093.6854614646858863
 21
95.6389071766596572
 31
0.0
  0
LINE
  5
9CF7
  8
0
 10
4093.6123733829158482
 20
95.5869262834155791
 30
0.0
 11
4093.6069099716851269
 21
95.6389071765753442
 31
0.0
  0
ARC
  5
9CF8
  8
0
 10
4093.6202301059011006
 20
95.5877520581567666
 30
0.0
 40
0.0079
 50
185.9999991348261119
 51
270.0000001119847752
  0
LINE
  5
9CF9
  8
0
 10
4093.1317878877830481
 20
95.6389071765753442
 30
0.0
 11
4093.126322030097981
 21
95.5869030154753858
 31
0.0
  0
ARC
  5
9CFA
  8
0
 10
4093.1184911491081948
 20
95.5877260742488062
 30
0.0
 40
0.0078740156734226
 50
269.9999998258737151
 51
353.9999998878242877
  0
LINE
  5
9CFB
  8
0
 10
4093.1184911490831837
 20
95.5798520585753835
 30
0.0
 11
4092.9613147097838919
 21
95.5798520590530671
 31
0.0
  0
ARC
  5
9CFC
  8
0
 10
4092.9613147098079935
 20
95.5877596511351584
 30
0.0
 40
0.0079075920821055
 50
186.2191015848331972
 51
269.9999998258737151
  0
LINE
  5
9CFD
  8
0
 10
4092.9534536546689196
 20
95.5869030154753858
 30
0.0
 11
4092.9477889713330114
 21
95.6388858947103557
 31
0.0
  0
LINE
  5
9CFE
  8
0
 10
4093.0671909320840314
 20
95.6389071765753869
 30
0.0
 11
4093.0617250744871853
 21
95.5869030155030543
 31
0.0
  0
ARC
  5
9CFF
  8
0
 10
4093.0538559723090657
 20
95.5877300914722241
 30
0.0
 40
0.0079124473927708
 50
275.345764510504921
 51
353.999999981525491
  0
ARC
  5
9D00
  8
0
 10
4092.9879430631108335
 20
96.8632717435753534
 30
0.0
 40
0.0591
 50
4.4477855766891974
 51
90.0
  0
CIRCLE
  5
9D01
  8
0
 10
4092.3338397381830873
 20
97.1585922159753608
 30
0.0
 40
0.0236220472
  0
LINE
  5
9D02
  8
0
 10
4092.7669106043340435
 20
97.7688284364753741
 30
0.0
 11
4092.7669106043340435
 21
97.2682743418753688
 31
0.0
  0
LINE
  5
9D03
  8
0
 10
4091.9007688720339502
 20
97.7688284364753741
 30
0.0
 11
4091.9007688720339502
 21
97.2682743418753688
 31
0.0
  0
LINE
  5
9D04
  8
0
 10
4091.9740994004300774
 20
97.0847310147753717
 30
0.0
 11
4092.6935800758587902
 21
97.0847310147753717
 31
0.0
  0
LINE
  5
9D05
  8
0
 10
4091.9665566699832198
 20
97.2443295415753681
 30
0.0
 11
4092.7011228062337977
 21
97.2443295415753681
 31
0.0
  0
LINE
  5
9D06
  8
0
 10
4091.9007688720339502
 20
97.2963874915753735
 30
0.0
 11
4092.7669106043340435
 21
97.2963874915753735
 31
0.0
  0
LINE
  5
9D07
  8
0
 10
4107.9116352287501286
 20
74.4440548553063053
 30
0.0
 11
4108.5209732121547859
 21
74.6661120175729565
 31
0.0
  0
ARC
  5
9D08
  8
0
 10
3438.2171078696010227
 20
-166.0389532588908992
 30
0.0
 40
711.6302505106873468
 50
19.562767028079989
 51
19.7529026679597308
  0
ARC
  5
9D09
  8
0
 10
4197.2562847653280187
 20
105.7106514421533063
 30
0.0
 40
94.0792660242466781
 50
199.283426114939914
 51
200.7216532228372046
  0
LINE
  5
9D0A
  8
0
 10
4109.597599983222608
 20
67.6223399383270305
 30
0.0
 11
4109.5975999833226524
 21
53.4271601276083032
 31
0.0
  0
LINE
  5
9D0B
  8
0
 10
4110.1094110069234375
 20
67.6223399383270163
 30
0.0
 11
4110.1094110069234375
 21
53.3779229246753602
 31
0.0
  0
LINE
  5
9D0C
  8
0
 10
4107.6094110069716407
 20
51.5286306343270013
 30
0.0
 11
4108.5542928966724503
 21
51.5286306343270013
 31
0.0
  0
LINE
  5
9D0D
  8
0
 10
4107.7632250715269038
 20
50.3420268989270099
 30
0.0
 11
4108.4004788321180968
 21
50.3420268989270099
 31
0.0
  0
LINE
  5
9D0E
  8
0
 10
4107.6846096341141674
 20
50.4170795710738702
 30
0.0
 11
4107.633039722571084
 21
51.5286306343270013
 31
0.0
  0
ARC
  5
9D0F
  8
0
 10
4107.7632250715269038
 20
50.4207268989270219
 30
0.0
 40
0.0787
 50
182.6563071484868885
 51
270.0
  0
LINE
  5
9D10
  8
0
 10
4107.6094110069716407
 20
51.8742479284801377
 30
0.0
 11
4107.6094110069716407
 21
51.5286306343270013
 31
0.0
  0
LINE
  5
9D11
  8
0
 10
4108.4790942695290141
 20
50.4170795710738702
 30
0.0
 11
4108.5306641810720976
 21
51.5286306343270013
 31
0.0
  0
ARC
  5
9D12
  8
0
 10
4108.4004788321180968
 20
50.4207268989270219
 30
0.0
 40
0.0787
 50
270.0
 51
357.3436928515130262
  0
LINE
  5
9D13
  8
0
 10
4108.5542928966724503
 20
51.8742300145064377
 30
0.0
 11
4108.5542928966724503
 21
51.5286306343270013
 31
0.0
  0
LINE
  5
9D14
  8
0
 10
4107.8258676998721057
 20
50.3420268989270099
 30
0.0
 11
4107.8258676998721057
 21
48.3737573655333293
 31
0.0
  0
LINE
  5
9D15
  8
0
 10
4108.3376787234710719
 20
48.3737573655333293
 30
0.0
 11
4108.3376787234710719
 21
50.3420268989270099
 31
0.0
  0
CIRCLE
  5
9D16
  8
0
 10
4108.0818683368233906
 20
52.7384743457270204
 30
0.0
 40
0.9849381852666574
  0
ARC
  5
9D17
  8
0
 10
4108.4089114923635861
 20
37.4413208402479398
 30
0.0
 40
15.8681451783129202
 50
91.2995386641398881
 51
93.2041056483490991
  0
ARC
  5
9D18
  8
0
 10
4107.6642208030343681
 20
50.7439865130384717
 30
0.0
 40
2.5446517090753771
 50
93.2041056483490991
 51
95.1339960356723964
  0
ARC
  5
9D19
  8
0
 10
4107.4664822634504162
 20
52.9448541020259711
 30
0.0
 40
0.3349189934981636
 50
95.1339960356723964
 51
124.8506673813713945
  0
ARC
  5
9D1A
  8
0
 10
4107.4356313085418151
 20
52.989159154977898
 30
0.0
 40
0.2809308546546928
 50
124.8506673813713945
 51
154.2340201196230112
  0
ARC
  5
9D1B
  8
0
 10
4107.6504081975781446
 20
52.885489233739122
 30
0.0
 40
0.5194189353493261
 50
154.2340201196230112
 51
167.0180536113770984
  0
ARC
  5
9D1C
  8
0
 10
4108.4720933839080317
 20
52.6960609500038686
 30
0.0
 40
1.3626565175951371
 50
167.0180536113770984
 51
178.2163008562378934
  0
ARC
  5
9D1D
  8
0
 10
4108.1473039684924515
 20
52.7388859580437668
 30
0.0
 40
1.0372069168723059
 50
180.0226719855085946
 51
197.5621069216265937
  0
ARC
  5
9D1E
  8
0
 10
4107.5323279898611872
 20
52.5416414499275177
 30
0.0
 40
0.3913861687485696
 50
197.1978037339727905
 51
213.443008940581592
  0
ARC
  5
9D1F
  8
0
 10
4107.4474421185086612
 20
52.500976486581699
 30
0.0
 40
0.2984204651145464
 50
215.9107341906048134
 51
255.1351879749651062
  0
ARC
  5
9D20
  8
0
 10
4107.5380616819120405
 20
52.8621353451652922
 30
0.0
 40
0.6707593090710205
 50
255.5678023157578025
 51
270.3526204601952827
  0
ARC
  5
9D21
  8
0
 10
4108.2801294023611263
 20
63.1478543620165311
 30
0.0
 40
10.9812883510838493
 50
266.1468352340543788
 51
271.9890584663361892
  0
ARC
  5
9D22
  8
0
 10
4108.6442117142523784
 20
52.6645028590311099
 30
0.0
 40
0.4916165418718247
 50
271.9890584663361892
 51
292.4089295233989105
  0
ARC
  5
9D23
  8
0
 10
4108.7415152897783628
 20
52.4285310796365209
 30
0.0
 40
0.2363702559421466
 50
292.4089295233989105
 51
331.063283711846509
  0
ARC
  5
9D24
  8
0
 10
4108.2646191402918703
 20
52.6921907726111911
 30
0.0
 40
0.781298114556412
 50
331.063283711846509
 51
350.3955499295797722
  0
ARC
  5
9D25
  8
0
 10
4108.0040063472579277
 20
52.7362909478313497
 30
0.0
 40
1.045615827446466
 50
350.3955499295797722
 51
9.890930124511744
  0
ARC
  5
9D26
  8
0
 10
4108.201888717001566
 20
52.7707946720911494
 30
0.0
 40
0.844747862744289
 50
9.8909301245134476
 51
26.4685369954247918
  0
ARC
  5
9D27
  8
0
 10
4108.7345784982799159
 20
53.0360188671452875
 30
0.0
 40
0.2496829278677126
 50
26.4685369954262484
 51
62.0810595181580567
  0
ARC
  5
9D28
  8
0
 10
4108.669223718648027
 20
52.912683776068981
 30
0.0
 40
0.3892636998654218
 50
62.0810595181580567
 51
83.8150199117921346
  0
ARC
  5
9D29
  8
0
 10
4108.4370338810376779
 20
49.5413750416268002
 30
0.0
 40
3.7682907506419161
 50
85.8282680338990787
 51
90.2487624987625736
  0
ARC
  5
9D2A
  8
0
 10
4108.4426732780757447
 20
35.1162246287668012
 30
0.0
 40
18.1934189481295796
 50
90.0692844175300849
 51
91.2397707183688453
  0
ARC
  5
9D2B
  8
0
 10
4108.3174786742583819
 20
41.0510645719460925
 30
0.0
 40
12.2035752165671703
 50
91.0855792592163453
 51
92.7309445368771748
  0
ARC
  5
9D2C
  8
0
 10
3920.1806421430687806
 20
3985.2111201628049457
 30
0.0
 40
3936.4410040509119426
 50
272.7272060359188117
 51
272.730944536877189
  0
ARC
  5
9D2D
  8
0
 10
4107.4984591660449951
 20
52.8299066444974414
 30
0.0
 40
0.3990959539087569
 50
92.7272060359187833
 51
107.0376471245487977
  0
ARC
  5
9D2E
  8
0
 10
4107.4632789049010171
 20
52.9447062544516101
 30
0.0
 40
0.2790268020843348
 50
107.0376471245487977
 51
132.5246991690090965
  0
ARC
  5
9D2F
  8
0
 10
4107.3911798912613449
 20
53.0233204568540089
 30
0.0
 40
0.1723569347975425
 50
132.5246991690090965
 51
156.2476786638565045
  0
ARC
  5
9D30
  8
0
 10
4107.9311840549398767
 20
52.7856868235664223
 30
0.0
 40
0.7623351042755074
 50
156.2476786638565045
 51
170.1209493708383036
  0
ARC
  5
9D31
  8
0
 10
4108.2717457364960865
 20
52.7263776013993208
 30
0.0
 40
1.108022597219178
 50
170.1209493708383036
 51
179.3744042060725974
  0
ARC
  5
9D32
  8
0
 10
4108.0502499615822671
 20
52.7287961448445515
 30
0.0
 40
0.8865136184917217
 50
179.3744042060725974
 51
192.9764911770008098
  0
ARC
  5
9D33
  8
0
 10
4108.1599191449458885
 20
52.7540678789555102
 30
0.0
 40
0.9990569004968534
 50
192.9764911770008098
 51
200.6558741754022037
  0
ARC
  5
9D34
  8
0
 10
4107.4191404311277438
 20
52.4748027024610977
 30
0.0
 40
0.2073864250788243
 50
200.6558741754022037
 51
239.2381476070472957
  0
ARC
  5
9D35
  8
0
 10
4107.4852179020563199
 20
52.5858166763003183
 30
0.0
 40
0.3365775027580745
 50
239.2381476070472957
 51
261.8889505129108102
  0
ARC
  5
9D36
  8
0
 10
4107.5291063184131417
 20
52.8937670156980815
 30
0.0
 40
0.6476395618805093
 50
261.8889505129108102
 51
269.032419576766813
  0
ARC
  5
9D37
  8
0
 10
4109.6301187234239478
 20
96.0524495631192536
 30
0.0
 40
43.8571099601240775
 50
267.239841537911218
 51
267.7530415573637015
  0
ARC
  5
9D38
  8
0
 10
4108.3151965028318955
 20
63.1358925452121866
 30
0.0
 40
10.9143330014906592
 50
267.8756682764698098
 51
271.834869612120599
  0
ARC
  5
9D39
  8
0
 10
4108.6266223739539782
 20
52.8075319429028198
 30
0.0
 40
0.5816215189482936
 50
273.7500743700870203
 51
284.0721366301731905
  0
ARC
  5
9D3A
  8
0
 10
4108.7147992211321252
 20
52.4557612654324501
 30
0.0
 40
0.2189677365244555
 50
284.0721366301731905
 51
325.4907900338102991
  0
ARC
  5
9D3B
  8
0
 10
4108.5041304485393994
 20
52.600599766441718
 30
0.0
 40
0.4746228227642247
 50
325.4907900338102991
 51
351.2870095050868144
  0
ARC
  5
9D3C
  8
0
 10
4106.9795127377246899
 20
52.8342528382686112
 30
0.0
 40
2.0170407045667291
 50
351.2870095050868144
 51
357.2783397230139144
  0
ARC
  5
9D3D
  8
0
 10
4107.9770748711953274
 20
52.7409734094030966
 30
0.0
 40
1.0172064066504689
 50
359.8593030624638232
 51
15.7621286725619605
  0
ARC
  5
9D3E
  8
0
 10
4108.3994744351230111
 20
52.8327632999106811
 30
0.0
 40
0.5863506268957986
 50
18.3430920120099614
 51
31.720415100375881
  0
ARC
  5
9D3F
  8
0
 10
4108.7301142607575457
 20
53.037133402882553
 30
0.0
 40
0.1976478699144899
 50
31.720415100375881
 51
67.3804161825261048
  0
ARC
  5
9D40
  8
0
 10
4108.6582598677223359
 20
52.8646804762285001
 30
0.0
 40
0.3844714918424344
 50
67.380416182525579
 51
84.1951553063931186
  0
ARC
  5
9D41
  8
0
 10
4108.3264314900043246
 20
45.6816486686107268
 30
0.0
 40
7.5746089103375418
 50
87.194728381207355
 51
91.8169149982274462
  0
LINE
  5
9D42
  8
0
 10
4108.9287029649822216
 20
52.5928057935551365
 30
0.0
 11
4108.9287029649822216
 21
52.8841452756990122
 31
0.0
  0
ARC
  5
9D43
  8
0
 10
4108.940799688437437
 20
52.8841452756990122
 30
0.0
 40
0.0120967234552723
 50
92.6624194691289915
 51
179.9999999999984084
  0
ARC
  5
9D44
  8
0
 10
4108.943718930929208
 20
52.8213678389425212
 30
0.0
 40
0.0749419980782538
 50
87.3375805308710369
 51
92.6624194691289631
  0
ARC
  5
9D45
  8
0
 10
4108.9477398542176161
 20
52.9078365918256068
 30
0.0
 40
0.0116201937219741
 50
267.3375805308709801
 51
13.8014646192837507
  0
ARC
  5
9D46
  8
0
 10
4108.3628025262760275
 20
52.8293943159886012
 30
0.0
 40
0.6017279098771012
 50
7.756803771172434
 51
25.4066344204561396
  0
ARC
  5
9D47
  8
0
 10
4108.6964050734468401
 20
52.9944540310710721
 30
0.0
 40
0.2296498926348676
 50
23.9176689962417512
 51
61.0804138982220834
  0
ARC
  5
9D48
  8
0
 10
4108.6688479648555585
 20
52.93676401144441
 30
0.0
 40
0.2934963416309308
 50
61.8177955089436821
 51
87.8270398292185348
  0
ARC
  5
9D49
  8
0
 10
4109.5250764402489949
 20
85.1598032794408368
 30
0.0
 40
31.9409358526924301
 50
268.0608821614470116
 51
268.4838789215800716
  0
ARC
  5
9D4A
  8
0
 10
4108.527892337454432
 20
34.9074648562614627
 30
0.0
 40
18.3298843777149294
 50
90.2613759704702687
 51
92.5307773117407635
  0
ARC
  5
9D4B
  8
0
 10
4107.7311449615617676
 20
50.3945807057326434
 30
0.0
 40
2.8249186370664079
 50
90.2561182152453796
 51
96.3353809496544358
  0
ARC
  5
9D4C
  8
0
 10
4107.4400876499776132
 20
53.0161019746363422
 30
0.0
 40
0.1872893754109616
 50
96.3353809496544358
 51
128.2639418851038897
  0
ARC
  5
9D4D
  8
0
 10
4107.5115454115430111
 20
52.9255035887039824
 30
0.0
 40
0.3026768930263834
 50
128.2639418851038897
 51
152.6747066460837061
  0
ARC
  5
9D4E
  8
0
 10
4107.9918834643976879
 20
52.774109046655667
 30
0.0
 40
0.8035275180066483
 50
158.8183090832181108
 51
172.7637936873933882
  0
ARC
  5
9D4F
  8
0
 10
4108.300023031031742
 20
52.7214841228619733
 30
0.0
 40
1.1159218555611861
 50
172.0761551510256027
 51
179.1275609498298138
  0
ARC
  5
9D50
  8
0
 10
4108.1368602159518559
 20
52.738220609904829
 30
0.0
 40
0.9526297085391062
 50
179.9846675883414946
 51
192.2981050944067078
  0
ARC
  5
9D51
  8
0
 10
4107.7653795436535802
 20
52.6393176043106976
 30
0.0
 40
0.5688768995497031
 50
190.5343891392458886
 51
205.4663291057798062
  0
ARC
  5
9D52
  8
0
 10
4107.4241058734669423
 20
52.4777058807806682
 30
0.0
 40
0.1912739212930293
 50
205.7155039233030038
 51
236.9340701157794058
  0
ARC
  5
9D53
  8
0
 10
4107.4699145688582576
 20
52.5430768276117206
 30
0.0
 40
0.2710646780246572
 50
236.3584834619472019
 51
256.8154091960599885
  0
ARC
  5
9D54
  8
0
 10
4107.8084735710554014
 20
55.5963418352234129
 30
0.0
 40
3.3412605165120701
 50
263.1176630200992008
 51
267.8060703686643933
  0
ARC
  5
9D55
  8
0
 10
4108.3524076670692011
 20
65.3616375136170404
 30
0.0
 40
13.1213183051692805
 50
267.0650306561777825
 51
269.4767490061523745
  0
ARC
  5
9D56
  8
0
 10
4108.3266786211161161
 20
59.310538631860183
 30
0.0
 40
7.0702984707366747
 50
269.2374238702622051
 51
273.1586639532288245
  0
ARC
  5
9D57
  8
0
 10
4108.685697323149725
 20
52.4918960885192192
 30
0.0
 40
0.2428454732919509
 50
277.2300541510808216
 51
320.6636231145556053
  0
ARC
  5
9D58
  8
0
 10
4108.4390892520359557
 20
52.6307785932127103
 30
0.0
 40
0.5239024427237461
 50
326.0193979817295826
 51
352.9351310984371253
  0
ARC
  5
9D59
  8
0
 10
4108.9470273075703517
 20
52.5685349567838784
 30
0.0
 40
0.0121855803305617
 50
349.6336184585376827
 51
89.2375597890816579
  0
ARC
  5
9D5A
  8
0
 10
4108.9437136212727637
 20
52.5332438095398402
 30
0.0
 40
0.0476027168889561
 50
85.8126732048313272
 51
94.187326795168687
  0
ARC
  5
9D5B
  8
0
 10
4108.9410187328176107
 20
52.5930121735822027
 30
0.0
 40
0.0123174969091434
 50
180.9600374127616931
 51
266.3649238995262749
  0
LINE
  5
9D5C
  8
0
 10
4109.8535218801216615
 20
52.0492138058759792
 30
0.0
 11
4108.9853520269607543
 21
52.0491965368474681
 31
0.0
  0
ARC
  5
9D5D
  8
0
 10
4109.0050121928434237
 20
51.442278581020112
 30
0.0
 40
0.6072363026270572
 50
90.0011396876359413
 51
123.0844215629073943
  0
ARC
  5
9D5E
  8
0
 10
4108.9800077064855941
 20
53.955026928006653
 30
0.0
 40
0.5286450375441405
 50
236.9418339249151018
 51
273.1054236811806959
  0
LINE
  5
9D5F
  8
0
 10
4109.8535218801216615
 20
53.427160973473498
 30
0.0
 11
4109.0086461713690369
 21
53.4271581810162175
 31
0.0
  0
ARC
  5
9D60
  8
0
 10
4109.1548653336058123
 20
53.9180184675222591
 30
0.0
 40
0.5850528306140785
 50
184.7229877633174908
 51
231.1047596492759055
  0
LINE
  5
9D61
  8
0
 10
4109.8240300889237915
 20
83.4389136762850825
 30
0.0
 11
4109.825965722435285
 21
83.4369780427753511
 31
0.0
  0
LINE
  5
9D62
  8
0
 10
4109.825965722435285
 20
83.4369780427753511
 30
0.0
 11
4109.9558869822330962
 21
83.4369780427753511
 31
0.0
  0
LINE
  5
9D63
  8
0
 10
4109.9558869822330962
 20
83.4369780427753511
 30
0.0
 11
4109.9578226182065919
 21
83.4389136786452212
 31
0.0
  0
LINE
  5
9D64
  8
0
 10
4110.323994321021928
 20
51.9915092660956617
 30
0.0
 11
4110.323994321021928
 21
53.4825921715777923
 31
0.0
  0
LINE
  5
9D65
  8
0
 10
4109.9496646784136829
 20
53.3779229246753602
 30
0.0
 11
4110.323994321021928
 21
53.3779229246753602
 31
0.0
  0
LINE
  5
9D66
  8
0
 10
4109.9498740262379215
 20
52.9842221372753386
 30
0.0
 11
4110.323994321021928
 21
52.9842221372753528
 31
0.0
  0
LINE
  5
9D67
  8
0
 10
4109.9499786874221172
 20
52.4920961529753711
 30
0.0
 11
4110.323994321021928
 21
52.4920961529753711
 31
0.0
  0
LINE
  5
9D68
  8
0
 10
4109.9502926964296421
 20
52.0983953655753709
 30
0.0
 11
4110.323994321021928
 21
52.0983953655753709
 31
0.0
  0
ARC
  5
9D69
  8
0
 10
4108.6142603810403671
 20
54.2245129590268817
 30
0.0
 40
0.1099619177548503
 50
151.0626004684382053
 51
173.7573004968022019
  0
ARC
  5
9D6A
  8
0
 10
4108.6875174606338987
 20
54.2164994500532416
 30
0.0
 40
0.1836559883207178
 50
173.7573004968022019
 51
193.7417505076134034
  0
ARC
  5
9D6B
  8
0
 10
4108.5828644724197147
 20
54.1909069964496695
 30
0.0
 40
0.0759191718483294
 50
193.7417505076134034
 51
211.4273083750906039
  0
ARC
  5
9D6C
  8
0
 10
4108.5650996604081229
 20
54.1800516836569201
 30
0.0
 40
0.0551002775061272
 50
211.4273083750906039
 51
229.1662853953905028
  0
ARC
  5
9D6D
  8
0
 10
4108.5361764109411524
 20
54.146583611288392
 30
0.0
 40
0.0108660574067504
 50
229.1662853953617116
 51
292.7272067280762258
  0
ARC
  5
9D6E
  8
0
 10
4108.5346466497330766
 20
54.150235751011941
 30
0.0
 40
0.0148256399497774
 50
292.7272067281018053
 51
338.3749681043306055
  0
ARC
  5
9D6F
  8
0
 10
4108.4097653699727744
 20
54.1997428702767508
 30
0.0
 40
0.1491621163515901
 50
338.3749681043306055
 51
356.5147984548522118
  0
ARC
  5
9D70
  8
0
 10
4108.1949425054735912
 20
54.2128263080271822
 30
0.0
 40
0.3643830248508518
 50
356.5147984548522118
 51
6.5542711879632538
  0
ARC
  5
9D71
  8
0
 10
4108.4664127472206019
 20
54.2440169409372999
 30
0.0
 40
0.0911268305293694
 50
6.5542711879649227
 51
27.9804858748603316
  0
ARC
  5
9D72
  8
0
 10
4108.5360472433640098
 20
54.2810118432837285
 30
0.0
 40
0.012275160586615
 50
27.9804858748847813
 51
87.7163919185039731
  0
ARC
  5
9D73
  8
0
 10
4108.5360821356280212
 20
54.2818868273614825
 30
0.0
 40
0.0113994810754228
 50
87.7163919185039731
 51
135.537002791025003
  0
ARC
  5
9D74
  8
0
 10
4108.589406326005701
 20
54.2295857350120585
 30
0.0
 40
0.0860913378476664
 50
135.5525786383686864
 51
146.0071896784560863
  0
ARC
  5
9D75
  8
0
 10
4108.5243114020968278
 20
54.2677463100530488
 30
0.0
 40
0.011788759934237
 50
96.1123918230221932
 51
122.1980402785628002
  0
ARC
  5
9D76
  8
0
 10
4108.5239972030567515
 20
54.2706803387272103
 30
0.0
 40
0.0088379557562167
 50
63.889630779101438
 51
96.1123918229701246
  0
ARC
  5
9D77
  8
0
 10
4108.5197810731051504
 20
54.2620780875995621
 30
0.0
 40
0.0184178553514301
 50
39.5244615250563385
 51
63.889630779101438
  0
ARC
  5
9D78
  8
0
 10
4108.5039133547898018
 20
54.2489863680966522
 30
0.0
 40
0.0389891364014201
 50
24.1219771652439086
 51
39.5244615250563385
  0
ARC
  5
9D79
  8
0
 10
4108.4560939526199945
 20
54.2275736995050224
 30
0.0
 40
0.091383769715336
 50
9.1169157616697731
 51
24.1219771652423809
  0
ARC
  5
9D7A
  8
0
 10
4108.3674570975636016
 20
54.2133495341431768
 30
0.0
 40
0.1811546945982035
 50
358.0986310270475883
 51
9.1169157616697731
  0
ARC
  5
9D7B
  8
0
 10
4108.4120663385092485
 20
54.2118686261827207
 30
0.0
 40
0.1365208793228548
 50
343.8731276401604191
 51
358.0986310270459967
  0
ARC
  5
9D7C
  8
0
 10
4108.4854949897180632
 20
54.1906372220285419
 30
0.0
 40
0.0600843740347016
 50
324.8797675463488872
 51
343.8731276401555874
  0
ARC
  5
9D7D
  8
0
 10
4108.5208421026336509
 20
54.1657762031333689
 30
0.0
 40
0.0168699244606265
 50
297.7483326252863094
 51
324.8797675463300152
  0
ARC
  5
9D7E
  8
0
 10
4108.5236547908552893
 20
54.1604297845840534
 30
0.0
 40
0.0108287816602311
 50
267.2359441942758735
 51
297.748332625283922
  0
ARC
  5
9D7F
  8
0
 10
4108.5236012585601202
 20
54.1593209810650222
 30
0.0
 40
0.0097186866415883
 50
235.4011702527498073
 51
267.2359441942758735
  0
LINE
  5
9D80
  8
0
 10
4108.5084432253352134
 20
54.2420043822753613
 30
0.0
 11
4108.5244775266337456
 21
54.2596421333753511
 31
0.0
  0
LINE
  5
9D81
  8
0
 10
4108.5244775266337456
 20
54.2596421333753511
 30
0.0
 11
4108.5383400673326832
 21
54.2321748489753617
 31
0.0
  0
LINE
  5
9D82
  8
0
 10
4108.5383400673326832
 20
54.2321748489753617
 30
0.0
 11
4108.5361683068340426
 21
54.187069813475361
 31
0.0
  0
LINE
  5
9D83
  8
0
 10
4108.5361683068340426
 20
54.187069813475361
 30
0.0
 11
4108.5201340056328263
 21
54.1694320623753498
 31
0.0
  0
LINE
  5
9D84
  8
0
 10
4108.5201340056328263
 20
54.1694320623753498
 30
0.0
 11
4108.5062714648329347
 21
54.1968993467753677
 31
0.0
  0
LINE
  5
9D85
  8
0
 10
4108.5062714648329347
 20
54.1968993467753677
 30
0.0
 11
4108.5084432253352134
 21
54.2420043822753613
 31
0.0
  0
ARC
  5
9D87
  8
0
 10
4107.1692929797945908
 20
53.8061037177566632
 30
0.0
 40
0.4205019354889663
 50
313.7271648528412129
 51
359.0961562792057862
  0
LINE
  5
9D88
  8
0
 10
4109.8535218801216615
 20
53.427160973473498
 30
0.0
 11
4109.8535218801216615
 21
52.0492138058759792
 31
0.0
  0
LINE
  5
9D89
  8
0
 10
4109.930293533621807
 20
53.3585517833270089
 30
0.0
 11
4109.930293533621807
 21
52.1183945248270177
 31
0.0
  0
LINE
  5
9D8A
  8
0
 10
4109.9496646784136829
 20
53.3779229246753602
 30
0.0
 11
4109.930293533621807
 21
53.3585517833270089
 31
0.0
  0
LINE
  5
9D8B
  8
0
 10
4109.9502926964296421
 20
52.0983953655753709
 30
0.0
 11
4109.930293533621807
 21
52.1183945248270177
 31
0.0
  0
LINE
  5
9D8C
  8
0
 10
4109.930293533621807
 20
52.9275383489270084
 30
0.0
 11
4109.9499824955209988
 21
52.9845361462270219
 31
0.0
  0
LINE
  5
9D8D
  8
0
 10
4109.9499824955209988
 20
52.9845361462270219
 30
0.0
 11
4109.9499824955209988
 21
53.3782369336270222
 31
0.0
  0
LINE
  5
9D8E
  8
0
 10
4109.930293533621807
 20
52.5493932722270216
 30
0.0
 11
4109.9499786874221172
 21
52.4924101619270189
 31
0.0
  0
LINE
  5
9D8F
  8
0
 10
4109.9499786874221172
 20
52.4924101619270189
 30
0.0
 11
4109.9499786874221172
 21
52.0987093745270187
 31
0.0
  0
LINE
  5
9D90
  8
0
 10
4109.930293533621807
 20
53.1617015005270233
 30
0.0
 11
4109.8771439273223223
 21
53.1617015005270233
 31
0.0
  0
LINE
  5
9D91
  8
0
 10
4109.8771439273223223
 20
53.1617015005270233
 30
0.0
 11
4109.8673014076211985
 21
53.1518589808270221
 31
0.0
  0
LINE
  5
9D92
  8
0
 10
4109.8673014076211985
 20
53.1518589808270221
 30
0.0
 11
4109.8535218801216615
 21
53.1518589808270221
 31
0.0
  0
LINE
  5
9D93
  8
0
 10
4109.930293533621807
 20
52.3152448076270176
 30
0.0
 11
4109.8771439273223223
 21
52.3152448076270176
 31
0.0
  0
LINE
  5
9D94
  8
0
 10
4109.8771439273223223
 20
52.3152448076270176
 30
0.0
 11
4109.8673014076211985
 21
52.3250873273270329
 31
0.0
  0
LINE
  5
9D95
  8
0
 10
4109.8673014076211985
 20
52.3250873273270329
 30
0.0
 11
4109.8535218801216615
 21
52.3250873273270329
 31
0.0
  0
LINE
  5
9D96
  8
0
 10
4109.8673014076211985
 20
53.1518589808270221
 30
0.0
 11
4109.8673014076211985
 21
52.3250873273270329
 31
0.0
  0
LINE
  5
9D97
  8
0
 10
4109.8771439273223223
 20
52.3152448076270176
 30
0.0
 11
4109.8771439273223223
 21
53.1617015005270233
 31
0.0
  0
LINE
  5
9D98
  8
0
 10
4109.5975999833226524
 20
52.049208715256313
 30
0.0
 11
4109.5975999833226524
 21
48.3673883187385485
 31
0.0
  0
LINE
  5
9D99
  8
0
 10
4110.1094110069234375
 20
52.0983953655753709
 30
0.0
 11
4110.1094110069234375
 21
48.3673883187385485
 31
0.0
  0
ARC
  5
9D9A
  8
0
 10
4111.3234750296687707
 20
48.3565556544159776
 30
0.0
 40
2.985767118022538
 50
179.6699036258411013
 51
197.6781379909112104
  0
ARC
  5
9D9B
  8
0
 10
4109.8324607292915971
 20
47.8813390787361612
 30
0.0
 40
1.420853562030445
 50
197.6781379909112104
 51
217.7643100219736141
  0
ARC
  5
9D9C
  8
0
 10
4109.0909347650685959
 20
47.3068920430640532
 30
0.0
 40
0.4828502824997675
 50
217.7643100219738983
 51
246.3343113561903976
  0
ARC
  5
9D9D
  8
0
 10
4108.981435221377069
 20
47.0570386941743095
 30
0.0
 40
0.210055770054755
 50
246.3343113561905113
 51
324.7257682977382842
  0
ARC
  5
9D9E
  8
0
 10
4108.1137106540209061
 20
47.9077245831381973
 30
0.0
 40
1.4229306060664
 50
316.9143398333234813
 51
348.2346645493266237
  0
ARC
  5
9D9F
  8
0
 10
4106.5622004171618755
 20
48.3547783597070122
 30
0.0
 40
3.0354257588208919
 50
345.9443801155313736
 51
0.2380224613924157
  0
ARC
  5
9DA0
  8
0
 10
4111.3703320246668227
 20
48.3611884003618471
 30
0.0
 40
3.5444697471879829
 50
179.8997792722767883
 51
196.8489693555399072
  0
ARC
  5
9DA1
  8
0
 10
4109.7906974197812815
 20
47.8827950725633329
 30
0.0
 40
1.8939832549574529
 50
196.8489693555399072
 51
224.4413408879412941
  0
ARC
  5
9DA2
  8
0
 10
4108.9491982754170749
 20
47.0575479541688892
 30
0.0
 40
0.7153596439674591
 50
224.4413408879410099
 51
263.886766409478696
  0
ARC
  5
9DA3
  8
0
 10
4108.9561194384914415
 20
47.1221696457635488
 30
0.0
 40
0.7803509166342516
 50
263.886766409478696
 51
307.1050268224500996
  0
ARC
  5
9DA4
  8
0
 10
4108.6280718331299795
 20
47.5558472417786717
 30
0.0
 40
1.324126135514452
 50
307.1050268224500996
 51
340.9128266501384132
  0
ARC
  5
9DA5
  8
0
 10
4106.8361822830229357
 20
48.3288091378712465
 30
0.0
 40
3.2734560684624858
 50
338.3826799256607956
 51
0.6752726683861959
  0
ARC
  5
9DA6
  8
0
 10
4096.8961364725637395
 20
67.7282749644864168
 30
0.0
 40
12.7019052721378198
 50
359.5221425338954191
 51
20.8194079769999298
  0
ARC
  5
9DA7
  8
0
 10
4096.0739779360210377
 20
67.6223399383270163
 30
0.0
 40
14.0354330709000106
 50
0.0
 51
19.9999999999984688
  0
LINE
  5
9DA8
  8
0
 10
4111.5641518013226232
 20
53.9278485955027094
 30
0.0
 11
4111.5641518013226232
 21
51.5472456305711404
 31
0.0
  0
ENDSEC
  0
EOF
