  0
SECTION
  2
HEADER
  9
$ACADVER
  1
AC1009
  9
$INSBASE
 10
3409.3977527960892075
 20
162.8481204330597905
 30
0.0
  9
$EXTMIN
 10
3404.1746066840319145
 20
156.6148161989613925
 30
-0.0000000349181948
  9
$EXTMAX
 10
3415.1183233843657945
 20
214.0029148164634876
 30
0.0000000814935746
  9
$LIMMIN
 10
0.0
 20
0.0
  9
$LIMMAX
 10
11.6929133858000007
 20
8.2677165353999982
  9
$ORTHOMODE
 70
     0
  9
$REGENMODE
 70
     1
  9
$FILLMODE
 70
     1
  9
$QTEXTMODE
 70
     0
  9
$MIRRTEXT
 70
     0
  9
$DRAGMODE
 70
     2
  9
$LTSCALE
 40
0.6431102362
  9
$OSMODE
 70
  3839
  9
$ATTMODE
 70
     1
  9
$TEXTSIZE
 40
0.2
  9
$TRACEWID
 40
0.05
  9
$TEXTSTYLE
  7
STANDARD
  9
$CLAYER
  8
0
  9
$CELTYPE
  6
BYLAYER
  9
$CECOLOR
 62
   256
  9
$DIMSCALE
 40
1.0
  9
$DIMASZ
 40
0.1875
  9
$DIMEXO
 40
0.0625
  9
$DIMDLI
 40
0.4443307087
  9
$DIMRND
 40
0.0
  9
$DIMDLE
 40
0.0
  9
$DIMEXE
 40
0.125
  9
$DIMTP
 40
0.01
  9
$DIMTM
 40
0.01
  9
$DIMTXT
 40
2.0
  9
$DIMCEN
 40
0.1052362205
  9
$DIMTSZ
 40
0.0
  9
$DIMTOL
 70
     1
  9
$DIMLIM
 70
     0
  9
$DIMTIH
 70
     1
  9
$DIMTOH
 70
     1
  9
$DIMSE1
 70
     0
  9
$DIMSE2
 70
     0
  9
$DIMTAD
 70
     0
  9
$DIMZIN
 70
     0
  9
$DIMBLK
  1

  9
$DIMASO
 70
     1
  9
$DIMSHO
 70
     1
  9
$DIMPOST
  1
\X
  9
$DIMAPOST
  1

  9
$DIMALT
 70
     1
  9
$DIMALTD
 70
     2
  9
$DIMALTF
 40
25.3999999999999986
  9
$DIMLFAC
 40
1.0
  9
$DIMTOFL
 70
     0
  9
$DIMTVP
 40
0.0
  9
$DIMTIX
 70
     0
  9
$DIMSOXD
 70
     0
  9
$DIMSAH
 70
     0
  9
$DIMBLK1
  1

  9
$DIMBLK2
  1

  9
$DIMSTYLE
  2
STANDARD
  9
$DIMCLRD
 70
     0
  9
$DIMCLRE
 70
     0
  9
$DIMCLRT
 70
     0
  9
$DIMTFAC
 40
1.0
  9
$DIMGAP
 40
0.09
  9
$LUNITS
 70
     2
  9
$LUPREC
 70
     4
  9
$SKETCHINC
 40
0.1
  9
$FILLETRAD
 40
0.0
  9
$AUNITS
 70
     0
  9
$AUPREC
 70
     0
  9
$MENU
  1
.
  9
$ELEVATION
 40
0.0
  9
$PELEVATION
 40
0.0
  9
$THICKNESS
 40
0.0
  9
$LIMCHECK
 70
     0
  9
$BLIPMODE
 70
     0
  9
$CHAMFERA
 40
0.0
  9
$CHAMFERB
 40
0.0
  9
$SKPOLY
 70
     0
  9
$TDCREATE
 40
2458060.468368056230247
  9
$TDUPDATE
 40
2459180.7709259260445833
  9
$TDINDWG
 40
0.6041158565
  9
$TDUSRTIMER
 40
0.6041158565
  9
$USRTIMER
 70
     1
  9
$ANGBASE
 50
0.0
  9
$ANGDIR
 70
     0
  9
$PDMODE
 70
     0
  9
$PDSIZE
 40
0.3125
  9
$PLINEWID
 40
0.0
  9
$COORDS
 70
     1
  9
$SPLFRAME
 70
     0
  9
$SPLINETYPE
 70
     6
  9
$SPLINESEGS
 70
     8
  9
$ATTDIA
 70
     1
  9
$ATTREQ
 70
     1
  9
$HANDLING
 70
     1
  9
$HANDSEED
  5
1AB9E
  9
$SURFTAB1
 70
     6
  9
$SURFTAB2
 70
     6
  9
$SURFTYPE
 70
     6
  9
$SURFU
 70
     6
  9
$SURFV
 70
     6
  9
$UCSNAME
  2

  9
$UCSORG
 10
0.0
 20
0.0
 30
0.0
  9
$UCSXDIR
 10
1.0
 20
0.0
 30
0.0
  9
$UCSYDIR
 10
0.0
 20
1.0
 30
0.0
  9
$PUCSNAME
  2

  9
$PUCSORG
 10
0.0
 20
0.0
 30
0.0
  9
$PUCSXDIR
 10
1.0
 20
0.0
 30
0.0
  9
$PUCSYDIR
 10
0.0
 20
1.0
 30
0.0
  9
$USERI1
 70
     0
  9
$USERI2
 70
     0
  9
$USERI3
 70
     0
  9
$USERI4
 70
     0
  9
$USERI5
 70
     0
  9
$USERR1
 40
0.0
  9
$USERR2
 40
0.0
  9
$USERR3
 40
0.0
  9
$USERR4
 40
0.0
  9
$USERR5
 40
0.0
  9
$WORLDVIEW
 70
     1
  9
$SHADEDGE
 70
     3
  9
$SHADEDIF
 70
    70
  9
$TILEMODE
 70
     1
  9
$MAXACTVP
 70
    64
  9
$PLIMCHECK
 70
     0
  9
$PEXTMIN
 10
1.0000000000000000E+20
 20
1.0000000000000000E+20
 30
1.0000000000000000E+20
  9
$PEXTMAX
 10
-1.0000000000000000E+20
 20
-1.0000000000000000E+20
 30
-1.0000000000000000E+20
  9
$PLIMMIN
 10
0.0
 20
0.0
  9
$PLIMMAX
 10
12.0
 20
9.0
  9
$UNITMODE
 70
     0
  9
$VISRETAIN
 70
     1
  9
$PLINEGEN
 70
     0
  9
$PSLTSCALE
 70
     1
  0
ENDSEC
  0
SECTION
  2
TABLES
  0
TABLE
  2
VPORT
 70
     1
  0
VPORT
  2
*ACTIVE
 70
     0
 10
0.0
 20
0.0
 11
1.0
 21
1.0
 12
-7.3329050829888871
 22
0.0839204393531077
 13
0.0
 23
0.0
 14
1.0
 24
1.0
 15
0.0
 25
0.0
 16
0.0
 26
0.0
 36
192.9269917172308908
 17
3416.9793701171879547
 27
185.2249450683594034
 37
0.0
 40
58.0233912221239194
 41
3.1182994454713491
 42
50.0
 43
0.0
 44
0.0
 50
0.0
 51
0.0
 71
     0
 72
   100
 73
     1
 74
     1
 75
     0
 76
     0
 77
     0
 78
     0
  0
ENDTAB
  0
TABLE
  2
LTYPE
 70
     2
  0
LTYPE
  2
CONTINUOUS
 70
     0
  3
Solid line
 72
    65
 73
     0
 40
0.0
  0
LTYPE
  2
PHANTOM2
 70
     0
  3
___ _ _ ___ _ _ ___ _ _ ___ _ _
 72
    65
 73
     6
 40
1.25
 49
0.625
 49
-0.125
 49
0.125
 49
-0.125
 49
0.125
 49
-0.125
  0
ENDTAB
  0
TABLE
  2
LAYER
 70
     2
  0
LAYER
  2
0
 70
     0
 62
   255
  6
CONTINUOUS
  0
LAYER
  2
DEFPOINTS
 70
     0
 62
     7
  6
CONTINUOUS
  0
ENDTAB
  0
TABLE
  2
STYLE
 70
     1
  0
STYLE
  2
STANDARD
 70
     0
 40
0.0
 41
0.8
 50
0.0
 71
     0
 42
0.2
  3
txt
  4

  0
ENDTAB
  0
TABLE
  2
VIEW
 70
     0
  0
ENDTAB
  0
TABLE
  2
UCS
 70
     0
  0
ENDTAB
  0
TABLE
  2
APPID
 70
     9
  0
APPID
  2
ACAD
 70
     0
  0
APPID
  2
ACAD_MLEADERVER
 70
     0
  0
APPID
  2
ACAD_EXEMPT_FROM_CAD_STANDARDS
 70
     0
  0
APPID
  2
ACAD_NAV_VCDISPLAY
 70
     0
  0
APPID
  2
ACAECLAYERSTANDARD
 70
     0
  0
APPID
  2
ACCMTRANSPARENCY
 70
     0
  0
APPID
  2
ACAD_DSTYLE_DIMJAG
 70
     0
  0
APPID
  2
ACAD_DSTYLE_DIMTALN
 70
     0
  0
APPID
  2
ACDBATTR
 70
     0
  0
ENDTAB
  0
TABLE
  2
DIMSTYLE
 70
     1
  0
DIMSTYLE
  2
STANDARD
 70
     0
  3

  4

  5

  6

  7

 40
1.0
 41
0.1875
 42
0.0625
 43
0.38
 44
0.125
 45
0.0
 46
0.0
 47
0.01
 48
0.01
140
0.15625
141
0.09
142
0.0
143
25.3999999999999986
144
1.0
145
0.0
146
1.0
147
0.09
 71
     1
 72
     0
 73
     1
 74
     1
 75
     0
 76
     0
 77
     0
 78
     4
170
     0
171
     2
172
     0
173
     0
174
     0
175
     0
176
     0
177
     0
178
     0
  0
ENDTAB
  0
ENDSEC
  0
SECTION
  2
BLOCKS
  0
BLOCK
  8
0
  2
$MODEL_SPACE
 70
     0
 10
0.0
 20
0.0
 30
0.0
  3
$MODEL_SPACE
  1

  0
ENDBLK
  5
21
  8
0
  0
BLOCK
 67
     1
  8
0
  2
$PAPER_SPACE
 70
     0
 10
0.0
 20
0.0
 30
0.0
  3
$PAPER_SPACE
  1

  0
ENDBLK
  5
1D
 67
     1
  8
0
  0
BLOCK
  8
0
  2
_FILLED
 70
     0
 10
0.0
 20
0.0
 30
0.0
  3
_FILLED
  1

  0
SOLID
  5
13356
  8
0
  6
BYBLOCK
 62
     0
 10
0.0
 20
0.0
 30
0.0
 11
-1.0
 21
0.1666666667
 31
0.0
 12
-1.0
 22
-0.1666666667
 32
0.0
 13
-1.0
 23
-0.1666666667
 33
0.0
  0
ENDBLK
  5
13357
  8
0
  6
BYBLOCK
 62
     0
  0
ENDSEC
  0
SECTION
  2
ENTITIES
  0
ATTDEF
  5
12BEB
  8
DEFPOINTS
 10
3409.3981372624662072
 20
162.8463295522720955
 30
0.0
 40
0.001
  1
K-97825T-4
  3

  2
MODELNUMBER
 70
     0
1001
ACDBATTR
1070
     0
1070
     1
  0
ATTDEF
  5
12BEC
  8
DEFPOINTS
 10
3409.3981372624662072
 20
162.8446628856054019
 30
0.0
 40
0.001
  1
ALEO
  3

  2
TRADENAME
 70
     0
1001
ACDBATTR
1070
     0
1070
     1
  0
ATTDEF
  5
12BED
  8
DEFPOINTS
 10
3409.3981372624662072
 20
162.8429962189387084
 30
0.0
 40
0.001
  1
BATH AND SHOWER FAUCET
  3

  2
PRODUCT
 70
     0
1001
ACDBATTR
1070
     0
1070
     1
  0
ARC
  5
19FE0
  8
0
 10
3406.4449968905892092
 20
162.8481204330597905
 30
0.0
 40
1.190938089249999
 50
235.7358767983888868
 51
304.2641232016110848
  0
ARC
  5
19FE1
  8
0
 10
3406.4449968905892092
 20
162.8481204330597905
 30
0.0
 40
1.190938089249999
 50
55.7358768117538474
 51
124.2641231882461028
  0
LINE
  5
19FE2
  8
0
 10
3404.6536583079391676
 20
163.8126873622379946
 30
0.0
 11
3404.6536583079391676
 21
161.8835535038817
 31
0.0
  0
LINE
  5
19FE3
  8
0
 10
3404.6733433472390971
 20
163.832372401637997
 30
0.0
 11
3413.6314062678961818
 21
163.832372401637997
 31
0.0
  0
ARC
  5
19FE4
  8
0
 10
3404.6733433471831631
 20
163.8126873623943993
 30
0.0
 40
0.019685039243682
 50
89.9999998360352151
 51
180.0000004550279016
  0
LINE
  5
19FE5
  8
0
 10
3404.6733433472390971
 20
161.8638684646379886
 30
0.0
 11
3408.9221133526812082
 21
161.8638684646379886
 31
0.0
  0
LINE
  5
19FE6
  8
0
 10
3409.8750849729522088
 20
161.8638684646379886
 30
0.0
 11
3413.6314062678961818
 21
161.8638684646379886
 31
0.0
  0
ARC
  5
19FE7
  8
0
 10
3404.6733433471831631
 20
161.8835535038817
 30
0.0
 40
0.019685039243682
 50
179.9999995449703931
 51
270.0000001639647849
  0
ARC
  5
19FE8
  8
0
 10
3412.3505087015892059
 20
162.8481204330597905
 30
0.0
 40
1.190938089249999
 50
235.7358767983888868
 51
304.2641232016110848
  0
ARC
  5
19FE9
  8
0
 10
3412.3505087015892059
 20
162.8481204330597905
 30
0.0
 40
1.190938089249999
 50
55.7358768117538474
 51
124.2641231882461028
  0
LINE
  5
19FEA
  8
0
 10
3413.6510913071388131
 20
163.8126873622379946
 30
0.0
 11
3413.6510913071388131
 21
161.8835535038817
 31
0.0
  0
ARC
  5
19FEB
  8
0
 10
3413.6314062678961818
 20
163.8126873623943993
 30
0.0
 40
0.019685039243682
 50
359.9999995449704215
 51
90.0000001639647564
  0
ARC
  5
19FEC
  8
0
 10
3413.6314062678961818
 20
161.8835535038817
 30
0.0
 40
0.019685039243682
 50
269.9999998360352151
 51
0.0000004550295923
  0
LINE
  5
19FED
  8
0
 10
3415.0926323738472092
 20
159.9889141542060997
 30
0.0
 11
3415.0926323738472092
 21
163.7029044088689034
 31
0.0
  0
LINE
  5
19FEE
  8
0
 10
3415.0655955270499362
 20
163.8333167226830085
 30
0.0
 11
3414.0813651460848632
 21
163.8333167226830085
 31
0.0
  0
ARC
  5
19FEF
  8
0
 10
3414.118515256091996
 20
163.6090682295130136
 30
0.0
 40
0.227304899556874
 50
99.4064688655159046
 51
131.363595685009301
  0
ARC
  5
19FF0
  8
0
 10
3414.7142696030191473
 20
162.9324541122227004
 30
0.0
 40
1.1288202380837291
 50
131.3636863787372988
 51
143.2853071339810924
  0
ARC
  5
19FF1
  8
0
 10
3414.0568166350758474
 20
163.4327371524948092
 30
0.0
 40
0.3028121548839489
 50
144.7977587311418119
 51
181.0151586705385114
  0
LINE
  5
19FF2
  8
0
 10
3413.7540520087391087
 20
163.4273722494598928
 30
0.0
 11
3413.7540520087391087
 21
161.8614845773113871
 31
0.0
  0
LINE
  5
19FF3
  8
0
 10
3413.7540520087391087
 20
161.8614845773113871
 30
0.0
 11
3414.0734674901391372
 21
161.8716587244599054
 31
0.0
  0
ARC
  5
19FF4
  8
0
 10
3414.1842478623111674
 20
159.1463822017826999
 30
0.0
 40
2.7275271613522261
 50
83.5643266208289788
 51
92.3277473714826584
  0
ARC
  5
19FF5
  8
0
 10
3414.4414344883939521
 20
161.4264364559321052
 30
0.0
 40
0.4330136263079385
 50
40.118124686834328
 51
83.5643266208289788
  0
ARC
  5
19FF6
  8
0
 10
3414.288388840026073
 20
161.4632735979162135
 30
0.0
 40
0.5413697338797018
 50
4.4970918084929359
 51
26.5738106241354188
  0
ARC
  5
19FF7
  8
0
 10
3402.0921498257548592
 20
160.6663646925956073
 30
0.0
 40
12.7635708039375295
 50
0.7079943081299215
 51
3.7706014097480618
  0
ARC
  5
19FF8
  8
0
 10
3425.6343357138612191
 20
161.15650943244259
 30
0.0
 40
10.7847142188031793
 50
181.7663830987131064
 51
183.3909317592085984
  0
ARC
  5
19FF9
  8
0
 10
3416.7593094707158343
 20
160.6236148226163039
 30
0.0
 40
1.8937195064989301
 50
183.1785912086035921
 51
195.0762543535452949
  0
ARC
  5
19FFA
  8
0
 10
3415.227595373785789
 20
160.2029116414842917
 30
0.0
 40
0.3053995610084932
 50
193.6094994646080067
 51
226.7367568635775115
  0
ARC
  5
19FFB
  8
0
 10
3415.1322219137500724
 20
160.2436900608896053
 30
0.0
 40
0.2867774279005224
 50
246.59140437618899
 51
256.6275920335820047
  0
ARC
  5
19FFC
  8
0
 10
3415.0628358106791893
 20
159.9949315773409921
 30
0.0
 40
0.0303981012204223
 50
275.7781519666124268
 51
348.5826650279386172
  0
ARC
  5
19FFD
  8
0
 10
3415.065280276563044
 20
163.812864469944202
 30
0.0
 40
0.0204546822258069
 50
17.9496956367412395
 51
89.1169142937157375
  0
ARC
  5
19FFE
  8
0
 10
3413.4999365068510997
 20
163.653178237869497
 30
0.0
 40
1.593471937885413
 50
1.788272692902479
 51
5.97927733463119
  0
ARC
  5
19FFF
  8
0
 10
3413.6432728664181013
 20
162.3299596524230139
 30
0.0
 40
0.39544072080713
 50
271.132895078556885
 51
286.2686176937025948
  0
ARC
  5
1A000
  8
0
 10
3413.5853919132791816
 20
163.0060137748864975
 30
0.0
 40
0.7586082637974427
 50
66.4851589615885956
 51
85.0316655167423505
  0
ARC
  5
1A001
  8
0
 10
3414.2419765081699552
 20
162.1247128864116007
 30
0.0
 40
0.1128740433485089
 50
82.8752905039853687
 51
141.3697742549809107
  0
ARC
  5
1A002
  8
0
 10
3414.2343406806430721
 20
162.0636236079425885
 30
0.0
 40
0.1744386907193593
 50
33.5666893349809499
 51
82.8752905039853687
  0
ARC
  5
1A003
  8
0
 10
3414.3325217111778329
 20
162.1227844219766894
 30
0.0
 40
0.060127003458803
 50
295.1095887626577223
 51
38.3268884361725597
  0
ARC
  5
1A004
  8
0
 10
3414.2900469297069321
 20
162.2563514060296939
 30
0.0
 40
0.1999276388348674
 50
232.0781915317460005
 51
289.8812429732316787
  0
ARC
  5
1A005
  8
0
 10
3414.2091757937878356
 20
162.1536537601645875
 30
0.0
 40
0.0692156790903962
 50
143.1341815642367123
 51
232.6400423987888928
  0
LINE
  5
1A006
  8
0
 10
3408.7678464970099412
 20
195.8599314567098872
 30
0.0
 11
3409.5354701513228974
 21
195.8599314567098872
 31
0.0
  0
LINE
  5
1A007
  8
0
 10
3408.7678464970099412
 20
197.1000889370099003
 30
0.0
 11
3410.0276590955099891
 21
197.1000889370099003
 31
0.0
  0
LINE
  5
1A008
  8
0
 10
3408.7481464970101115
 20
195.8796314567098875
 30
0.0
 11
3408.7481464970101115
 21
197.0803889370099
 31
0.0
  0
LINE
  5
1A009
  8
0
 10
3410.0473590955098189
 20
197.0803889370099
 30
0.0
 11
3410.0473590955098189
 21
196.2672466082790947
 31
0.0
  0
ARC
  5
1A00A
  8
0
 10
3408.7678464970099412
 20
195.8796314567098875
 30
0.0
 40
0.0197
 50
179.9999999999901945
 51
270.0
  0
ARC
  5
1A00B
  8
0
 10
3408.7678464970099412
 20
197.0803889370099
 30
0.0
 40
0.0197
 50
90.0
 51
179.9999999999901945
  0
ARC
  5
1A00C
  8
0
 10
3410.0276590955099891
 20
197.0803889370099
 30
0.0
 40
0.0197
 50
0.0
 51
90.0
  0
LINE
  5
1A00D
  8
0
 10
3410.0276590955099891
 20
197.1632345342098915
 30
0.0
 11
3408.7678464970099412
 21
197.1632345342098915
 31
0.0
  0
LINE
  5
1A00E
  8
0
 10
3410.0276590955099891
 20
197.6356754791098922
 30
0.0
 11
3408.7678464970099412
 21
197.6356754791098922
 31
0.0
  0
LINE
  5
1A00F
  8
0
 10
3408.7481464970101115
 20
197.6159754791098919
 30
0.0
 11
3408.7481464970101115
 21
197.1829345342098918
 31
0.0
  0
LINE
  5
1A010
  8
0
 10
3410.0473590955098189
 20
197.1829345342098918
 30
0.0
 11
3410.0473590955098189
 21
197.6159754791098919
 31
0.0
  0
ARC
  5
1A011
  8
0
 10
3410.0276590955099891
 20
197.1829345342098918
 30
0.0
 40
0.0197
 50
269.9999999999739089
 51
0.0
  0
ARC
  5
1A012
  8
0
 10
3410.0276590955099891
 20
197.6159754791098919
 30
0.0
 40
0.0197
 50
0.0
 51
90.0
  0
ARC
  5
1A013
  8
0
 10
3408.7678464970099412
 20
197.6159754791098919
 30
0.0
 40
0.0197
 50
89.9999999999739515
 51
179.9999999999901945
  0
ARC
  5
1A014
  8
0
 10
3408.7678464970099412
 20
197.1829345342098918
 30
0.0
 40
0.0197
 50
179.9999999999901945
 51
270.0
  0
LINE
  5
1A015
  8
0
 10
3407.5670493156940211
 20
187.1591440551098913
 30
0.0
 11
3408.8150658510940048
 21
187.1591440551098913
 31
0.0
  0
LINE
  5
1A016
  8
0
 10
3409.9804201817951252
 20
187.1591440551098913
 30
0.0
 11
3410.2259557938318721
 21
187.1591440551098913
 31
0.0
  0
LINE
  5
1A017
  8
0
 10
3410.2677430164940233
 20
187.1591440551098913
 30
0.0
 11
3411.5086861750360185
 21
187.1560132290150875
 31
0.0
  0
LINE
  5
1A018
  8
0
 10
3407.5670493156940211
 20
188.7339472047098923
 30
0.0
 11
3408.0554269411131827
 21
188.7339472047098923
 31
0.0
  0
LINE
  5
1A019
  8
0
 10
3408.6928985206709513
 20
188.7339472047098923
 30
0.0
 11
3408.8150658510940048
 21
188.7339472047098923
 31
0.0
  0
LINE
  5
1A01A
  8
0
 10
3409.9804201817951252
 20
188.7339472047098923
 30
0.0
 11
3410.2259557938318721
 21
188.7339472047098923
 31
0.0
  0
LINE
  5
1A01B
  8
0
 10
3410.2677430164940233
 20
188.7339472047098923
 30
0.0
 11
3410.8555921614661202
 21
188.7339472047098923
 31
0.0
  0
LINE
  5
1A01C
  8
0
 10
3407.5473493156941913
 20
188.714247204709892
 30
0.0
 11
3407.5473493156941913
 21
187.1788440551098915
 31
0.0
  0
ARC
  5
1A01D
  8
0
 10
3407.5670493156940211
 20
188.714247204709892
 30
0.0
 40
0.0197
 50
90.0
 51
180.0000000000048885
  0
ARC
  5
1A01E
  8
0
 10
3407.5670493156940211
 20
187.1788440551098915
 30
0.0
 40
0.0197
 50
180.0
 51
270.0
  0
LINE
  5
1A01F
  8
0
 10
3408.1300156524371232
 20
188.9001154282464086
 30
0.0
 11
3408.0857966301377928
 21
188.7227626164429068
 31
0.0
  0
LINE
  5
1A020
  8
0
 10
3408.718124720915057
 20
188.8905837055567929
 30
0.0
 11
3408.6778833444532211
 21
188.7291843604591008
 31
0.0
  0
LINE
  5
1A021
  8
0
 10
3408.1491304782462066
 20
188.9150495669098859
 30
0.0
 11
3408.6990098951091568
 21
188.9150495669098859
 31
0.0
  0
ARC
  5
1A022
  8
0
 10
3408.1491304782462066
 20
188.8953495669099141
 30
0.0
 40
0.0197
 50
90.0
 51
166.0000000203050092
  0
ARC
  5
1A023
  8
0
 10
3408.6990098951091568
 20
188.8953495669099141
 30
0.0
 40
0.0197
 50
345.9999999707665097
 51
89.9999999999739515
  0
ARC
  5
1A024
  8
0
 10
3408.3741627308918396
 20
189.4338188194452073
 30
0.0
 40
0.7673043280813433
 50
246.1089495454249914
 51
293.8910504545750086
  0
ARC
  5
1A025
  8
0
 10
3408.0554269411131827
 20
188.714247204709892
 30
0.0
 40
0.0197
 50
66.1089495454249629
 51
90.0
  0
ARC
  5
1A026
  8
0
 10
3408.6928985206709513
 20
188.7142472047096931
 30
0.0
 40
0.0197
 50
90.0000000000521254
 51
113.8910504544051037
  0
LINE
  5
1A027
  8
0
 10
3408.8150658510940048
 20
187.1197889370097869
 30
0.0
 11
3408.8150658510940048
 21
187.1591440551098913
 31
0.0
  0
LINE
  5
1A028
  8
0
 10
3409.9134903111998938
 20
187.1000889370097866
 30
0.0
 11
3409.9607201817939313
 21
187.1000889370097866
 31
0.0
  0
ARC
  5
1A029
  8
0
 10
3409.6316549305188346
 20
185.9574275992563059
 30
0.0
 40
1.3634445130815209
 50
109.3430060945889011
 51
122.820163219148796
  0
ARC
  5
1A02A
  8
0
 10
3409.3969973322359692
 20
186.6258956050818938
 30
0.0
 40
0.6549858599164406
 50
72.8284495071064839
 51
109.3430060945889011
  0
ARC
  5
1A02B
  8
0
 10
3409.1642378445189934
 20
185.9517999647895863
 30
0.0
 40
1.3679517927982701
 50
57.3202611870042986
 51
71.849626785226917
  0
ARC
  5
1A02C
  8
0
 10
3409.9134903111998938
 20
187.1197889370097869
 30
0.0
 40
0.0197
 50
237.320261186913001
 51
270.0000000000259774
  0
LINE
  5
1A02D
  8
0
 10
3408.8819850934819442
 20
187.1000889370097866
 30
0.0
 11
3408.8347658510938345
 21
187.1000889370097866
 31
0.0
  0
ARC
  5
1A02E
  8
0
 10
3408.8819850934819442
 20
187.1197889370099006
 30
0.0
 40
0.0197
 50
270.0000000000259774
 51
302.8201632190891814
  0
ARC
  5
1A02F
  8
0
 10
3408.8347658510938345
 20
187.1197889370097869
 30
0.0
 40
0.0197
 50
179.9999999999901945
 51
270.0
  0
LINE
  5
1A030
  8
0
 10
3409.9804201817951252
 20
187.1197889370097869
 30
0.0
 11
3409.9804201817951252
 21
187.1591440551098913
 31
0.0
  0
ARC
  5
1A031
  8
0
 10
3409.9607201817939313
 20
187.1197889370097869
 30
0.0
 40
0.0197
 50
269.9999999999739089
 51
0.0000000000048853
  0
ARC
  5
1A032
  8
0
 10
3410.0818716463891178
 20
185.3302931830955913
 30
0.0
 40
2.2247454764669699
 50
119.7867868054935059
 51
124.7095156102094933
  0
ARC
  5
1A033
  8
0
 10
3409.5739424654989307
 20
186.2176619847500945
 30
0.0
 40
1.202289881856756
 50
107.600825220291398
 51
119.7867868054935059
  0
ARC
  5
1A034
  8
0
 10
3409.3986254112292045
 20
186.7703037478142107
 30
0.0
 40
0.6225063120649317
 50
70.558044590053413
 51
107.600825220291398
  0
ARC
  5
1A035
  8
0
 10
3409.1405830023018098
 20
186.0392616693831087
 30
0.0
 40
1.397753630822772
 50
56.135273432013939
 51
70.558044590053413
  0
ARC
  5
1A036
  8
0
 10
3421.2079616448891102
 20
204.0213192732595928
 30
0.0
 40
20.2581006116835916
 50
236.1352734320138893
 51
236.3426634909729955
  0
LINE
  5
1A037
  8
0
 10
3408.8150658510940048
 20
188.7733023228099114
 30
0.0
 11
3408.8150658510940048
 21
188.7339472047098923
 31
0.0
  0
LINE
  5
1A038
  8
0
 10
3409.9134903111998938
 20
188.7930023228099117
 30
0.0
 11
3409.9607201817939313
 21
188.7930023228099117
 31
0.0
  0
ARC
  5
1A039
  8
0
 10
3409.6316549305188346
 20
189.935663660563506
 30
0.0
 40
1.3634445130815209
 50
237.1798367808511045
 51
250.6569939054110989
  0
ARC
  5
1A03A
  8
0
 10
3409.3969973322359692
 20
189.2671956547378045
 30
0.0
 40
0.6549858599164406
 50
250.6569939054110989
 51
287.1715504928935161
  0
ARC
  5
1A03B
  8
0
 10
3409.1642378445189934
 20
189.941291295030112
 30
0.0
 40
1.3679517927982701
 50
288.150373214773083
 51
302.6797388129957085
  0
ARC
  5
1A03C
  8
0
 10
3409.9134903111998938
 20
188.7733023228099114
 30
0.0
 40
0.0197
 50
89.9999999999739515
 51
122.6797388130650006
  0
LINE
  5
1A03D
  8
0
 10
3408.8819850934819442
 20
188.7930023228099117
 30
0.0
 11
3408.8347658510938345
 21
188.7930023228099117
 31
0.0
  0
ARC
  5
1A03E
  8
0
 10
3408.8819850934819442
 20
188.7733023228097977
 30
0.0
 40
0.0197
 50
57.1798367809107972
 51
89.9999999999739515
  0
ARC
  5
1A03F
  8
0
 10
3408.8347658510938345
 20
188.7733023228099114
 30
0.0
 40
0.0197
 50
89.9999999999739515
 51
180.0000000000098055
  0
LINE
  5
1A040
  8
0
 10
3409.9804201817951252
 20
188.7733023228099114
 30
0.0
 11
3409.9804201817951252
 21
188.7339472047098923
 31
0.0
  0
ARC
  5
1A041
  8
0
 10
3409.9607201817939313
 20
188.7733023228099114
 30
0.0
 40
0.0197
 50
359.9999999999951115
 51
90.0
  0
ARC
  5
1A042
  8
0
 10
3410.0818716463891178
 20
190.562798076724107
 30
0.0
 40
2.2247454764669699
 50
235.2904843897904072
 51
240.2132131945064941
  0
ARC
  5
1A043
  8
0
 10
3409.5739424654989307
 20
189.6754292750696891
 30
0.0
 40
1.202289881856756
 50
240.2132131945064941
 51
252.3991747797084884
  0
ARC
  5
1A044
  8
0
 10
3409.3986254112292045
 20
189.1227875120054875
 30
0.0
 40
0.6225063120649317
 50
252.3991747797084884
 51
289.4419554099465017
  0
ARC
  5
1A045
  8
0
 10
3409.1405830023018098
 20
189.8538295904365896
 30
0.0
 40
1.397753630822772
 50
289.4419554099465017
 51
303.864726567985997
  0
ARC
  5
1A046
  8
0
 10
3421.2079616448891102
 20
171.8717719865601055
 30
0.0
 40
20.2581006116835916
 50
123.6573365090053045
 51
123.864726567985997
  0
LINE
  5
1A047
  8
0
 10
3411.8430138637731943
 20
187.1667538855660951
 30
0.0
 11
3411.5086861750360185
 21
187.1560132290150875
 31
0.0
  0
LINE
  5
1A048
  8
0
 10
3411.8631450963939642
 20
187.187348551311004
 30
0.0
 11
3411.8631450963939642
 21
188.4346153717987988
 31
0.0
  0
ARC
  5
1A049
  8
0
 10
3411.842545096394133
 20
187.187348551311004
 30
0.0
 40
0.0206
 50
271.3039180072203749
 51
0.0
  0
LINE
  5
1A04A
  8
0
 10
3410.2677430164940233
 20
187.1591440551098913
 30
0.0
 11
3410.2677430164940233
 21
188.7339472047098923
 31
0.0
  0
LINE
  5
1A04B
  8
0
 10
3410.2259557938318721
 20
188.6276479921097859
 30
0.0
 11
3410.2677430164940233
 21
188.6276479921097859
 31
0.0
  0
LINE
  5
1A04C
  8
0
 10
3410.2259557938318721
 20
187.2654432677099123
 30
0.0
 11
3410.2677430164940233
 21
187.2654432677099123
 31
0.0
  0
ARC
  5
1A04D
  8
0
 10
3409.3977527963102148
 20
196.4800101968099
 30
0.0
 40
1.2401574802999991
 50
108.5094049816960933
 51
111.2718185656579948
  0
ARC
  5
1A04E
  8
0
 10
3409.3977527963102148
 20
196.4800101968099
 30
0.0
 40
1.2401574802999991
 50
121.5881355103507957
 51
246.6201318815780041
  0
ARC
  5
1A04F
  8
0
 10
3409.3977527963102148
 20
196.4800101968099
 30
0.0
 40
1.2401574802999991
 50
0.9422290297377841
 51
58.4118644950643784
  0
ARC
  5
1A050
  8
0
 10
3409.3977527963102148
 20
196.4800101968099
 30
0.0
 40
1.2401574802999991
 50
68.728181434341991
 51
71.4905950183039351
  0
LINE
  5
1A051
  8
0
 10
3409.0040520089100937
 20
210.8402464173599071
 30
0.0
 11
3409.7914535836098366
 21
210.8402464173599071
 31
0.0
  0
LINE
  5
1A052
  8
0
 10
3409.0335795679097828
 20
210.7221361905099002
 30
0.0
 11
3409.0335795679097828
 21
210.8402464173599071
 31
0.0
  0
ARC
  5
1A053
  8
0
 10
3409.3977527963102148
 20
213.5961519291599018
 30
0.0
 40
0.3937007873999967
 50
90.0000000072693638
 51
180.0
  0
ARC
  5
1A054
  8
0
 10
3411.3538962829061347
 20
188.9219438860073979
 30
0.0
 40
0.5691937040550819
 50
292.1146569864461071
 51
306.3270881022453977
  0
ARC
  5
1A055
  8
0
 10
3411.4039527474728857
 20
188.7955754705506877
 30
0.0
 40
0.4332792535058774
 50
261.9624231666895184
 51
292.273194850623895
  0
ARC
  5
1A056
  8
0
 10
3411.4236841251181431
 20
188.8570320573278991
 30
0.0
 40
0.4970115352014585
 50
234.3836138589477969
 51
260.7006290632227206
  0
ARC
  5
1A057
  8
0
 10
3411.5381128631029242
 20
189.0408989916030009
 30
0.0
 40
0.71325991666443
 50
223.3755584356269992
 51
235.5125469405467982
  0
LINE
  5
1A058
  8
0
 10
3409.9489338986099938
 20
197.1632345342098915
 30
0.0
 11
3409.9489338986099938
 21
197.1000889370099003
 31
0.0
  0
LINE
  5
1A059
  8
0
 10
3408.8465716939099366
 20
197.1000889370099003
 30
0.0
 11
3408.8465716939099366
 21
197.1632345342098915
 31
0.0
  0
ARC
  5
1A05A
  8
0
 10
3409.6909236150841025
 20
190.0351352003876002
 30
0.0
 40
1.536017263469627
 50
235.2348856214711077
 51
249.1855189733319094
  0
ARC
  5
1A05B
  8
0
 10
3409.3979718877581035
 20
189.2660240304196861
 30
0.0
 40
0.713003234503237
 50
249.228434801546797
 51
280.6531204054195996
  0
ARC
  5
1A05C
  8
0
 10
3409.2087616961121057
 20
189.8530133025948885
 30
0.0
 40
1.3271143953682829
 50
283.9982102574851979
 51
305.5530076688904728
  0
ARC
  5
1A05D
  8
0
 10
3409.6860195166232188
 20
185.8643820446878863
 30
0.0
 40
1.527941999156734
 50
110.0647313337678952
 51
124.7514454986413028
  0
ARC
  5
1A05E
  8
0
 10
3409.3966171607958131
 20
186.6544692841806068
 30
0.0
 40
0.6865204400891524
 50
73.9224359996195375
 51
110.0002272433976032
  0
ARC
  5
1A05F
  8
0
 10
3409.1462305502341223
 20
185.9259307818535092
 30
0.0
 40
1.4564235771351841
 50
55.0566797451488696
 51
72.3945581883784541
  0
LINE
  5
1A060
  8
0
 10
3408.9684788428799038
 20
197.1632345342098915
 30
0.0
 11
3408.9684788428799038
 21
197.6356754791098922
 31
0.0
  0
ARC
  5
1A061
  8
0
 10
3411.2309816705637786
 20
188.757619268501287
 30
0.0
 40
0.295508739103215
 50
216.3439790612810896
 51
224.3496844028674104
  0
LINE
  5
1A062
  8
0
 10
3411.6910832957960338
 20
188.463373944696599
 30
0.0
 11
3411.8631450963939642
 21
188.4346153717987988
 31
0.0
  0
LINE
  5
1A063
  8
0
 10
3410.2259557938318721
 20
188.7339472047098923
 30
0.0
 11
3410.2259557938318721
 21
187.1591440551098913
 31
0.0
  0
LINE
  5
1A064
  8
0
 10
3409.7619260246101476
 20
210.7221361905099002
 30
0.0
 11
3409.0335795679097828
 21
210.7221361905099002
 31
0.0
  0
LINE
  5
1A065
  8
0
 10
3409.0335795679097828
 20
210.7221361905099002
 30
0.0
 11
3408.9843669694109849
 21
210.6729235934099052
 31
0.0
  0
LINE
  5
1A066
  8
0
 10
3408.9843669694109849
 20
210.6729235934099052
 30
0.0
 11
3408.9843669694109849
 21
210.6304353937098028
 31
0.0
  0
LINE
  5
1A067
  8
0
 10
3409.7619260246101476
 20
210.7221361905099002
 30
0.0
 11
3409.7619260246101476
 21
210.8402464173599071
 31
0.0
  0
ARC
  5
1A068
  8
0
 10
3409.3977527962101703
 20
213.5961519291599018
 30
0.0
 40
0.3937007873999967
 50
0.0
 51
89.9999999927306362
  0
LINE
  5
1A069
  8
0
 10
3409.7619260246101476
 20
210.7221361905099002
 30
0.0
 11
3409.811138623109855
 21
210.6729235934099052
 31
0.0
  0
LINE
  5
1A06A
  8
0
 10
3409.811138623109855
 20
210.6729235934099052
 30
0.0
 11
3409.811138623109855
 21
210.6304353937098028
 31
0.0
  0
LINE
  5
1A06B
  8
0
 10
3409.7914535836098366
 20
213.5961519291599018
 30
0.0
 11
3409.7914535836098366
 21
210.6926086323499021
 31
0.0
  0
LINE
  5
1A06C
  8
0
 10
3409.7914535836098366
 20
208.2323195822617095
 30
0.0
 11
3409.7914535836098366
 21
197.6356754791098922
 31
0.0
  0
LINE
  5
1A06D
  8
0
 10
3409.8898787806101609
 20
193.9816672771785875
 30
0.0
 11
3409.8898787806101609
 21
188.7816631911587137
 31
0.0
  0
LINE
  5
1A06E
  8
0
 10
3408.9056268119102242
 20
195.8599314567098872
 30
0.0
 11
3408.9056268119102242
 21
188.7815994893661866
 31
0.0
  0
LINE
  5
1A06F
  8
0
 10
3409.0040520089100937
 20
208.2323195843962083
 30
0.0
 11
3409.0040520089100937
 21
197.6356754791098922
 31
0.0
  0
LINE
  5
1A070
  8
0
 10
3409.0040520089100937
 20
213.5961519291599018
 30
0.0
 11
3409.0040520089100937
 21
210.6926086323499021
 31
0.0
  0
ARC
  5
1A071
  8
0
 10
3412.3010074146791339
 20
194.111013738513293
 30
0.0
 40
0.0158605807137526
 50
324.2394184961652854
 51
67.0033838462698981
  0
ARC
  5
1A072
  8
0
 10
3412.2721100745338845
 20
194.140082628141414
 30
0.0
 40
0.0566950177214783
 50
246.4731974511296073
 51
317.4517227797161922
  0
ARC
  5
1A073
  8
0
 10
3412.2539366261171381
 20
194.1034524684361031
 30
0.0
 40
0.0159861554976066
 50
152.4446030863057047
 51
253.8076090149442905
  0
ARC
  5
1A074
  8
0
 10
3412.2825686117048463
 20
194.0767386269361907
 30
0.0
 40
0.0547327900958636
 50
63.2499767706408633
 51
141.4502634687277975
  0
ARC
  5
1A075
  8
0
 10
3412.3437129699800607
 20
194.124562683111094
 30
0.0
 40
0.0486730783452054
 50
319.1578359819349089
 51
61.2885480124258066
  0
ARC
  5
1A076
  8
0
 10
3412.2646258623108224
 20
194.1993549560017982
 30
0.0
 40
0.1574910575545338
 50
242.5655543709669928
 51
317.3893934999989028
  0
ARC
  5
1A077
  8
0
 10
3412.2156967186951988
 20
194.106610929575595
 30
0.0
 40
0.0526384696859408
 50
150.5540833620383978
 51
243.3234032705927916
  0
ARC
  5
1A078
  8
0
 10
3412.2900321628821985
 20
194.0275704632651923
 30
0.0
 40
0.1595290558649843
 50
61.1140649164381173
 51
138.8775098927004024
  0
LINE
  5
1A079
  8
0
 10
3412.3923857424988455
 20
194.1247352255556962
 30
0.0
 11
3412.396517005502119
 21
194.1678536024919879
 31
0.0
  0
ARC
  5
1A07A
  8
0
 10
3412.3575389452398667
 20
194.1528640159355064
 30
0.0
 40
0.0417609493044361
 50
328.0191707770679272
 51
29.0545641892025905
  0
ARC
  5
1A07B
  8
0
 10
3412.3015764133037919
 20
194.0877253927409072
 30
0.0
 40
0.1258843011852876
 50
42.7308816232725732
 51
91.8063237887285766
  0
ARC
  5
1A07C
  8
0
 10
3412.2861993905939926
 20
194.0504673725434941
 30
0.0
 40
0.1634783664592842
 50
85.9981239425629553
 51
136.4914950191663934
  0
ARC
  5
1A07D
  8
0
 10
3412.2030612791099884
 20
194.1310585215499884
 30
0.0
 40
0.0477120670867652
 50
137.9483835643085001
 51
213.0788411731743963
  0
LINE
  5
1A07E
  8
0
 10
3412.1630759442650742
 20
194.105246162496087
 30
0.0
 11
3412.159492124074859
 21
194.1505051170179001
 31
0.0
  0
ARC
  5
1A07F
  8
0
 10
3412.7333676804059905
 20
194.2420689373242908
 30
0.0
 40
0.0102232792820635
 50
320.1661347978127878
 51
69.0763881104431903
  0
ARC
  5
1A080
  8
0
 10
3412.7119854498891982
 20
194.25990536191091
 30
0.0
 40
0.0380681679321529
 50
253.6225302683155007
 51
320.1661347977948822
  0
ARC
  5
1A081
  8
0
 10
3412.7044886535491059
 20
194.2343964033375983
 30
0.0
 40
0.0114804090412692
 50
147.6195894756775999
 51
253.6225302683155007
  0
ARC
  5
1A082
  8
0
 10
3412.7238805203342054
 20
194.2156728462163926
 30
0.0
 40
0.0382709979693845
 50
69.9224314584453168
 51
139.4670564415270917
  0
ARC
  5
1A083
  8
0
 10
3412.7544136510741737
 20
194.253900790655706
 30
0.0
 40
0.0278277611967817
 50
318.0431887654643788
 51
56.5040373540970933
  0
ARC
  5
1A084
  8
0
 10
3412.7066567148408467
 20
194.2911219128750986
 30
0.0
 40
0.0883293699154341
 50
246.1535248913158114
 51
320.8006819835379133
  0
ARC
  5
1A085
  8
0
 10
3412.6845196275730814
 20
194.2371586554274074
 30
0.0
 40
0.0300640914076377
 50
144.4852524984854085
 51
243.1612748828532915
  0
ARC
  5
1A086
  8
0
 10
3412.7294246463411582
 20
194.195031684045091
 30
0.0
 40
0.0914560481217059
 50
63.8222294724333068
 51
139.3386335615788028
  0
LINE
  5
1A087
  8
0
 10
3412.7821740500207852
 20
194.2558358729737904
 30
0.0
 11
3412.7874572275050014
 21
194.3222486568162992
 31
0.0
  0
ARC
  5
1A088
  8
0
 10
3412.7658252772830565
 20
194.3049034924582941
 30
0.0
 40
0.0277271707354273
 50
312.1796146265483003
 51
41.9374134521764788
  0
ARC
  5
1A089
  8
0
 10
3412.7366951105418593
 20
194.2426112518249113
 30
0.0
 40
0.0949102752243234
 50
58.382932761868517
 51
108.1448976636943939
  0
ARC
  5
1A08A
  8
0
 10
3412.7312597153031675
 20
194.2238781738934961
 30
0.0
 40
0.1115626171787395
 50
102.4869038774973973
 51
136.8909041366659096
  0
ARC
  5
1A08B
  8
0
 10
3412.66927662508715
 20
194.2783905255481898
 30
0.0
 40
0.029171141471741
 50
131.8530034892224876
 51
231.5572467250892998
  0
LINE
  5
1A08C
  8
0
 10
3412.6546241135069977
 20
194.2339793739153038
 30
0.0
 11
3412.6448674405328347
 21
194.2943638534478055
 31
0.0
  0
ARC
  5
1A08D
  8
0
 10
3412.2069201714061819
 20
194.3445898480242988
 30
0.0
 40
0.0102232792820635
 50
320.1661347978127878
 51
69.0763881104431903
  0
ARC
  5
1A08E
  8
0
 10
3412.1855379408889348
 20
194.3624262726108896
 30
0.0
 40
0.0380681679321529
 50
253.6225302683155007
 51
320.1661347977948822
  0
ARC
  5
1A08F
  8
0
 10
3412.1780411445502068
 20
194.3369173140376063
 30
0.0
 40
0.0114804090412692
 50
147.6195894756775999
 51
253.6225302683155007
  0
ARC
  5
1A090
  8
0
 10
3412.1974330113330325
 20
194.3181937569164006
 30
0.0
 40
0.0382709979693845
 50
69.9224314584453168
 51
139.4670564415270917
  0
ARC
  5
1A091
  8
0
 10
3412.2279661420739103
 20
194.3564217013556004
 30
0.0
 40
0.0278277611967817
 50
318.0431887654643788
 51
56.5040373540970933
  0
ARC
  5
1A092
  8
0
 10
3412.1802092058410381
 20
194.3936428235749929
 30
0.0
 40
0.0883293699154341
 50
246.1535248913158114
 51
320.8006819835379133
  0
ARC
  5
1A093
  8
0
 10
3412.158072118572818
 20
194.339679566127387
 30
0.0
 40
0.0300640914076377
 50
144.4852524984854085
 51
243.1612748828532915
  0
ARC
  5
1A094
  8
0
 10
3412.2029771373408948
 20
194.297552594745099
 30
0.0
 40
0.0914560481217059
 50
63.8222294724333068
 51
139.3386335615788028
  0
LINE
  5
1A095
  8
0
 10
3412.2557265410209766
 20
194.3583567836737984
 30
0.0
 11
3412.2610097185051927
 21
194.4247695675163925
 31
0.0
  0
ARC
  5
1A096
  8
0
 10
3412.2393777682841574
 20
194.4074244031583021
 30
0.0
 40
0.0277271707354273
 50
312.1796146265483003
 51
41.9374134521764788
  0
ARC
  5
1A097
  8
0
 10
3412.2102476015420507
 20
194.3451321625248909
 30
0.0
 40
0.0949102752243234
 50
58.382932761868517
 51
108.1448976636943939
  0
ARC
  5
1A098
  8
0
 10
3412.2048122063029041
 20
194.3263990845935041
 30
0.0
 40
0.1115626171787395
 50
102.4869038774973973
 51
136.8909041366659096
  0
ARC
  5
1A099
  8
0
 10
3412.1428291160868866
 20
194.3809114362481978
 30
0.0
 40
0.029171141471741
 50
131.8530034892224876
 51
231.5572467250892998
  0
LINE
  5
1A09A
  8
0
 10
3412.1281766045080985
 20
194.3365002846153118
 30
0.0
 11
3412.1184199315330261
 21
194.3968847641478135
 31
0.0
  0
ARC
  5
1A09B
  8
0
 10
3413.1356572939062062
 20
194.5448010520242974
 30
0.0
 40
0.0102232792820635
 50
320.1661347978127878
 51
69.0763881104431903
  0
ARC
  5
1A09C
  8
0
 10
3413.1142750633889591
 20
194.5626374766108881
 30
0.0
 40
0.0380681679321529
 50
253.6225302683155007
 51
320.1661347977948822
  0
ARC
  5
1A09D
  8
0
 10
3413.1067782670497763
 20
194.5371285180376049
 30
0.0
 40
0.0114804090412692
 50
147.6195894756775999
 51
253.6225302683155007
  0
ARC
  5
1A09E
  8
0
 10
3413.1261701338339662
 20
194.5184049609163139
 30
0.0
 40
0.0382709979693845
 50
69.9224314584453168
 51
139.4670564415270917
  0
ARC
  5
1A09F
  8
0
 10
3413.1567032645748441
 20
194.556632905355599
 30
0.0
 40
0.0278277611967817
 50
318.0431887654643788
 51
56.5040373540970933
  0
ARC
  5
1A0A0
  8
0
 10
3413.1089463283410623
 20
194.5938540275751052
 30
0.0
 40
0.0883293699154341
 50
246.1535248913158114
 51
320.8006819835379133
  0
ARC
  5
1A0A1
  8
0
 10
3413.0868092410728423
 20
194.539890770127414
 30
0.0
 40
0.0300640914076377
 50
144.4852524984854085
 51
243.1612748828532915
  0
ARC
  5
1A0A2
  8
0
 10
3413.1317142598409191
 20
194.4977637987450976
 30
0.0
 40
0.0914560481217059
 50
63.8222294724333068
 51
139.3386335615788028
  0
LINE
  5
1A0A3
  8
0
 10
3413.1844636635210009
 20
194.558567987673797
 30
0.0
 11
3413.189746841005217
 21
194.6249807715163058
 31
0.0
  0
ARC
  5
1A0A4
  8
0
 10
3413.1681148907841816
 20
194.6076356071583007
 30
0.0
 40
0.0277271707354273
 50
312.1796146265483003
 51
41.9374134521764788
  0
ARC
  5
1A0A5
  8
0
 10
3413.138984724042075
 20
194.5453433665248895
 30
0.0
 40
0.0949102752243234
 50
58.382932761868517
 51
108.1448976636943939
  0
ARC
  5
1A0A6
  8
0
 10
3413.1335493288029284
 20
194.5266102885935027
 30
0.0
 40
0.1115626171787395
 50
102.4869038774973973
 51
136.8909041366659096
  0
ARC
  5
1A0A7
  8
0
 10
3413.0715662385869109
 20
194.5811226402481964
 30
0.0
 40
0.029171141471741
 50
131.8530034892224876
 51
231.5572467250892998
  0
LINE
  5
1A0A8
  8
0
 10
3413.0569137270081228
 20
194.5367114886153104
 30
0.0
 11
3413.0471570540330504
 21
194.5970959681478121
 31
0.0
  0
ARC
  5
1A0A9
  8
0
 10
3412.8474529367558716
 20
194.7892763966243024
 30
0.0
 40
0.0102232792820635
 50
320.1661347978127878
 51
69.0763881104431903
  0
ARC
  5
1A0AA
  8
0
 10
3412.8260707062390793
 20
194.8071128212108931
 30
0.0
 40
0.0380681679321529
 50
253.6225302683155007
 51
320.1661347977948822
  0
ARC
  5
1A0AB
  8
0
 10
3412.818573909900806
 20
194.7816038626376098
 30
0.0
 40
0.0114804090412692
 50
147.6195894756775999
 51
253.6225302683155007
  0
ARC
  5
1A0AC
  8
0
 10
3412.8379657766840864
 20
194.7628803055162905
 30
0.0
 40
0.0382709979693845
 50
69.9224314584453168
 51
139.4670564415270917
  0
ARC
  5
1A0AD
  8
0
 10
3412.8684989074249643
 20
194.8011082499556039
 30
0.0
 40
0.0278277611967817
 50
318.0431887654643788
 51
56.5040373540970933
  0
ARC
  5
1A0AE
  8
0
 10
3412.820741971192092
 20
194.8383293721751102
 30
0.0
 40
0.0883293699154341
 50
246.1535248913158114
 51
320.8006819835379133
  0
ARC
  5
1A0AF
  8
0
 10
3412.7986048839229625
 20
194.7843661147273906
 30
0.0
 40
0.0300640914076377
 50
144.4852524984854085
 51
243.1612748828532915
  0
ARC
  5
1A0B0
  8
0
 10
3412.8435099026910393
 20
194.7422391433451025
 30
0.0
 40
0.0914560481217059
 50
63.8222294724333068
 51
139.3386335615788028
  0
LINE
  5
1A0B1
  8
0
 10
3412.8962593063702116
 20
194.803043332273802
 30
0.0
 11
3412.9015424838557919
 21
194.8694561161163108
 31
0.0
  0
ARC
  5
1A0B2
  8
0
 10
3412.8799105336338471
 20
194.8521109517583056
 30
0.0
 40
0.0277271707354273
 50
312.1796146265483003
 51
41.9374134521764788
  0
ARC
  5
1A0B3
  8
0
 10
3412.8507803668931047
 20
194.7898187111248944
 30
0.0
 40
0.0949102752243234
 50
58.382932761868517
 51
108.1448976636943939
  0
ARC
  5
1A0B4
  8
0
 10
3412.8453449716530486
 20
194.7710856331935076
 30
0.0
 40
0.1115626171787395
 50
102.4869038774973973
 51
136.8909041366659096
  0
ARC
  5
1A0B5
  8
0
 10
3412.7833618814361216
 20
194.8255979848482013
 30
0.0
 40
0.029171141471741
 50
131.8530034892224876
 51
231.5572467250892998
  0
LINE
  5
1A0B6
  8
0
 10
3412.7687093698577883
 20
194.7811868332152017
 30
0.0
 11
3412.7589526968831706
 21
194.8415713127477886
 31
0.0
  0
ARC
  5
1A0B7
  8
0
 10
3412.9960735302138346
 20
195.2087779172694866
 30
0.0
 40
0.0102232792820635
 50
320.1661347978127878
 51
69.0763881104431903
  0
ARC
  5
1A0B8
  8
0
 10
3412.9746912996970423
 20
195.2266143418561057
 30
0.0
 40
0.0380681679321529
 50
253.6225302683155007
 51
320.1661347977948822
  0
ARC
  5
1A0B9
  8
0
 10
3412.9671945033592237
 20
195.201105383282794
 30
0.0
 40
0.0114804090412692
 50
147.6195894756775999
 51
253.6225302683155007
  0
ARC
  5
1A0BA
  8
0
 10
3412.9865863701420494
 20
195.1823818261615884
 30
0.0
 40
0.0382709979693845
 50
69.9224314584453168
 51
139.4670564415270917
  0
ARC
  5
1A0BB
  8
0
 10
3413.0171195008829272
 20
195.2206097706007881
 30
0.0
 40
0.0278277611967817
 50
318.0431887654643788
 51
56.5040373540970933
  0
ARC
  5
1A0BC
  8
0
 10
3412.969362564650055
 20
195.2578308928202944
 30
0.0
 40
0.0883293699154341
 50
246.1535248913158114
 51
320.8006819835379133
  0
ARC
  5
1A0BD
  8
0
 10
3412.9472254773818349
 20
195.2038676353726032
 30
0.0
 40
0.0300640914076377
 50
144.4852524984854085
 51
243.1612748828532915
  0
ARC
  5
1A0BE
  8
0
 10
3412.9921304961490023
 20
195.1617406639902867
 30
0.0
 40
0.0914560481217059
 50
63.8222294724333068
 51
139.3386335615788028
  0
LINE
  5
1A0BF
  8
0
 10
3413.0448798998299935
 20
195.2225448529189862
 30
0.0
 11
3413.0501630773142097
 21
195.2889576367616087
 31
0.0
  0
ARC
  5
1A0C0
  8
0
 10
3413.0285311270931743
 20
195.2716124724034898
 30
0.0
 40
0.0277271707354273
 50
312.1796146265483003
 51
41.9374134521764788
  0
ARC
  5
1A0C1
  8
0
 10
3412.9994009603510676
 20
195.2093202317701071
 30
0.0
 40
0.0949102752243234
 50
58.382932761868517
 51
108.1448976636943939
  0
ARC
  5
1A0C2
  8
0
 10
3412.993965565111921
 20
195.1905871538386918
 30
0.0
 40
0.1115626171787395
 50
102.4869038774973973
 51
136.8909041366659096
  0
ARC
  5
1A0C3
  8
0
 10
3412.9319824748949941
 20
195.245099505493414
 30
0.0
 40
0.029171141471741
 50
131.8530034892224876
 51
231.5572467250892998
  0
LINE
  5
1A0C4
  8
0
 10
3412.917329963316206
 20
195.2006883538604995
 30
0.0
 11
3412.9075732903411335
 21
195.2610728333930012
 31
0.0
  0
ARC
  5
1A0C5
  8
0
 10
3412.5108639811601279
 20
195.2988582638236039
 30
0.0
 40
0.0102232792820635
 50
320.1661347978127878
 51
69.0763881104431903
  0
ARC
  5
1A0C6
  8
0
 10
3412.4894817506419713
 20
195.3166946884101947
 30
0.0
 40
0.0380681679321529
 50
253.6225302683155007
 51
320.1661347977948822
  0
ARC
  5
1A0C7
  8
0
 10
3412.4819849543041528
 20
195.2911857298369114
 30
0.0
 40
0.0114804090412692
 50
147.6195894756775999
 51
253.6225302683155007
  0
ARC
  5
1A0C8
  8
0
 10
3412.5013768210878879
 20
195.272462172715592
 30
0.0
 40
0.0382709979693845
 50
69.9224314584453168
 51
139.4670564415270917
  0
ARC
  5
1A0C9
  8
0
 10
3412.5319099518292205
 20
195.3106901171549055
 30
0.0
 40
0.0278277611967817
 50
318.0431887654643788
 51
56.5040373540970933
  0
ARC
  5
1A0CA
  8
0
 10
3412.484153015594984
 20
195.347911239374298
 30
0.0
 40
0.0883293699154341
 50
246.1535248913158114
 51
320.8006819835379133
  0
ARC
  5
1A0CB
  8
0
 10
3412.4620159283272187
 20
195.2939479819266921
 30
0.0
 40
0.0300640914076377
 50
144.4852524984854085
 51
243.1612748828532915
  0
ARC
  5
1A0CC
  8
0
 10
3412.5069209470948408
 20
195.2518210105444041
 30
0.0
 40
0.0914560481217059
 50
63.8222294724333068
 51
139.3386335615788028
  0
LINE
  5
1A0CD
  8
0
 10
3412.5596703507749226
 20
195.3126251994729898
 30
0.0
 11
3412.5649535282591387
 21
195.3790379833156123
 31
0.0
  0
ARC
  5
1A0CE
  8
0
 10
3412.5433215780381033
 20
195.3616928189576072
 30
0.0
 40
0.0277271707354273
 50
312.1796146265483003
 51
41.9374134521764788
  0
ARC
  5
1A0CF
  8
0
 10
3412.5141914112959967
 20
195.299400578324196
 30
0.0
 40
0.0949102752243234
 50
58.382932761868517
 51
108.1448976636943939
  0
ARC
  5
1A0D0
  8
0
 10
3412.5087560160568501
 20
195.2806675003928092
 30
0.0
 40
0.1115626171787395
 50
102.4869038774973973
 51
136.8909041366659096
  0
ARC
  5
1A0D1
  8
0
 10
3412.4467729258408326
 20
195.3351798520475029
 30
0.0
 40
0.029171141471741
 50
131.8530034892224876
 51
231.5572467250892998
  0
LINE
  5
1A0D2
  8
0
 10
3412.4321204142620445
 20
195.2907687004145032
 30
0.0
 11
3412.4223637412869721
 21
195.3511531799470902
 31
0.0
  0
ARC
  5
1A0D3
  8
0
 10
3412.356636576155779
 20
195.7224185206742959
 30
0.0
 40
0.0102232792820635
 50
320.1661347978127878
 51
69.0763881104431903
  0
ARC
  5
1A0D4
  8
0
 10
3412.3352543456380772
 20
195.7402549452608866
 30
0.0
 40
0.0380681679321529
 50
253.6225302683155007
 51
320.1661347977948822
  0
ARC
  5
1A0D5
  8
0
 10
3412.3277575492998039
 20
195.7147459866876034
 30
0.0
 40
0.0114804090412692
 50
147.6195894756775999
 51
253.6225302683155007
  0
ARC
  5
1A0D6
  8
0
 10
3412.3471494160839939
 20
195.6960224295663124
 30
0.0
 40
0.0382709979693845
 50
69.9224314584453168
 51
139.4670564415270917
  0
ARC
  5
1A0D7
  8
0
 10
3412.3776825468248717
 20
195.7342503740055975
 30
0.0
 40
0.0278277611967817
 50
318.0431887654643788
 51
56.5040373540970933
  0
ARC
  5
1A0D8
  8
0
 10
3412.3299256105910899
 20
195.77147149622499
 30
0.0
 40
0.0883293699154341
 50
246.1535248913158114
 51
320.8006819835379133
  0
ARC
  5
1A0D9
  8
0
 10
3412.3077885233228699
 20
195.7175082387774125
 30
0.0
 40
0.0300640914076377
 50
144.4852524984854085
 51
243.1612748828532915
  0
ARC
  5
1A0DA
  8
0
 10
3412.3526935420918562
 20
195.6753812673950961
 30
0.0
 40
0.0914560481217059
 50
63.8222294724333068
 51
139.3386335615788028
  0
LINE
  5
1A0DB
  8
0
 10
3412.4054429457710285
 20
195.7361854563237955
 30
0.0
 11
3412.4107261232547899
 21
195.8025982401663043
 31
0.0
  0
ARC
  5
1A0DC
  8
0
 10
3412.3890941730342092
 20
195.7852530758082992
 30
0.0
 40
0.0277271707354273
 50
312.1796146265483003
 51
41.9374134521764788
  0
ARC
  5
1A0DD
  8
0
 10
3412.3599640062921026
 20
195.722960835174888
 30
0.0
 40
0.0949102752243234
 50
58.382932761868517
 51
108.1448976636943939
  0
ARC
  5
1A0DE
  8
0
 10
3412.354528611052956
 20
195.7042277572435012
 30
0.0
 40
0.1115626171787395
 50
102.4869038774973973
 51
136.8909041366659096
  0
ARC
  5
1A0DF
  8
0
 10
3412.2925455208369385
 20
195.7587401088981949
 30
0.0
 40
0.029171141471741
 50
131.8530034892224876
 51
231.5572467250892998
  0
LINE
  5
1A0E0
  8
0
 10
3412.2778930092581504
 20
195.7143289572653089
 30
0.0
 11
3412.268136336283078
 21
195.7747134367978106
 31
0.0
  0
ARC
  5
1A0E1
  8
0
 10
3411.8280617411560343
 20
195.611959666774311
 30
0.0
 40
0.0102232792820635
 50
320.1661347978127878
 51
69.0763881104431903
  0
ARC
  5
1A0E2
  8
0
 10
3411.8066795106387872
 20
195.6297960913609018
 30
0.0
 40
0.0380681679321529
 50
253.6225302683155007
 51
320.1661347977948822
  0
ARC
  5
1A0E3
  8
0
 10
3411.7991827142991497
 20
195.6042871327875901
 30
0.0
 40
0.0114804090412692
 50
147.6195894756775999
 51
253.6225302683155007
  0
ARC
  5
1A0E4
  8
0
 10
3411.8185745810828848
 20
195.5855635756664128
 30
0.0
 40
0.0382709979693845
 50
69.9224314584453168
 51
139.4670564415270917
  0
ARC
  5
1A0E5
  8
0
 10
3411.8491077118242174
 20
195.6237915201056126
 30
0.0
 40
0.0278277611967817
 50
318.0431887654643788
 51
56.5040373540970933
  0
ARC
  5
1A0E6
  8
0
 10
3411.8013507755908904
 20
195.6610126423250904
 30
0.0
 40
0.0883293699154341
 50
246.1535248913158114
 51
320.8006819835379133
  0
ARC
  5
1A0E7
  8
0
 10
3411.7792136883231251
 20
195.6070493848773992
 30
0.0
 40
0.0300640914076377
 50
144.4852524984854085
 51
243.1612748828532915
  0
ARC
  5
1A0E8
  8
0
 10
3411.8241187070912019
 20
195.5649224134951112
 30
0.0
 40
0.0914560481217059
 50
63.8222294724333068
 51
139.3386335615788028
  0
LINE
  5
1A0E9
  8
0
 10
3411.8768681107699194
 20
195.6257266024238106
 30
0.0
 11
3411.8821512882550451
 21
195.692139386266291
 31
0.0
  0
ARC
  5
1A0EA
  8
0
 10
3411.8605193380331002
 20
195.6747942219082859
 30
0.0
 40
0.0277271707354273
 50
312.1796146265483003
 51
41.9374134521764788
  0
ARC
  5
1A0EB
  8
0
 10
3411.831389171291903
 20
195.6125019812749031
 30
0.0
 40
0.0949102752243234
 50
58.382932761868517
 51
108.1448976636943939
  0
ARC
  5
1A0EC
  8
0
 10
3411.8259537760532112
 20
195.5937689033434879
 30
0.0
 40
0.1115626171787395
 50
102.4869038774973973
 51
136.8909041366659096
  0
ARC
  5
1A0ED
  8
0
 10
3411.7639706858371937
 20
195.64828125499821
 30
0.0
 40
0.029171141471741
 50
131.8530034892224876
 51
231.5572467250892998
  0
LINE
  5
1A0EE
  8
0
 10
3411.7493181742570414
 20
195.6038701033652956
 30
0.0
 11
3411.7395615012828785
 21
195.6642545828977973
 31
0.0
  0
ARC
  5
1A0EF
  8
0
 10
3411.663240171706093
 20
195.1578750260242998
 30
0.0
 40
0.0102232792820635
 50
320.1661347978127878
 51
69.0763881104431903
  0
ARC
  5
1A0F0
  8
0
 10
3411.6418579411888459
 20
195.1757114506108906
 30
0.0
 40
0.0380681679321529
 50
253.6225302683155007
 51
320.1661347977948822
  0
ARC
  5
1A0F1
  8
0
 10
3411.6343611448501179
 20
195.1502024920376073
 30
0.0
 40
0.0114804090412692
 50
147.6195894756775999
 51
253.6225302683155007
  0
ARC
  5
1A0F2
  8
0
 10
3411.6537530116329435
 20
195.1314789349164016
 30
0.0
 40
0.0382709979693845
 50
69.9224314584453168
 51
139.4670564415270917
  0
ARC
  5
1A0F3
  8
0
 10
3411.6842861423738213
 20
195.1697068793556014
 30
0.0
 40
0.0278277611967817
 50
318.0431887654643788
 51
56.5040373540970933
  0
ARC
  5
1A0F4
  8
0
 10
3411.6365292061409491
 20
195.2069280015751076
 30
0.0
 40
0.0883293699154341
 50
246.1535248913158114
 51
320.8006819835379133
  0
ARC
  5
1A0F5
  8
0
 10
3411.6143921188731838
 20
195.152964744127388
 30
0.0
 40
0.0300640914076377
 50
144.4852524984854085
 51
243.1612748828532915
  0
ARC
  5
1A0F6
  8
0
 10
3411.6592971376408059
 20
195.1108377727451
 30
0.0
 40
0.0914560481217059
 50
63.8222294724333068
 51
139.3386335615788028
  0
LINE
  5
1A0F7
  8
0
 10
3411.7120465413208876
 20
195.1716419616737994
 30
0.0
 11
3411.7173297188051038
 21
195.2380547455163082
 31
0.0
  0
ARC
  5
1A0F8
  8
0
 10
3411.6956977685840684
 20
195.2207095811583031
 30
0.0
 40
0.0277271707354273
 50
312.1796146265483003
 51
41.9374134521764788
  0
ARC
  5
1A0F9
  8
0
 10
3411.6665676018428712
 20
195.1584173405248919
 30
0.0
 40
0.0949102752243234
 50
58.382932761868517
 51
108.1448976636943939
  0
ARC
  5
1A0FA
  8
0
 10
3411.6611322066028151
 20
195.1396842625935051
 30
0.0
 40
0.1115626171787395
 50
102.4869038774973973
 51
136.8909041366659096
  0
ARC
  5
1A0FB
  8
0
 10
3411.5991491163858882
 20
195.1941966142481988
 30
0.0
 40
0.029171141471741
 50
131.8530034892224876
 51
231.5572467250892998
  0
LINE
  5
1A0FC
  8
0
 10
3411.5844966048071001
 20
195.1497854626153128
 30
0.0
 11
3411.5747399318329371
 21
195.2101699421477861
 31
0.0
  0
ARC
  5
1A0FD
  8
0
 10
3412.074457419006194
 20
194.9790505640243055
 30
0.0
 40
0.0102232792820635
 50
320.1661347978127878
 51
69.0763881104431903
  0
ARC
  5
1A0FE
  8
0
 10
3412.0530751884880374
 20
194.9968869886108962
 30
0.0
 40
0.0380681679321529
 50
253.6225302683155007
 51
320.1661347977948822
  0
ARC
  5
1A0FF
  8
0
 10
3412.0455783921502189
 20
194.9713780300376129
 30
0.0
 40
0.0114804090412692
 50
147.6195894756775999
 51
253.6225302683155007
  0
ARC
  5
1A100
  8
0
 10
3412.064970258933954
 20
194.9526544729164073
 30
0.0
 40
0.0382709979693845
 50
69.9224314584453168
 51
139.4670564415270917
  0
ARC
  5
1A101
  8
0
 10
3412.0955033896739224
 20
194.990882417355607
 30
0.0
 40
0.0278277611967817
 50
318.0431887654643788
 51
56.5040373540970933
  0
ARC
  5
1A102
  8
0
 10
3412.0477464534410501
 20
195.0281035395751132
 30
0.0
 40
0.0883293699154341
 50
246.1535248913158114
 51
320.8006819835379133
  0
ARC
  5
1A103
  8
0
 10
3412.0256093661728301
 20
194.9741402821273937
 30
0.0
 40
0.0300640914076377
 50
144.4852524984854085
 51
243.1612748828532915
  0
ARC
  5
1A104
  8
0
 10
3412.0705143849409069
 20
194.9320133107451056
 30
0.0
 40
0.0914560481217059
 50
63.8222294724333068
 51
139.3386335615788028
  0
LINE
  5
1A105
  8
0
 10
3412.1232637886209886
 20
194.9928174996738051
 30
0.0
 11
3412.1285469661052048
 21
195.0592302835163139
 31
0.0
  0
ARC
  5
1A106
  8
0
 10
3412.1069150158841694
 20
195.0418851191583087
 30
0.0
 40
0.0277271707354273
 50
312.1796146265483003
 51
41.9374134521764788
  0
ARC
  5
1A107
  8
0
 10
3412.0777848491420627
 20
194.9795928785248975
 30
0.0
 40
0.0949102752243234
 50
58.382932761868517
 51
108.1448976636943939
  0
ARC
  5
1A108
  8
0
 10
3412.0723494539029161
 20
194.9608598005935107
 30
0.0
 40
0.1115626171787395
 50
102.4869038774973973
 51
136.8909041366659096
  0
ARC
  5
1A109
  8
0
 10
3412.0103663636868987
 20
195.0153721522482044
 30
0.0
 40
0.029171141471741
 50
131.8530034892224876
 51
231.5572467250892998
  0
LINE
  5
1A10A
  8
0
 10
3411.9957138521081106
 20
194.9709610006152047
 30
0.0
 11
3411.9859571791330382
 21
195.0313454801477917
 31
0.0
  0
ARC
  5
1A10B
  8
0
 10
3411.7380159954059309
 20
194.9138561397242881
 30
0.0
 40
0.0102232792820635
 50
320.1661347978127878
 51
69.0763881104431903
  0
ARC
  5
1A10C
  8
0
 10
3411.7166337648891385
 20
194.9316925643109073
 30
0.0
 40
0.0380681679321529
 50
253.6225302683155007
 51
320.1661347977948822
  0
ARC
  5
1A10D
  8
0
 10
3411.7091369685499558
 20
194.9061836057375956
 30
0.0
 40
0.0114804090412692
 50
147.6195894756775999
 51
253.6225302683155007
  0
ARC
  5
1A10E
  8
0
 10
3411.7285288353327815
 20
194.8874600486163899
 30
0.0
 40
0.0382709979693845
 50
69.9224314584453168
 51
139.4670564415270917
  0
ARC
  5
1A10F
  8
0
 10
3411.7590619660750235
 20
194.9256879930555897
 30
0.0
 40
0.0278277611967817
 50
318.0431887654643788
 51
56.5040373540970933
  0
ARC
  5
1A110
  8
0
 10
3411.711305029840787
 20
194.9629091152750107
 30
0.0
 40
0.0883293699154341
 50
246.1535248913158114
 51
320.8006819835379133
  0
ARC
  5
1A111
  8
0
 10
3411.6891679425739312
 20
194.9089458578274048
 30
0.0
 40
0.0300640914076377
 50
144.4852524984854085
 51
243.1612748828532915
  0
ARC
  5
1A112
  8
0
 10
3411.7340729613410986
 20
194.8668188864450883
 30
0.0
 40
0.0914560481217059
 50
63.8222294724333068
 51
139.3386335615788028
  0
LINE
  5
1A113
  8
0
 10
3411.7868223650211803
 20
194.9276230753737877
 30
0.0
 11
3411.7921055425049417
 21
194.9940358592162966
 31
0.0
  0
ARC
  5
1A114
  8
0
 10
3411.7704735922839063
 20
194.9766906948582914
 30
0.0
 40
0.0277271707354273
 50
312.1796146265483003
 51
41.9374134521764788
  0
ARC
  5
1A115
  8
0
 10
3411.7413434255431639
 20
194.9143984542249086
 30
0.0
 40
0.0949102752243234
 50
58.382932761868517
 51
108.1448976636943939
  0
ARC
  5
1A116
  8
0
 10
3411.7359080303031078
 20
194.8956653762934934
 30
0.0
 40
0.1115626171787395
 50
102.4869038774973973
 51
136.8909041366659096
  0
ARC
  5
1A117
  8
0
 10
3411.6739249400870904
 20
194.9501777279481871
 30
0.0
 40
0.029171141471741
 50
131.8530034892224876
 51
231.5572467250892998
  0
LINE
  5
1A118
  8
0
 10
3411.6592724285078475
 20
194.9057665763153011
 30
0.0
 11
3411.6495157555327751
 21
194.9661510558478028
 31
0.0
  0
ARC
  5
1A119
  8
0
 10
3411.9462898330061762
 20
194.7378257289242924
 30
0.0
 40
0.0102232792820635
 50
320.1661347978127878
 51
69.0763881104431903
  0
ARC
  5
1A11A
  8
0
 10
3411.9249076024889291
 20
194.7556621535109116
 30
0.0
 40
0.0380681679321529
 50
253.6225302683155007
 51
320.1661347977948822
  0
ARC
  5
1A11B
  8
0
 10
3411.9174108061502011
 20
194.7301531949375999
 30
0.0
 40
0.0114804090412692
 50
147.6195894756775999
 51
253.6225302683155007
  0
ARC
  5
1A11C
  8
0
 10
3411.9368026729330268
 20
194.7114296378163942
 30
0.0
 40
0.0382709979693845
 50
69.9224314584453168
 51
139.4670564415270917
  0
ARC
  5
1A11D
  8
0
 10
3411.9673358036739046
 20
194.7496575822557077
 30
0.0
 40
0.0278277611967817
 50
318.0431887654643788
 51
56.5040373540970933
  0
ARC
  5
1A11E
  8
0
 10
3411.9195788674410323
 20
194.7868787044751002
 30
0.0
 40
0.0883293699154341
 50
246.1535248913158114
 51
320.8006819835379133
  0
ARC
  5
1A11F
  8
0
 10
3411.8974417801728123
 20
194.7329154470274091
 30
0.0
 40
0.0300640914076377
 50
144.4852524984854085
 51
243.1612748828532915
  0
ARC
  5
1A120
  8
0
 10
3411.9423467989408891
 20
194.6907884756450926
 30
0.0
 40
0.0914560481217059
 50
63.8222294724333068
 51
139.3386335615788028
  0
LINE
  5
1A121
  8
0
 10
3411.9950962026209709
 20
194.751592664573792
 30
0.0
 11
3412.000379380105187
 21
194.8180054484163009
 31
0.0
  0
ARC
  5
1A122
  8
0
 10
3411.9787474298841516
 20
194.8006602840582957
 30
0.0
 40
0.0277271707354273
 50
312.1796146265483003
 51
41.9374134521764788
  0
ARC
  5
1A123
  8
0
 10
3411.949617263142045
 20
194.7383680434249129
 30
0.0
 40
0.0949102752243234
 50
58.382932761868517
 51
108.1448976636943939
  0
ARC
  5
1A124
  8
0
 10
3411.9441818679028984
 20
194.7196349654934977
 30
0.0
 40
0.1115626171787395
 50
102.4869038774973973
 51
136.8909041366659096
  0
ARC
  5
1A125
  8
0
 10
3411.8821987776859714
 20
194.7741473171481914
 30
0.0
 40
0.029171141471741
 50
131.8530034892224876
 51
231.5572467250892998
  0
LINE
  5
1A126
  8
0
 10
3411.8675462661071833
 20
194.7297361655151917
 30
0.0
 11
3411.8577895931330204
 21
194.7901206450478071
 31
0.0
  0
ARC
  5
1A127
  8
0
 10
3412.2780103415061603
 20
194.6770470899242866
 30
0.0
 40
0.0102232792820635
 50
320.1661347978127878
 51
69.0763881104431903
  0
ARC
  5
1A128
  8
0
 10
3412.2566281109880038
 20
194.6948835145109058
 30
0.0
 40
0.0380681679321529
 50
253.6225302683155007
 51
320.1661347977948822
  0
ARC
  5
1A129
  8
0
 10
3412.2491313146501852
 20
194.6693745559375941
 30
0.0
 40
0.0114804090412692
 50
147.6195894756775999
 51
253.6225302683155007
  0
ARC
  5
1A12A
  8
0
 10
3412.2685231814339204
 20
194.6506509988163884
 30
0.0
 40
0.0382709979693845
 50
69.9224314584453168
 51
139.4670564415270917
  0
ARC
  5
1A12B
  8
0
 10
3412.2990563121747982
 20
194.6888789432555882
 30
0.0
 40
0.0278277611967817
 50
318.0431887654643788
 51
56.5040373540970933
  0
ARC
  5
1A12C
  8
0
 10
3412.2512993759410165
 20
194.7261000654750092
 30
0.0
 40
0.0883293699154341
 50
246.1535248913158114
 51
320.8006819835379133
  0
ARC
  5
1A12D
  8
0
 10
3412.2291622886727964
 20
194.6721368080274033
 30
0.0
 40
0.0300640914076377
 50
144.4852524984854085
 51
243.1612748828532915
  0
ARC
  5
1A12E
  8
0
 10
3412.2740673074408733
 20
194.6300098366450868
 30
0.0
 40
0.0914560481217059
 50
63.8222294724333068
 51
139.3386335615788028
  0
LINE
  5
1A12F
  8
0
 10
3412.326816711120955
 20
194.6908140255737862
 30
0.0
 11
3412.3320998886051711
 21
194.7572268094162951
 31
0.0
  0
ARC
  5
1A130
  8
0
 10
3412.3104679383841358
 20
194.7398816450582899
 30
0.0
 40
0.0277271707354273
 50
312.1796146265483003
 51
41.9374134521764788
  0
ARC
  5
1A131
  8
0
 10
3412.2813377716420291
 20
194.6775894044249071
 30
0.0
 40
0.0949102752243234
 50
58.382932761868517
 51
108.1448976636943939
  0
ARC
  5
1A132
  8
0
 10
3412.2759023764028825
 20
194.6588563264934919
 30
0.0
 40
0.1115626171787395
 50
102.4869038774973973
 51
136.8909041366659096
  0
ARC
  5
1A133
  8
0
 10
3412.2139192861868651
 20
194.713368678148214
 30
0.0
 40
0.029171141471741
 50
131.8530034892224876
 51
231.5572467250892998
  0
LINE
  5
1A134
  8
0
 10
3412.199266774608077
 20
194.6689575265151859
 30
0.0
 11
3412.1895101016330045
 21
194.7293420060478013
 31
0.0
  0
ARC
  5
1A135
  8
0
 10
3411.994455420056056
 20
194.5217500988242989
 30
0.0
 40
0.0102232792820635
 50
320.1661347978127878
 51
69.0763881104431903
  0
ARC
  5
1A136
  8
0
 10
3411.9730731895388089
 20
194.5395865234108896
 30
0.0
 40
0.0380681679321529
 50
253.6225302683155007
 51
320.1661347977948822
  0
ARC
  5
1A137
  8
0
 10
3411.9655763932000809
 20
194.5140775648376064
 30
0.0
 40
0.0114804090412692
 50
147.6195894756775999
 51
253.6225302683155007
  0
ARC
  5
1A138
  8
0
 10
3411.9849682599838161
 20
194.4953540077164007
 30
0.0
 40
0.0382709979693845
 50
69.9224314584453168
 51
139.4670564415270917
  0
ARC
  5
1A139
  8
0
 10
3412.0155013907251487
 20
194.5335819521556004
 30
0.0
 40
0.0278277611967817
 50
318.0431887654643788
 51
56.5040373540970933
  0
ARC
  5
1A13A
  8
0
 10
3411.9677444544918217
 20
194.5708030743751067
 30
0.0
 40
0.0883293699154341
 50
246.1535248913158114
 51
320.8006819835379133
  0
ARC
  5
1A13B
  8
0
 10
3411.9456073672217826
 20
194.5168398169273871
 30
0.0
 40
0.0300640914076377
 50
144.4852524984854085
 51
243.1612748828532915
  0
ARC
  5
1A13C
  8
0
 10
3411.9905123859912237
 20
194.4747128455450991
 30
0.0
 40
0.0914560481217059
 50
63.8222294724333068
 51
139.3386335615788028
  0
LINE
  5
1A13D
  8
0
 10
3412.0432617896699412
 20
194.5355170344737985
 30
0.0
 11
3412.0485449671550668
 21
194.6019298183163073
 31
0.0
  0
ARC
  5
1A13E
  8
0
 10
3412.0269130169340315
 20
194.5845846539583022
 30
0.0
 40
0.0277271707354273
 50
312.1796146265483003
 51
41.9374134521764788
  0
ARC
  5
1A13F
  8
0
 10
3411.9977828501928343
 20
194.522292413324891
 30
0.0
 40
0.0949102752243234
 50
58.382932761868517
 51
108.1448976636943939
  0
ARC
  5
1A140
  8
0
 10
3411.9923474549527782
 20
194.5035593353935042
 30
0.0
 40
0.1115626171787395
 50
102.4869038774973973
 51
136.8909041366659096
  0
ARC
  5
1A141
  8
0
 10
3411.9303643647358513
 20
194.5580716870481979
 30
0.0
 40
0.029171141471741
 50
131.8530034892224876
 51
231.5572467250892998
  0
LINE
  5
1A142
  8
0
 10
3411.9157118531579727
 20
194.5136605354153119
 30
0.0
 11
3411.9059551801829002
 21
194.5740450149478136
 31
0.0
  0
ARC
  5
1A143
  8
0
 10
3411.8596274933061068
 20
194.32052100822429
 30
0.0
 40
0.0102232792820635
 50
320.1661347978127878
 51
69.0763881104431903
  0
ARC
  5
1A144
  8
0
 10
3411.8382452627888597
 20
194.3383574328109091
 30
0.0
 40
0.0380681679321529
 50
253.6225302683155007
 51
320.1661347977948822
  0
ARC
  5
1A145
  8
0
 10
3411.8307484664501317
 20
194.3128484742375974
 30
0.0
 40
0.0114804090412692
 50
147.6195894756775999
 51
253.6225302683155007
  0
ARC
  5
1A146
  8
0
 10
3411.8501403332329573
 20
194.2941249171163918
 30
0.0
 40
0.0382709979693845
 50
69.9224314584453168
 51
139.4670564415270917
  0
ARC
  5
1A147
  8
0
 10
3411.8806734639738352
 20
194.3323528615555915
 30
0.0
 40
0.0278277611967817
 50
318.0431887654643788
 51
56.5040373540970933
  0
ARC
  5
1A148
  8
0
 10
3411.8329165277409629
 20
194.3695739837750978
 30
0.0
 40
0.0883293699154341
 50
246.1535248913158114
 51
320.8006819835379133
  0
ARC
  5
1A149
  8
0
 10
3411.8107794404731976
 20
194.3156107263274066
 30
0.0
 40
0.0300640914076377
 50
144.4852524984854085
 51
243.1612748828532915
  0
ARC
  5
1A14A
  8
0
 10
3411.8556844592408197
 20
194.2734837549450901
 30
0.0
 40
0.0914560481217059
 50
63.8222294724333068
 51
139.3386335615788028
  0
LINE
  5
1A14B
  8
0
 10
3411.9084338629209014
 20
194.3342879438737896
 30
0.0
 11
3411.9137170404051176
 21
194.4007007277162984
 31
0.0
  0
ARC
  5
1A14C
  8
0
 10
3411.8920850901840822
 20
194.3833555633582932
 30
0.0
 40
0.0277271707354273
 50
312.1796146265483003
 51
41.9374134521764788
  0
ARC
  5
1A14D
  8
0
 10
3411.862954923442885
 20
194.3210633227249104
 30
0.0
 40
0.0949102752243234
 50
58.382932761868517
 51
108.1448976636943939
  0
ARC
  5
1A14E
  8
0
 10
3411.857519528202829
 20
194.3023302447934952
 30
0.0
 40
0.1115626171787395
 50
102.4869038774973973
 51
136.8909041366659096
  0
ARC
  5
1A14F
  8
0
 10
3411.7955364379868115
 20
194.3568425964481889
 30
0.0
 40
0.029171141471741
 50
131.8530034892224876
 51
231.5572467250892998
  0
LINE
  5
1A150
  8
0
 10
3411.7808839264080234
 20
194.3124314448151893
 30
0.0
 11
3411.771127253432951
 21
194.3728159243478046
 31
0.0
  0
ARC
  5
1A151
  8
0
 10
3411.8889837354031442
 20
194.0960694569523071
 30
0.0
 40
0.0102232792820635
 50
320.1661347978127878
 51
69.0763881104431903
  0
ARC
  5
1A152
  8
0
 10
3411.8676015048849877
 20
194.1139058815388978
 30
0.0
 40
0.0380681679321529
 50
253.6225302683155007
 51
320.1661347977948822
  0
ARC
  5
1A153
  8
0
 10
3411.8601047085458049
 20
194.0883969229655861
 30
0.0
 40
0.0114804090412692
 50
147.6195894756775999
 51
253.6225302683155007
  0
ARC
  5
1A154
  8
0
 10
3411.8794965753299948
 20
194.0696733658444089
 30
0.0
 40
0.0382709979693845
 50
69.9224314584453168
 51
139.4670564415270917
  0
ARC
  5
1A155
  8
0
 10
3411.9100297060708726
 20
194.1079013102836939
 30
0.0
 40
0.0278277611967817
 50
318.0431887654643788
 51
56.5040373540970933
  0
ARC
  5
1A156
  8
0
 10
3411.8622727698380004
 20
194.1451224325030864
 30
0.0
 40
0.0883293699154341
 50
246.1535248913158114
 51
320.8006819835379133
  0
ARC
  5
1A157
  8
0
 10
3411.8401356825688708
 20
194.091159175055509
 30
0.0
 40
0.0300640914076377
 50
144.4852524984854085
 51
243.1612748828532915
  0
ARC
  5
1A158
  8
0
 10
3411.8850407013369477
 20
194.0490322036731925
 30
0.0
 40
0.0914560481217059
 50
63.8222294724333068
 51
139.3386335615788028
  0
LINE
  5
1A159
  8
0
 10
3411.9377901050161199
 20
194.1098363926018067
 30
0.0
 11
3411.9430732825021551
 21
194.1762491764444007
 31
0.0
  0
ARC
  5
1A15A
  8
0
 10
3411.9214413322802102
 20
194.1589040120863956
 30
0.0
 40
0.0277271707354273
 50
312.1796146265483003
 51
41.9374134521764788
  0
ARC
  5
1A15B
  8
0
 10
3411.892311165539013
 20
194.0966117714530128
 30
0.0
 40
0.0949102752243234
 50
58.382932761868517
 51
108.1448976636943939
  0
ARC
  5
1A15C
  8
0
 10
3411.8868757702989569
 20
194.0778786935215123
 30
0.0
 40
0.1115626171787395
 50
102.4869038774973973
 51
136.8909041366659096
  0
ARC
  5
1A15D
  8
0
 10
3411.82489268008203
 20
194.1323910451762913
 30
0.0
 40
0.029171141471741
 50
131.8530034892224876
 51
231.5572467250892998
  0
LINE
  5
1A15E
  8
0
 10
3411.8102401685041514
 20
194.0879798935432916
 30
0.0
 11
3411.8004834955290789
 21
194.148364373075907
 31
0.0
  0
ARC
  5
1A15F
  8
0
 10
3411.5841082775059476
 20
194.1970739986242904
 30
0.0
 40
0.0102232792820635
 50
320.1661347978127878
 51
69.0763881104431903
  0
ARC
  5
1A160
  8
0
 10
3411.5627260469891553
 20
194.2149104232109096
 30
0.0
 40
0.0380681679321529
 50
253.6225302683155007
 51
320.1661347977948822
  0
ARC
  5
1A161
  8
0
 10
3411.5552292506499725
 20
194.1894014646375979
 30
0.0
 40
0.0114804090412692
 50
147.6195894756775999
 51
253.6225302683155007
  0
ARC
  5
1A162
  8
0
 10
3411.5746211174327982
 20
194.1706779075163922
 30
0.0
 40
0.0382709979693845
 50
69.9224314584453168
 51
139.4670564415270917
  0
ARC
  5
1A163
  8
0
 10
3411.6051542481741308
 20
194.208905851955592
 30
0.0
 40
0.0278277611967817
 50
318.0431887654643788
 51
56.5040373540970933
  0
ARC
  5
1A164
  8
0
 10
3411.5573973119408038
 20
194.2461269741750129
 30
0.0
 40
0.0883293699154341
 50
246.1535248913158114
 51
320.8006819835379133
  0
ARC
  5
1A165
  8
0
 10
3411.5352602246730385
 20
194.1921637167274071
 30
0.0
 40
0.0300640914076377
 50
144.4852524984854085
 51
243.1612748828532915
  0
ARC
  5
1A166
  8
0
 10
3411.5801652434411153
 20
194.1500367453452043
 30
0.0
 40
0.0914560481217059
 50
63.8222294724333068
 51
139.3386335615788028
  0
LINE
  5
1A167
  8
0
 10
3411.6329146471198328
 20
194.21084093427379
 30
0.0
 11
3411.6381978246049584
 21
194.2772537181162988
 31
0.0
  0
ARC
  5
1A168
  8
0
 10
3411.6165658743839231
 20
194.2599085537582937
 30
0.0
 40
0.0277271707354273
 50
312.1796146265483003
 51
41.9374134521764788
  0
ARC
  5
1A169
  8
0
 10
3411.5874357076418164
 20
194.1976163131249962
 30
0.0
 40
0.0949102752243234
 50
58.382932761868517
 51
108.1448976636943939
  0
ARC
  5
1A16A
  8
0
 10
3411.5820003124031246
 20
194.1788832351934957
 30
0.0
 40
0.1115626171787395
 50
102.4869038774973973
 51
136.8909041366659096
  0
ARC
  5
1A16B
  8
0
 10
3411.5200172221871071
 20
194.2333955868481894
 30
0.0
 40
0.029171141471741
 50
131.8530034892224876
 51
231.5572467250892998
  0
LINE
  5
1A16C
  8
0
 10
3411.5053647106069548
 20
194.1889844352153034
 30
0.0
 11
3411.4956080376327918
 21
194.2493689147478051
 31
0.0
  0
ARC
  5
1A16D
  8
0
 10
3412.2034449660068276
 20
193.8288209060742986
 30
0.0
 40
0.0102232792820635
 50
320.1661347978127878
 51
69.0763881104431903
  0
ARC
  5
1A16E
  8
0
 10
3412.1820627354891258
 20
193.8466573306608893
 30
0.0
 40
0.0380681679321529
 50
253.6225302683155007
 51
320.1661347977948822
  0
ARC
  5
1A16F
  8
0
 10
3412.174565939149943
 20
193.821148372087606
 30
0.0
 40
0.0114804090412692
 50
147.6195894756775999
 51
253.6225302683155007
  0
ARC
  5
1A170
  8
0
 10
3412.1939578059332234
 20
193.8024248149664004
 30
0.0
 40
0.0382709979693845
 50
69.9224314584453168
 51
139.4670564415270917
  0
ARC
  5
1A171
  8
0
 10
3412.2244909366750107
 20
193.8406527594056001
 30
0.0
 40
0.0278277611967817
 50
318.0431887654643788
 51
56.5040373540970933
  0
ARC
  5
1A172
  8
0
 10
3412.1767340004407743
 20
193.8778738816249927
 30
0.0
 40
0.0883293699154341
 50
246.1535248913158114
 51
320.8006819835379133
  0
ARC
  5
1A173
  8
0
 10
3412.1545969131730089
 20
193.8239106241773868
 30
0.0
 40
0.0300640914076377
 50
144.4852524984854085
 51
243.1612748828532915
  0
ARC
  5
1A174
  8
0
 10
3412.1995019319410858
 20
193.7817836527950988
 30
0.0
 40
0.0914560481217059
 50
63.8222294724333068
 51
139.3386335615788028
  0
LINE
  5
1A175
  8
0
 10
3412.2522513356198033
 20
193.8425878417237982
 30
0.0
 11
3412.2575345131049289
 21
193.909000625566307
 31
0.0
  0
ARC
  5
1A176
  8
0
 10
3412.2359025628829841
 20
193.8916554612083019
 30
0.0
 40
0.0277271707354273
 50
312.1796146265483003
 51
41.9374134521764788
  0
ARC
  5
1A177
  8
0
 10
3412.2067723961417869
 20
193.8293632205748906
 30
0.0
 40
0.0949102752243234
 50
58.382932761868517
 51
108.1448976636943939
  0
ARC
  5
1A178
  8
0
 10
3412.201337000903095
 20
193.8106301426435039
 30
0.0
 40
0.1115626171787395
 50
102.4869038774973973
 51
136.8909041366659096
  0
ARC
  5
1A179
  8
0
 10
3412.1393539106870776
 20
193.8651424942981976
 30
0.0
 40
0.029171141471741
 50
131.8530034892224876
 51
231.5572467250892998
  0
LINE
  5
1A17A
  8
0
 10
3412.1247013991078347
 20
193.8207313426653116
 30
0.0
 11
3412.114944726133217
 21
193.8811158221978133
 31
0.0
  0
ARC
  5
1A17B
  8
0
 10
3412.7297149143560091
 20
193.9393559935242877
 30
0.0
 40
0.0102232792820635
 50
320.1661347978127878
 51
69.0763881104431903
  0
ARC
  5
1A17C
  8
0
 10
3412.7083326838392168
 20
193.9571924181109068
 30
0.0
 40
0.0380681679321529
 50
253.6225302683155007
 51
320.1661347977948822
  0
ARC
  5
1A17D
  8
0
 10
3412.700835887500034
 20
193.9316834595375951
 30
0.0
 40
0.0114804090412692
 50
147.6195894756775999
 51
253.6225302683155007
  0
ARC
  5
1A17E
  8
0
 10
3412.7202277542842239
 20
193.9129599024163895
 30
0.0
 40
0.0382709979693845
 50
69.9224314584453168
 51
139.4670564415270917
  0
ARC
  5
1A17F
  8
0
 10
3412.7507608850251017
 20
193.9511878468555892
 30
0.0
 40
0.0278277611967817
 50
318.0431887654643788
 51
56.5040373540970933
  0
ARC
  5
1A180
  8
0
 10
3412.7030039487908653
 20
193.9884089690750102
 30
0.0
 40
0.0883293699154341
 50
246.1535248913158114
 51
320.8006819835379133
  0
ARC
  5
1A181
  8
0
 10
3412.6808668615230999
 20
193.9344457116274043
 30
0.0
 40
0.0300640914076377
 50
144.4852524984854085
 51
243.1612748828532915
  0
ARC
  5
1A182
  8
0
 10
3412.7257718802911768
 20
193.8923187402450878
 30
0.0
 40
0.0914560481217059
 50
63.8222294724333068
 51
139.3386335615788028
  0
LINE
  5
1A183
  8
0
 10
3412.7785212839698943
 20
193.9531229291737873
 30
0.0
 11
3412.7838044614550199
 21
194.0195357130162961
 31
0.0
  0
ARC
  5
1A184
  8
0
 10
3412.7621725112339846
 20
194.0021905486582909
 30
0.0
 40
0.0277271707354273
 50
312.1796146265483003
 51
41.9374134521764788
  0
ARC
  5
1A185
  8
0
 10
3412.7330423444927874
 20
193.9398983080249081
 30
0.0
 40
0.0949102752243234
 50
58.382932761868517
 51
108.1448976636943939
  0
ARC
  5
1A186
  8
0
 10
3412.727606949253186
 20
193.9211652300934929
 30
0.0
 40
0.1115626171787395
 50
102.4869038774973973
 51
136.8909041366659096
  0
ARC
  5
1A187
  8
0
 10
3412.6656238590371686
 20
193.9756775817481866
 30
0.0
 40
0.029171141471741
 50
131.8530034892224876
 51
231.5572467250892998
  0
LINE
  5
1A188
  8
0
 10
3412.6509713474579257
 20
193.9312664301151869
 30
0.0
 11
3412.6412146744828533
 21
193.9916509096478023
 31
0.0
  0
ARC
  5
1A189
  8
0
 10
3411.9114785354067862
 20
193.5903475692209099
 30
0.0
 40
0.0102232792820635
 50
320.1661347978127878
 51
69.0763881104431903
  0
ARC
  5
1A18A
  8
0
 10
3411.8900963048890844
 20
193.6081839938075859
 30
0.0
 40
0.0380681679321529
 50
253.6225302683155007
 51
320.1661347977948822
  0
ARC
  5
1A18B
  8
0
 10
3411.8825995085499017
 20
193.5826750352343026
 30
0.0
 40
0.0114804090412692
 50
147.6195894756775999
 51
253.6225302683155007
  0
ARC
  5
1A18C
  8
0
 10
3411.9019913753340916
 20
193.5639514781130117
 30
0.0
 40
0.0382709979693845
 50
69.9224314584453168
 51
139.4670564415270917
  0
ARC
  5
1A18D
  8
0
 10
3411.9325245060740599
 20
193.6021794225522967
 30
0.0
 40
0.0278277611967817
 50
318.0431887654643788
 51
56.5040373540970933
  0
ARC
  5
1A18E
  8
0
 10
3411.8847675698411877
 20
193.6394005447716893
 30
0.0
 40
0.0883293699154341
 50
246.1535248913158114
 51
320.8006819835379133
  0
ARC
  5
1A18F
  8
0
 10
3411.8626304825729676
 20
193.5854372873241118
 30
0.0
 40
0.0300640914076377
 50
144.4852524984854085
 51
243.1612748828532915
  0
ARC
  5
1A190
  8
0
 10
3411.9075355013410444
 20
193.5433103159417954
 30
0.0
 40
0.0914560481217059
 50
63.8222294724333068
 51
139.3386335615788028
  0
LINE
  5
1A191
  8
0
 10
3411.9602849050211262
 20
193.6041145048704948
 30
0.0
 11
3411.9655680825057971
 21
193.6705272887130036
 31
0.0
  0
ARC
  5
1A192
  8
0
 10
3411.9439361322838522
 20
193.6531821243549985
 30
0.0
 40
0.0277271707354273
 50
312.1796146265483003
 51
41.9374134521764788
  0
ARC
  5
1A193
  8
0
 10
3411.9148059655431098
 20
193.5908898837215872
 30
0.0
 40
0.0949102752243234
 50
58.382932761868517
 51
108.1448976636943939
  0
ARC
  5
1A194
  8
0
 10
3411.9093705703030537
 20
193.5721568057902005
 30
0.0
 40
0.1115626171787395
 50
102.4869038774973973
 51
136.8909041366659096
  0
ARC
  5
1A195
  8
0
 10
3411.8473874800870362
 20
193.6266691574448942
 30
0.0
 40
0.029171141471741
 50
131.8530034892224876
 51
231.5572467250892998
  0
LINE
  5
1A196
  8
0
 10
3411.8327349685077934
 20
193.5822580058120082
 30
0.0
 11
3411.8229782955331757
 21
193.6426424853445099
 31
0.0
  0
ARC
  5
1A197
  8
0
 10
3411.419827023992184
 20
193.9878671053301105
 30
0.0
 40
0.0113036953450083
 50
304.3503722456371179
 51
62.3415048175832922
  0
ARC
  5
1A198
  8
0
 10
3411.4054545349449654
 20
194.0090081966035882
 30
0.0
 40
0.0368675950273493
 50
237.9876541344362124
 51
304.2525547296605168
  0
ARC
  5
1A199
  8
0
 10
3411.3928890300830972
 20
193.9878549019871912
 30
0.0
 40
0.0122827131730105
 50
143.2316535427258088
 51
235.3806242122464027
  0
ARC
  5
1A19A
  8
0
 10
3411.4059090495338751
 20
193.9674937231449121
 30
0.0
 40
0.0359245888304625
 50
57.7589120259430118
 51
129.5173394683752974
  0
ARC
  5
1A19B
  8
0
 10
3411.4401365309909124
 20
193.9952850309798009
 30
0.0
 40
0.0300641750593029
 50
306.2936092308124216
 51
63.0137581316367417
  0
ARC
  5
1A19C
  8
0
 10
3411.4052774848109948
 20
194.0382293297919034
 30
0.0
 40
0.0853528906382074
 50
234.9345549343680943
 51
308.0905624695639062
  0
ARC
  5
1A19D
  8
0
 10
3411.3746668222629523
 20
193.9961992189149953
 30
0.0
 40
0.0333775644744905
 50
147.0717334675630923
 51
236.4932858824481059
  0
ARC
  5
1A19E
  8
0
 10
3411.4055972771370762
 20
193.9436467580320027
 30
0.0
 40
0.0920465632786838
 50
58.4361183997907432
 51
129.8211296133839028
  0
LINE
  5
1A19F
  8
0
 10
3411.4701179891740139
 20
193.9975136599805978
 30
0.0
 11
3411.4768247692950354
 21
194.0557411585633076
 31
0.0
  0
ARC
  5
1A1A0
  8
0
 10
3411.4564038117609925
 20
194.0392538426698934
 30
0.0
 40
0.0262458966692475
 50
307.9425382489703225
 51
38.9164463474492308
  0
ARC
  5
1A1A1
  8
0
 10
3411.4076405001960666
 20
193.9939597324905947
 30
0.0
 40
0.0927545562137989
 50
41.7647956037361325
 51
91.3217571120050735
  0
ARC
  5
1A1A2
  8
0
 10
3411.4068330952968608
 20
193.9809620450743068
 30
0.0
 40
0.1057359559402799
 50
90.7218854384836249
 51
131.7569966823222956
  0
ARC
  5
1A1A3
  8
0
 10
3411.3558794501859666
 20
194.0381101467482097
 30
0.0
 40
0.029171141471741
 50
131.8530034892224876
 51
231.5572467250892998
  0
LINE
  5
1A1A4
  8
0
 10
3411.3412269386080879
 20
193.9936989951152952
 30
0.0
 11
3411.3314702656330155
 21
194.0540834746477969
 31
0.0
  0
ARC
  5
1A1A5
  8
0
 10
3411.419827023992184
 20
193.6658332228300878
 30
0.0
 40
0.0113036953450083
 50
304.3503722456371179
 51
62.3415048175832922
  0
ARC
  5
1A1A6
  8
0
 10
3411.4054545349449654
 20
193.686974314103594
 30
0.0
 40
0.0368675950273493
 50
237.9876541344362124
 51
304.2525547296605168
  0
ARC
  5
1A1A7
  8
0
 10
3411.3928890300830972
 20
193.665821019487197
 30
0.0
 40
0.0122827131730105
 50
143.2316535427258088
 51
235.3806242122464027
  0
ARC
  5
1A1A8
  8
0
 10
3411.4059090495338751
 20
193.6454598406448895
 30
0.0
 40
0.0359245888304625
 50
57.7589120259430118
 51
129.5173394683752974
  0
ARC
  5
1A1A9
  8
0
 10
3411.4401365309909124
 20
193.673251148479693
 30
0.0
 40
0.0300641750593029
 50
306.2936092308124216
 51
63.0137581316367417
  0
ARC
  5
1A1AA
  8
0
 10
3411.4052774848109948
 20
193.7161954472919092
 30
0.0
 40
0.0853528906382074
 50
234.9345549343680943
 51
308.0905624695639062
  0
ARC
  5
1A1AB
  8
0
 10
3411.3746668222629523
 20
193.6741653364150011
 30
0.0
 40
0.0333775644744905
 50
147.0717334675630923
 51
236.4932858824481059
  0
ARC
  5
1A1AC
  8
0
 10
3411.4055972771370762
 20
193.6216128755320085
 30
0.0
 40
0.0920465632786838
 50
58.4361183997907432
 51
129.8211296133839028
  0
LINE
  5
1A1AD
  8
0
 10
3411.4701179891740139
 20
193.6754797774806036
 30
0.0
 11
3411.4768247692950354
 21
193.7337072760633134
 31
0.0
  0
ARC
  5
1A1AE
  8
0
 10
3411.4564038117609925
 20
193.7172199601698992
 30
0.0
 40
0.0262458966692475
 50
307.9425382489703225
 51
38.9164463474492308
  0
ARC
  5
1A1AF
  8
0
 10
3411.4076405001960666
 20
193.6719258499906005
 30
0.0
 40
0.0927545562137989
 50
41.7647956037361325
 51
91.3217571120050735
  0
ARC
  5
1A1B0
  8
0
 10
3411.4068330952968608
 20
193.6589281625743126
 30
0.0
 40
0.1057359559402799
 50
90.7218854384836249
 51
131.7569966823222956
  0
ARC
  5
1A1B1
  8
0
 10
3411.3558794501859666
 20
193.716076264248187
 30
0.0
 40
0.029171141471741
 50
131.8530034892224876
 51
231.5572467250892998
  0
LINE
  5
1A1B2
  8
0
 10
3411.3412269386080879
 20
193.671665112615301
 30
0.0
 11
3411.3314702656330155
 21
193.7320495921478027
 31
0.0
  0
ARC
  5
1A1B3
  8
0
 10
3411.4198270234519441
 20
194.9536961400301038
 30
0.0
 40
0.0113036953450083
 50
304.3503722456371179
 51
62.3415048175832922
  0
ARC
  5
1A1B4
  8
0
 10
3411.4054545344051803
 20
194.97483723130361
 30
0.0
 40
0.0368675950273493
 50
237.9876541344362124
 51
304.2525547296605168
  0
ARC
  5
1A1B5
  8
0
 10
3411.3928890295428573
 20
194.953683936687213
 30
0.0
 40
0.0122827131730105
 50
143.2316535427258088
 51
235.3806242122464027
  0
ARC
  5
1A1B6
  8
0
 10
3411.40590904899409
 20
194.9333227578449055
 30
0.0
 40
0.0359245888304625
 50
57.7589120259430118
 51
129.5173394683752974
  0
ARC
  5
1A1B7
  8
0
 10
3411.4401365304511273
 20
194.9611140656797943
 30
0.0
 40
0.0300641750593029
 50
306.2936092308124216
 51
63.0137581316367417
  0
ARC
  5
1A1B8
  8
0
 10
3411.4052774842712097
 20
195.0040583644918968
 30
0.0
 40
0.0853528906382074
 50
234.9345549343680943
 51
308.0905624695639062
  0
ARC
  5
1A1B9
  8
0
 10
3411.3746668217231672
 20
194.9620282536151024
 30
0.0
 40
0.0333775644744905
 50
147.0717334675630923
 51
236.4932858824481059
  0
ARC
  5
1A1BA
  8
0
 10
3411.4055972765968363
 20
194.9094757927319961
 30
0.0
 40
0.0920465632786838
 50
58.4361183997907432
 51
129.8211296133839028
  0
LINE
  5
1A1BB
  8
0
 10
3411.4701179886337741
 20
194.9633426946805912
 30
0.0
 11
3411.4768247687547955
 21
195.021570193263301
 31
0.0
  0
ARC
  5
1A1BC
  8
0
 10
3411.4564038112212074
 20
195.0050828773698868
 30
0.0
 40
0.0262458966692475
 50
307.9425382489703225
 51
38.9164463474492308
  0
ARC
  5
1A1BD
  8
0
 10
3411.4076404996558267
 20
194.959788767190588
 30
0.0
 40
0.0927545562137989
 50
41.7647956037361325
 51
91.3217571120050735
  0
ARC
  5
1A1BE
  8
0
 10
3411.4068330947570757
 20
194.9467910797743002
 30
0.0
 40
0.1057359559402799
 50
90.7218854384836249
 51
131.7569966823222956
  0
ARC
  5
1A1BF
  8
0
 10
3411.355879449647091
 20
195.003939181448203
 30
0.0
 40
0.029171141471741
 50
131.8530034892224876
 51
231.5572467250892998
  0
LINE
  5
1A1C0
  8
0
 10
3411.3412269380678481
 20
194.9595280298152886
 30
0.0
 11
3411.3314702650927757
 21
195.0199125093477903
 31
0.0
  0
ARC
  5
1A1C1
  8
0
 10
3411.419827023992184
 20
195.8874878351300026
 30
0.0
 40
0.0113036953450083
 50
304.3503722456371179
 51
62.3415048175832922
  0
ARC
  5
1A1C2
  8
0
 10
3411.4054545349449654
 20
195.9086289264035941
 30
0.0
 40
0.0368675950273493
 50
237.9876541344362124
 51
304.2525547296605168
  0
ARC
  5
1A1C3
  8
0
 10
3411.3928890300830972
 20
195.887475631787197
 30
0.0
 40
0.0122827131730105
 50
143.2316535427258088
 51
235.3806242122464027
  0
ARC
  5
1A1C4
  8
0
 10
3411.4059090495338751
 20
195.8671144529448895
 30
0.0
 40
0.0359245888304625
 50
57.7589120259430118
 51
129.5173394683752974
  0
ARC
  5
1A1C5
  8
0
 10
3411.4401365309909124
 20
195.8949057607798068
 30
0.0
 40
0.0300641750593029
 50
306.2936092308124216
 51
63.0137581316367417
  0
ARC
  5
1A1C6
  8
0
 10
3411.4052774848109948
 20
195.9378500595919093
 30
0.0
 40
0.0853528906382074
 50
234.9345549343680943
 51
308.0905624695639062
  0
ARC
  5
1A1C7
  8
0
 10
3411.3746668222629523
 20
195.8958199487150011
 30
0.0
 40
0.0333775644744905
 50
147.0717334675630923
 51
236.4932858824481059
  0
ARC
  5
1A1C8
  8
0
 10
3411.4055972771370762
 20
195.8432674878320086
 30
0.0
 40
0.0920465632786838
 50
58.4361183997907432
 51
129.8211296133839028
  0
LINE
  5
1A1C9
  8
0
 10
3411.4701179891740139
 20
195.8971343897806037
 30
0.0
 11
3411.4768247692950354
 21
195.9553618883633135
 31
0.0
  0
ARC
  5
1A1CA
  8
0
 10
3411.4564038117609925
 20
195.9388745724698992
 30
0.0
 40
0.0262458966692475
 50
307.9425382489703225
 51
38.9164463474492308
  0
ARC
  5
1A1CB
  8
0
 10
3411.4076405001960666
 20
195.8935804622906005
 30
0.0
 40
0.0927545562137989
 50
41.7647956037361325
 51
91.3217571120050735
  0
ARC
  5
1A1CC
  8
0
 10
3411.4068330952968608
 20
195.8805827748743127
 30
0.0
 40
0.1057359559402799
 50
90.7218854384836249
 51
131.7569966823222956
  0
ARC
  5
1A1CD
  8
0
 10
3411.3558794501859666
 20
195.9377308765481871
 30
0.0
 40
0.029171141471741
 50
131.8530034892224876
 51
231.5572467250892998
  0
LINE
  5
1A1CE
  8
0
 10
3411.3412269386080879
 20
195.8933197249153011
 30
0.0
 11
3411.3314702656330155
 21
195.9537042044478028
 31
0.0
  0
ARC
  5
1A1CF
  8
0
 10
3411.7584718427619919
 20
193.8730800831243073
 30
0.0
 40
0.0158605807137526
 50
324.2394184961652854
 51
67.0033838462698981
  0
ARC
  5
1A1D0
  8
0
 10
3411.7295745026171971
 20
193.9021489727523999
 30
0.0
 40
0.0566950177214783
 50
246.4731974511296073
 51
317.4517227797161922
  0
ARC
  5
1A1D1
  8
0
 10
3411.711401054199996
 20
193.865518813047089
 30
0.0
 40
0.0159861554976066
 50
152.4446030863057047
 51
253.8076090149442905
  0
ARC
  5
1A1D2
  8
0
 10
3411.7400330397899779
 20
193.838804971547205
 30
0.0
 40
0.0547327900958636
 50
63.2499767706408633
 51
141.4502634687277975
  0
ARC
  5
1A1D3
  8
0
 10
3411.8011773980629187
 20
193.8866290277221083
 30
0.0
 40
0.0486730783452054
 50
319.1578359819349089
 51
61.2885480124258066
  0
ARC
  5
1A1D4
  8
0
 10
3411.7220902903950446
 20
193.9614213006126988
 30
0.0
 40
0.1574910575545338
 50
242.5655543709669928
 51
317.3893934999989028
  0
ARC
  5
1A1D5
  8
0
 10
3411.6731611467789662
 20
193.8686772741866093
 30
0.0
 40
0.0526384696859408
 50
150.5540833620383978
 51
243.3234032705927916
  0
ARC
  5
1A1D6
  8
0
 10
3411.7474965909659659
 20
193.7896368078760929
 30
0.0
 40
0.1595290558649843
 50
61.1140649164381173
 51
138.8775098927004024
  0
LINE
  5
1A1D7
  8
0
 10
3411.8498501705830677
 20
193.8868015701667105
 30
0.0
 11
3411.8539814335849769
 21
193.9299199471030022
 31
0.0
  0
ARC
  5
1A1D8
  8
0
 10
3411.8150033733240889
 20
193.9149303605464922
 30
0.0
 40
0.0417609493044361
 50
328.0191707770679272
 51
29.0545641892025905
  0
ARC
  5
1A1D9
  8
0
 10
3411.7590408413880141
 20
193.8497917373518931
 30
0.0
 40
0.1258843011852876
 50
42.7308816232725732
 51
91.8063237887285766
  0
ARC
  5
1A1DA
  8
0
 10
3411.7436638186782147
 20
193.8125337171543947
 30
0.0
 40
0.1634783664592842
 50
85.9981239425629553
 51
136.4914950191663934
  0
ARC
  5
1A1DB
  8
0
 10
3411.6605257071928463
 20
193.8931248661610027
 30
0.0
 40
0.0477120670867652
 50
137.9483835643085001
 51
213.0788411731743963
  0
LINE
  5
1A1DC
  8
0
 10
3411.6205403723479321
 20
193.8673125071069876
 30
0.0
 11
3411.6169565521590812
 21
193.912571461628886
 31
0.0
  0
ARC
  5
1A1DD
  8
0
 10
3412.573898531553823
 20
194.5149030872418905
 30
0.0
 40
0.0158605807137526
 50
324.2394184961652854
 51
67.0033838462698981
  0
ARC
  5
1A1DE
  8
0
 10
3412.5450011914081188
 20
194.5439719768700115
 30
0.0
 40
0.0566950177214783
 50
246.4731974511296073
 51
317.4517227797161922
  0
ARC
  5
1A1DF
  8
0
 10
3412.5268277429909176
 20
194.5073418171647006
 30
0.0
 40
0.0159861554976066
 50
152.4446030863057047
 51
253.8076090149442905
  0
ARC
  5
1A1E0
  8
0
 10
3412.55545972857999
 20
194.4806279756647882
 30
0.0
 40
0.0547327900958636
 50
63.2499767706408633
 51
141.4502634687277975
  0
ARC
  5
1A1E1
  8
0
 10
3412.6166040868552045
 20
194.5284520318396915
 30
0.0
 40
0.0486730783452054
 50
319.1578359819349089
 51
61.2885480124258066
  0
ARC
  5
1A1E2
  8
0
 10
3412.5375169791859662
 20
194.6032443047303104
 30
0.0
 40
0.1574910575545338
 50
242.5655543709669928
 51
317.3893934999989028
  0
ARC
  5
1A1E3
  8
0
 10
3412.4885878355698878
 20
194.5105002783041925
 30
0.0
 40
0.0526384696859408
 50
150.5540833620383978
 51
243.3234032705927916
  0
ARC
  5
1A1E4
  8
0
 10
3412.562923279755978
 20
194.4314598119937045
 30
0.0
 40
0.1595290558649843
 50
61.1140649164381173
 51
138.8775098927004024
  0
LINE
  5
1A1E5
  8
0
 10
3412.6652768593739893
 20
194.5286245742842937
 30
0.0
 11
3412.6694081223758985
 21
194.5717429512205001
 31
0.0
  0
ARC
  5
1A1E6
  8
0
 10
3412.63043006211592
 20
194.5567533646641039
 30
0.0
 40
0.0417609493044361
 50
328.0191707770679272
 51
29.0545641892025905
  0
ARC
  5
1A1E7
  8
0
 10
3412.5744675301789357
 20
194.491614741469391
 30
0.0
 40
0.1258843011852876
 50
42.7308816232725732
 51
91.8063237887285766
  0
ARC
  5
1A1E8
  8
0
 10
3412.5590905074682269
 20
194.4543567212720063
 30
0.0
 40
0.1634783664592842
 50
85.9981239425629553
 51
136.4914950191663934
  0
ARC
  5
1A1E9
  8
0
 10
3412.4759523959851322
 20
194.5349478702785859
 30
0.0
 40
0.0477120670867652
 50
137.9483835643085001
 51
213.0788411731743963
  0
LINE
  5
1A1EA
  8
0
 10
3412.4359670611388538
 20
194.5091355112245992
 30
0.0
 11
3412.4323832409490933
 21
194.5543944657464976
 31
0.0
  0
ARC
  5
1A1EB
  8
0
 10
3412.478814736923141
 20
194.9480063646394115
 30
0.0
 40
0.0158605807137526
 50
324.2394184961652854
 51
67.0033838462698981
  0
ARC
  5
1A1EC
  8
0
 10
3412.449917396778801
 20
194.9770752542675041
 30
0.0
 40
0.0566950177214783
 50
246.4731974511296073
 51
317.4517227797161922
  0
ARC
  5
1A1ED
  8
0
 10
3412.4317439483597809
 20
194.9404450945623068
 30
0.0
 40
0.0159861554976066
 50
152.4446030863057047
 51
253.8076090149442905
  0
ARC
  5
1A1EE
  8
0
 10
3412.4603759339502176
 20
194.9137312530623092
 30
0.0
 40
0.0547327900958636
 50
63.2499767706408633
 51
141.4502634687277975
  0
ARC
  5
1A1EF
  8
0
 10
3412.5215202922249773
 20
194.9615553092372124
 30
0.0
 40
0.0486730783452054
 50
319.1578359819349089
 51
61.2885480124258066
  0
ARC
  5
1A1F0
  8
0
 10
3412.4424331845548295
 20
195.0363475821278882
 30
0.0
 40
0.1574910575545338
 50
242.5655543709669928
 51
317.3893934999989028
  0
ARC
  5
1A1F1
  8
0
 10
3412.3935040409401154
 20
194.9436035557017135
 30
0.0
 40
0.0526384696859408
 50
150.5540833620383978
 51
243.3234032705927916
  0
ARC
  5
1A1F2
  8
0
 10
3412.467839485127115
 20
194.8645630893913108
 30
0.0
 40
0.1595290558649843
 50
61.1140649164381173
 51
138.8775098927004024
  0
LINE
  5
1A1F3
  8
0
 10
3412.5701930647442168
 20
194.9617278516817862
 30
0.0
 11
3412.5743243277461261
 21
195.0048462286181064
 31
0.0
  0
ARC
  5
1A1F4
  8
0
 10
3412.5353462674847833
 20
194.9898566420615964
 30
0.0
 40
0.0417609493044361
 50
328.0191707770679272
 51
29.0545641892025905
  0
ARC
  5
1A1F5
  8
0
 10
3412.4793837355491632
 20
194.9247180188669972
 30
0.0
 40
0.1258843011852876
 50
42.7308816232725732
 51
91.8063237887285766
  0
ARC
  5
1A1F6
  8
0
 10
3412.4640067128379997
 20
194.8874599986696126
 30
0.0
 40
0.1634783664592842
 50
85.9981239425629553
 51
136.4914950191663934
  0
ARC
  5
1A1F7
  8
0
 10
3412.3808686013539955
 20
194.9680511476761922
 30
0.0
 40
0.0477120670867652
 50
137.9483835643085001
 51
213.0788411731743963
  0
LINE
  5
1A1F8
  8
0
 10
3412.3408832665090813
 20
194.9422387886222054
 30
0.0
 11
3412.3372994463197756
 21
194.9874977431441039
 31
0.0
  0
ARC
  5
1A1F9
  8
0
 10
3412.0561686548999205
 20
195.2955300805035961
 30
0.0
 40
0.0158605807137526
 50
324.2394184961652854
 51
67.0033838462698981
  0
ARC
  5
1A1FA
  8
0
 10
3412.0272713147551258
 20
195.3245989701316887
 30
0.0
 40
0.0566950177214783
 50
246.4731974511296073
 51
317.4517227797161922
  0
ARC
  5
1A1FB
  8
0
 10
3412.0090978663379246
 20
195.2879688104264062
 30
0.0
 40
0.0159861554976066
 50
152.4446030863057047
 51
253.8076090149442905
  0
ARC
  5
1A1FC
  8
0
 10
3412.0377298519269971
 20
195.2612549689264938
 30
0.0
 40
0.0547327900958636
 50
63.2499767706408633
 51
141.4502634687277975
  0
ARC
  5
1A1FD
  8
0
 10
3412.0988742102008473
 20
195.3090790251013971
 30
0.0
 40
0.0486730783452054
 50
319.1578359819349089
 51
61.2885480124258066
  0
ARC
  5
1A1FE
  8
0
 10
3412.0197871025329732
 20
195.3838712979919876
 30
0.0
 40
0.1574910575545338
 50
242.5655543709669928
 51
317.3893934999989028
  0
ARC
  5
1A1FF
  8
0
 10
3411.9708579589168949
 20
195.2911272715658981
 30
0.0
 40
0.0526384696859408
 50
150.5540833620383978
 51
243.3234032705927916
  0
ARC
  5
1A200
  8
0
 10
3412.0451934031038945
 20
195.2120868052554954
 30
0.0
 40
0.1595290558649843
 50
61.1140649164381173
 51
138.8775098927004024
  0
LINE
  5
1A201
  8
0
 10
3412.1475469827200868
 20
195.3092515675459993
 30
0.0
 11
3412.1516782457229056
 21
195.3523699444822057
 31
0.0
  0
ARC
  5
1A202
  8
0
 10
3412.1127001854620175
 20
195.3373803579258094
 30
0.0
 40
0.0417609493044361
 50
328.0191707770679272
 51
29.0545641892025905
  0
ARC
  5
1A203
  8
0
 10
3412.0567376535259427
 20
195.2722417347312103
 30
0.0
 40
0.1258843011852876
 50
42.7308816232725732
 51
91.8063237887285766
  0
ARC
  5
1A204
  8
0
 10
3412.0413606308161434
 20
195.2349837145337972
 30
0.0
 40
0.1634783664592842
 50
85.9981239425629553
 51
136.4914950191663934
  0
ARC
  5
1A205
  8
0
 10
3411.958222519330775
 20
195.3155748635402915
 30
0.0
 40
0.0477120670867652
 50
137.9483835643085001
 51
213.0788411731743963
  0
LINE
  5
1A206
  8
0
 10
3411.9182371844858608
 20
195.2897625044863048
 30
0.0
 11
3411.9146533642970098
 21
195.3350214590082032
 31
0.0
  0
CIRCLE
  5
1A207
  8
0
 10
3411.4055535869001687
 20
195.4089133564644953
 30
0.0
 40
0.0393694873635434
  0
ARC
  5
1A208
  8
0
 10
3411.4429890960900593
 20
195.4167860311349898
 30
0.0
 40
0.077794259667181
 50
308.21116727888068
 51
40.0708270746321134
  0
LINE
  5
1A209
  8
0
 10
3411.5207804968608798
 20
195.4174529668341052
 30
0.0
 11
3411.5250612408071902
 21
195.4628875000443031
 31
0.0
  0
ARC
  5
1A20A
  8
0
 10
3411.4497628601270662
 20
195.4432295591080901
 30
0.0
 40
0.0778221098071829
 50
335.4717711513292215
 51
22.4785460509911914
  0
ARC
  5
1A20B
  8
0
 10
3411.4241672126208869
 20
195.4293081117064901
 30
0.0
 40
0.1068400957795151
 50
24.1291955448305906
 51
68.0704029506988348
  0
ARC
  5
1A20C
  8
0
 10
3411.3681180777111877
 20
195.4167860311349898
 30
0.0
 40
0.077794259667181
 50
139.929172925367908
 51
231.7888327211192916
  0
LINE
  5
1A20D
  8
0
 10
3411.2903266769390029
 20
195.4174529668341052
 30
0.0
 11
3411.2860459329931473
 21
195.4628875000443031
 31
0.0
  0
ARC
  5
1A20E
  8
0
 10
3411.3613443136728165
 20
195.4432295591080901
 30
0.0
 40
0.0778221098071829
 50
157.5214539490087873
 51
204.5282288486708069
  0
ARC
  5
1A20F
  8
0
 10
3411.3869399611789959
 20
195.4293081117064901
 30
0.0
 40
0.1068400957795151
 50
111.9295970493010941
 51
155.8708044551694059
  0
ARC
  5
1A210
  8
0
 10
3411.4055535869001687
 20
195.3914137042445986
 30
0.0
 40
0.1489767295642207
 50
66.8724942961681421
 51
113.1275057038319005
  0
ARC
  5
1A211
  8
0
 10
3411.4055535869001687
 20
195.3773261080455939
 30
0.0
 40
0.1319844067916377
 50
42.7190452839445101
 51
137.2809547160555042
  0
ARC
  5
1A212
  8
0
 10
3411.4055535869001687
 20
195.4572402971458871
 30
0.0
 40
0.1328094214456965
 50
229.894156427006692
 51
310.105843572993308
  0
ARC
  5
1A213
  8
0
 10
3411.855751683563085
 20
194.6535474420157072
 30
0.0
 40
1.8072864979527421
 50
23.6584605916977004
 51
74.6619885063942377
  0
ARC
  5
1A214
  8
0
 10
3412.4889835081457932
 20
195.0566580991018952
 30
0.0
 40
1.0717150252438989
 50
323.1349175957524267
 51
17.4917735032801183
  0
ARC
  5
1A215
  8
0
 10
3411.7368287380841139
 20
195.572516137044488
 30
0.0
 40
1.9833311972417671
 50
289.7413308795735816
 51
324.2480633178495282
  0
ARC
  5
1A216
  8
0
 10
3411.4279883990761846
 20
196.279904498252904
 30
0.0
 40
2.7539489380800619
 50
274.4744313549322783
 51
278.8045971073257192
  0
ARC
  5
1A217
  8
0
 10
3411.4279883990761846
 20
196.279904498252904
 30
0.0
 40
2.7539489380800619
 50
280.8242653154708819
 51
290.8180774655626806
  0
ARC
  5
1A218
  8
0
 10
3411.6374035611811451
 20
193.3543621251637887
 30
0.0
 40
0.1800687396478911
 50
88.2713451304092871
 51
149.6069965555278998
  0
ARC
  5
1A219
  8
0
 10
3411.831076902222776
 20
193.2788850004650101
 30
0.0
 40
0.3867129802064605
 50
154.4844388278482938
 51
177.8227260154687031
  0
ARC
  5
1A21A
  8
0
 10
3414.1058600806409231
 20
191.7639369119904131
 30
0.0
 40
2.512569001340212
 50
125.3843363294426041
 51
133.5411958889685877
  0
ARC
  5
1A21B
  8
0
 10
3413.1280679888332088
 20
192.7928321832507095
 30
0.0
 40
1.0931667137478001
 50
133.5411958889685877
 51
173.5561286048856005
  0
ARC
  5
1A21C
  8
0
 10
3420.3882865440100431
 20
191.6982698744010065
 30
0.0
 40
8.4347734992697934
 50
171.7024962589781012
 51
180.4689228313415015
  0
ARC
  5
1A21D
  8
0
 10
5893.1592607865022728
 20
191.6551520512209095
 30
0.0
 40
2481.2054653900640915
 50
180.0005983964028928
 51
180.0682029414437011
  0
ARC
  5
1A21E
  8
0
 10
3411.8290257735529849
 20
188.7260693705347023
 30
0.0
 40
0.1288699135816685
 50
285.4096322964151113
 51
349.059132456950806
  0
LINE
  5
1A21F
  8
0
 10
3411.6629527225168204
 20
187.1609692169861887
 30
0.0
 11
3411.6909866569390033
 21
183.533436450011493
 31
0.0
  0
ARC
  5
1A220
  8
0
 10
-208001.9768136143975426
 20
174.5672599936856102
 30
0.0
 40
211413.6679904017073568
 50
359.9975700527101026
 51
0.0024299472899207
  0
ARC
  5
1A221
  8
0
 10
3410.1888562479912252
 20
165.6099190673099031
 30
0.0
 40
1.5021563940339551
 50
333.1180208988704976
 51
359.6629900262510091
  0
ARC
  5
1A222
  8
0
 10
3408.6331761863430074
 20
166.5099633325934008
 30
0.0
 40
3.2981856528880611
 50
306.773510329308408
 51
331.3913736203090252
  0
LINE
  5
1A223
  8
0
 10
3411.0880961369630313
 20
187.1570743527719003
 30
0.0
 11
3411.1201205152387956
 21
183.5334364500122035
 31
0.0
  0
ARC
  5
1A224
  8
0
 10
-3349273.2952141189016402
 20
174.5672599123018927
 30
0.0
 40
3352684.4153466238640249
 50
359.9998467723161184
 51
0.0001532276855482
  0
ARC
  5
1A225
  8
0
 10
3410.0732022013908136
 20
165.629714025402393
 30
0.0
 40
1.047309725395307
 50
321.8647831482709876
 51
358.4334999766028886
  0
ARC
  5
1A226
  8
0
 10
3408.2775684189259664
 20
166.8508821448845083
 30
0.0
 40
3.2171914836088051
 50
307.5750232130487234
 51
324.5072265031586198
  0
ARC
  5
1A227
  8
0
 10
3411.4907563998708611
 20
194.7394925170164868
 30
0.0
 40
0.0587901969203079
 50
26.1489056361147512
 51
146.164855110667304
  0
ARC
  5
1A228
  8
0
 10
3411.5049879319708452
 20
194.764973373500311
 30
0.0
 40
0.0385439698075967
 50
322.7466421065499844
 51
0.6366957605886107
  0
ARC
  5
1A229
  8
0
 10
3411.4054068997738796
 20
194.8554318604834918
 30
0.0
 40
0.1729629684701101
 50
293.3730908459978082
 51
318.8608011690207036
  0
ARC
  5
1A22A
  8
0
 10
3411.4680624442707995
 20
194.7084356154161071
 30
0.0
 40
0.0131969520655039
 50
222.1080074109875113
 51
296.8562673039588731
  0
ARC
  5
1A22B
  8
0
 10
3411.577164090297174
 20
194.7759873467043974
 30
0.0
 40
0.1413238380243132
 50
197.5495073303866036
 51
212.7249847181334985
  0
ARC
  5
1A22C
  8
0
 10
3411.4968873697798699
 20
194.7534979840864935
 30
0.0
 40
0.058068024409382
 50
161.1834370067167015
 51
200.2769752584102037
  0
ARC
  5
1A22D
  8
0
 10
3411.5030715934649379
 20
194.7527772204421979
 30
0.0
 40
0.014826381039225
 50
311.6368447773555204
 51
54.6173699448497771
  0
ARC
  5
1A22E
  8
0
 10
3411.4901396941950225
 20
194.7673239169556041
 30
0.0
 40
0.0342902038435752
 50
233.5488103316920956
 51
311.6368447773543835
  0
ARC
  5
1A22F
  8
0
 10
3411.4777144563281581
 20
194.7523346367061094
 30
0.0
 40
0.0148909261053359
 50
139.1718378071944926
 51
237.741569871942886
  0
ARC
  5
1A230
  8
0
 10
3411.4907005241611841
 20
194.7367981469687948
 30
0.0
 40
0.0350273678129937
 50
53.2534447115190801
 51
133.8219598275921101
  0
LINE
  5
1A231
  8
0
 10
3411.5435243798210649
 20
194.7654121533180955
 30
0.0
 11
3411.547725061554047
 21
194.824001373831095
 31
0.0
  0
ARC
  5
1A232
  8
0
 10
3411.5213822300988795
 20
194.8064715693180062
 30
0.0
 40
0.032684784325279
 50
315.8548220700322986
 51
22.8726428973692499
  0
ARC
  5
1A233
  8
0
 10
3411.4918695624078282
 20
194.7764556174614086
 30
0.0
 40
0.0733514535201244
 50
35.6196390002046428
 51
86.4558582210648154
  0
ARC
  5
1A234
  8
0
 10
3411.4944077258969628
 20
194.7678240979485906
 30
0.0
 40
0.0818670278359325
 50
88.6027649681488327
 51
137.3837861631585895
  0
ARC
  5
1A235
  8
0
 10
3411.4838746809359691
 20
194.7968847263396981
 30
0.0
 40
0.056274392710454
 50
152.0564660275182973
 51
215.4495455289898018
  0
LINE
  5
1A236
  8
0
 10
3411.4388193453701206
 20
194.7534979840864935
 30
0.0
 11
3411.4337655724630167
 21
194.8224949688803065
 31
0.0
  0
ARC
  5
1A237
  8
0
 10
3411.6337696374030202
 20
194.6773990940976944
 30
0.0
 40
0.0587901969203079
 50
26.1489056361147512
 51
146.164855110667304
  0
ARC
  5
1A238
  8
0
 10
3411.6449029130922099
 20
194.7033615694556943
 30
0.0
 40
0.0416398805415142
 50
307.8859061154735173
 51
359.9266459817641817
  0
ARC
  5
1A239
  8
0
 10
3411.5796832218929922
 20
194.8527930749810082
 30
0.0
 40
0.2036526896537585
 50
268.301530248035192
 51
296.4751629177018231
  0
ARC
  5
1A23A
  8
0
 10
3411.5728085560390355
 20
194.6615838266831133
 30
0.0
 40
0.012382389473852
 50
189.2572784212979968
 51
273.8828415247093062
  0
ARC
  5
1A23B
  8
0
 10
3411.6501825245809414
 20
194.6436346110870943
 30
0.0
 40
0.0910050270853747
 50
157.2610802965955088
 51
169.9012582821106889
  0
ARC
  5
1A23C
  8
0
 10
3411.6532526612959373
 20
194.648145806326113
 30
0.0
 40
0.0922479269459926
 50
137.7805916391102983
 51
160.5841691876711934
  0
ARC
  5
1A23D
  8
0
 10
3411.6460848309961875
 20
194.6906837975234055
 30
0.0
 40
0.014826381039225
 50
311.6368447773555204
 51
54.6173699448497771
  0
ARC
  5
1A23E
  8
0
 10
3411.6331529317258173
 20
194.705230494036897
 30
0.0
 40
0.0342902038435752
 50
233.5488103316920956
 51
311.6368447773543835
  0
ARC
  5
1A23F
  8
0
 10
3411.6207276938598625
 20
194.6902412137874023
 30
0.0
 40
0.0148909261053359
 50
139.1718378071944926
 51
237.741569871942886
  0
ARC
  5
1A240
  8
0
 10
3411.633713761691979
 20
194.6747047240500876
 30
0.0
 40
0.0350273678129937
 50
53.2534447115190801
 51
133.8219598275921101
  0
LINE
  5
1A241
  8
0
 10
3411.6865376173509503
 20
194.7033187303993031
 30
0.0
 11
3411.6906806839738238
 21
194.7623725627676095
 31
0.0
  0
ARC
  5
1A242
  8
0
 10
3411.6643954676301291
 20
194.7443781463992138
 30
0.0
 40
0.032684784325279
 50
315.8548220700322986
 51
22.8726428973692499
  0
ARC
  5
1A243
  8
0
 10
3411.6438611974890591
 20
194.7244494933773922
 30
0.0
 40
0.060251336140618
 50
32.7932852411529225
 51
94.0466531230039351
  0
ARC
  5
1A244
  8
0
 10
3411.6388958258658022
 20
194.6948247212046113
 30
0.0
 40
0.0897287338576285
 50
89.5443860546249226
 51
171.1553657135542892
  0
ARC
  5
1A245
  8
0
 10
3411.5622402521580625
 20
194.7048063154726094
 30
0.0
 40
0.0125976385274147
 50
162.3734801413168043
 51
252.8647675807835071
  0
LINE
  5
1A246
  8
0
 10
3411.5607690645210823
 20
194.6605800563388868
 30
0.0
 11
3411.555995666605213
 21
194.7291585132192893
 31
0.0
  0
ARC
  5
1A247
  8
0
 10
3412.5387642872660763
 20
195.1134415944127909
 30
0.0
 40
1.029494221221946
 50
351.0287171837496203
 51
15.7160344402014793
  0
ARC
  5
1A248
  8
0
 10
3412.1648811363302229
 20
194.953418718691097
 30
0.0
 40
1.4337168419186761
 50
17.8252402637828489
 51
57.5949045098494565
  0
ARC
  5
1A249
  8
0
 10
3411.5828438047237796
 20
194.1406604092179009
 30
0.0
 40
2.432468656604688
 50
56.2794086247450309
 51
75.76355806289763
  0
ARC
  5
1A24A
  8
0
 10
3411.7118023528159938
 20
194.5793120220789092
 30
0.0
 40
0.0492909516848765
 50
16.0604496516268007
 51
103.7421518760287995
  0
ARC
  5
1A24B
  8
0
 10
3411.7143113176348379
 20
194.6000182311620108
 30
0.0
 40
0.0454118731894695
 50
270.259332039360288
 51
351.043662944144728
  0
ARC
  5
1A24C
  8
0
 10
3411.7068577199288484
 20
194.7702725172106
 30
0.0
 40
0.2158016543683905
 50
246.6169977116032896
 51
272.0339444936199129
  0
ARC
  5
1A24D
  8
0
 10
3411.6229181961921313
 20
194.5819950372637095
 30
0.0
 40
0.0099484261085901
 50
135.1230907593416077
 51
260.120667427019896
  0
ARC
  5
1A24E
  8
0
 10
3411.7890616212571331
 20
194.3527720492357105
 30
0.0
 40
0.292927220429008
 50
119.8855994438375063
 51
126.2457384891376933
  0
ARC
  5
1A24F
  8
0
 10
3411.7220732486021006
 20
194.4762815636076141
 30
0.0
 40
0.1525027380102788
 50
98.2868577593084751
 51
121.185897097507393
  0
ARC
  5
1A250
  8
0
 10
3411.71558168151887
 20
194.5855819971656899
 30
0.0
 40
0.014826381039225
 50
311.6368447773555204
 51
54.6173699448497771
  0
ARC
  5
1A251
  8
0
 10
3411.7026497822489546
 20
194.6001286936790962
 30
0.0
 40
0.0342902038435752
 50
233.5488103316920956
 51
311.6368447773543835
  0
ARC
  5
1A252
  8
0
 10
3411.6902245443829997
 20
194.5851394134296868
 30
0.0
 40
0.0148909261053359
 50
139.1718378071944926
 51
237.741569871942886
  0
ARC
  5
1A253
  8
0
 10
3411.7032106122151163
 20
194.5696029236922868
 30
0.0
 40
0.0350273678129937
 50
53.2534447115190801
 51
133.8219598275921101
  0
LINE
  5
1A254
  8
0
 10
3411.7591694959601227
 20
194.5929484317362039
 30
0.0
 11
3411.7636799199722191
 21
194.6549667410126006
 31
0.0
  0
ARC
  5
1A255
  8
0
 10
3411.740428727258859
 20
194.6372610880798106
 30
0.0
 40
0.0297097751640462
 50
313.3440918669990083
 51
29.635813770592101
  0
ARC
  5
1A256
  8
0
 10
3411.712921719220958
 20
194.6090541372159919
 30
0.0
 40
0.0684424000954968
 50
38.812599057292438
 51
93.7465443276876158
  0
ARC
  5
1A257
  8
0
 10
3411.722000089715948
 20
194.4991364742369058
 30
0.0
 40
0.1787282142160488
 50
94.3481542398587578
 51
107.1486636119930012
  0
ARC
  5
1A258
  8
0
 10
3411.722000089715948
 20
194.4991364742369058
 30
0.0
 40
0.1787282142160488
 50
116.6925652309380013
 51
129.7493641550173038
  0
ARC
  5
1A259
  8
0
 10
3411.6128477849579212
 20
194.6262837749113999
 30
0.0
 40
0.0114787887864739
 50
116.5566291973728994
 51
256.9568480260342085
  0
LINE
  5
1A25A
  8
0
 10
3411.6129719341502096
 20
194.5822025305105001
 30
0.0
 11
3411.6084378621389988
 21
194.6371487745024069
 31
0.0
  0
ARC
  5
1A25B
  8
0
 10
3411.6999876910440435
 20
194.4764651753988005
 30
0.0
 40
0.0322095800667334
 50
4.8155099019262648
 51
82.049623202985515
  0
ARC
  5
1A25C
  8
0
 10
3411.6872253984838608
 20
194.4862388914378073
 30
0.0
 40
0.0454118731894695
 50
270.259332039360288
 51
351.043662944144728
  0
ARC
  5
1A25D
  8
0
 10
3411.6870385286961209
 20
194.5449855083828083
 30
0.0
 40
0.1041587641688583
 50
211.4297845022340994
 51
270.2158590976138157
  0
ARC
  5
1A25E
  8
0
 10
3411.6037787441409819
 20
194.4979397546269979
 30
0.0
 40
0.0091855690901679
 50
87.2469912316543343
 51
232.3034264500500115
  0
ARC
  5
1A25F
  8
0
 10
3411.6891373474040847
 20
194.0221199119249036
 30
0.0
 40
0.4923727586935648
 50
97.6273004867014436
 51
99.9312114186995615
  0
ARC
  5
1A260
  8
0
 10
3411.6595982279791315
 20
194.3036064241630925
 30
0.0
 40
0.2096119625470421
 50
77.6466082431600171
 51
99.8374265156523819
  0
ARC
  5
1A261
  8
0
 10
3411.6884957623678929
 20
194.4718026574414012
 30
0.0
 40
0.014826381039225
 50
311.6368447773555204
 51
54.6173699448497771
  0
ARC
  5
1A262
  8
0
 10
3411.6755638630988869
 20
194.4863493539548926
 30
0.0
 40
0.0342902038435752
 50
233.5488103316920956
 51
311.6368447773543835
  0
ARC
  5
1A263
  8
0
 10
3411.6761246930641391
 20
194.4558235839681117
 30
0.0
 40
0.0350273678129937
 50
53.2534447115190801
 51
133.8219598275921101
  0
LINE
  5
1A264
  8
0
 10
3411.7320835768091456
 20
194.4791690920118867
 30
0.0
 11
3411.7365940008207872
 21
194.5411874012883118
 31
0.0
  0
ARC
  5
1A265
  8
0
 10
3411.7133428081078819
 20
194.5234817483556071
 30
0.0
 40
0.0297097751640462
 50
313.3440918669990083
 51
29.635813770592101
  0
ARC
  5
1A266
  8
0
 10
3411.6858358000708904
 20
194.4952747974917031
 30
0.0
 40
0.0684424000954968
 50
38.812599057292438
 51
60.5907799955241231
  0
ARC
  5
1A267
  8
0
 10
3411.6598507270041409
 20
194.305602734458688
 30
0.0
 40
0.256719513537696
 50
92.2258387679286642
 51
105.628348467977105
  0
ARC
  5
1A268
  8
0
 10
3411.5963574162151417
 20
194.5412994521948917
 30
0.0
 40
0.0128485000995475
 50
116.1666932997113975
 51
252.0398445204718882
  0
LINE
  5
1A269
  8
0
 10
3411.5946013868820046
 20
194.4983280757047908
 30
0.0
 11
3411.5906914307861371
 21
194.5528311720981947
 31
0.0
  0
ARC
  5
1A26A
  8
0
 10
3411.6684632238011545
 20
194.4721517272986944
 30
0.0
 40
0.018849242633271
 50
151.6733444297653932
 51
225.2400632493965986
  0
ARC
  5
1A26B
  8
0
 10
3411.5813968778011258
 20
194.3845717986131945
 30
0.0
 40
0.014826381039225
 50
311.6368447773555204
 51
54.6173699448497771
  0
ARC
  5
1A26C
  8
0
 10
3411.5684649785321199
 20
194.3991184951266007
 30
0.0
 40
0.0342902038435752
 50
233.5488103316920956
 51
311.6368447773543835
  0
ARC
  5
1A26D
  8
0
 10
3411.5690258084978268
 20
194.3685927251397914
 30
0.0
 40
0.0350273678129937
 50
53.2534447115190801
 51
133.8219598275921101
  0
ARC
  5
1A26E
  8
0
 10
3411.5613643392339327
 20
194.3849208684704024
 30
0.0
 40
0.018849242633271
 50
151.6733444297653932
 51
225.2400632493965986
  0
LINE
  5
1A26F
  8
0
 10
3411.6266317418121616
 20
194.4500823178223925
 30
0.0
 11
3411.6221141877599621
 21
194.3880758158362028
 31
0.0
  0
ARC
  5
1A270
  8
0
 10
3411.5842019693918701
 20
194.3908379535185986
 30
0.0
 40
0.0380127045358143
 50
279.9643887028943254
 51
355.8330133826606243
  0
ARC
  5
1A271
  8
0
 10
3411.5702835045758547
 20
194.4144239088354027
 30
0.0
 40
0.0643752231149358
 50
229.0463020779835119
 51
288.565216764610625
  0
ARC
  5
1A272
  8
0
 10
3411.5911006626920425
 20
194.4156825067476007
 30
0.0
 40
0.0803631542048185
 50
166.5451743399815996
 51
218.3635421382440995
  0
ARC
  5
1A273
  8
0
 10
3411.5251323093311839
 20
194.4304802333431894
 30
0.0
 40
0.012798168684792
 50
70.0621935435017633
 51
162.2530191432464051
  0
ARC
  5
1A274
  8
0
 10
3411.4991743072578174
 20
194.2533350295292109
 30
0.0
 40
0.1915909814008259
 50
53.2168307197519681
 51
80.8937859899805858
  0
ARC
  5
1A275
  8
0
 10
3411.5982560029301567
 20
194.388752830239099
 30
0.0
 40
0.0238677885821644
 50
358.3745761108228862
 51
49.0569903614908824
  0
ARC
  5
1A276
  8
0
 10
3411.6051703375451325
 20
194.4322601110752942
 30
0.0
 40
0.0278966472256242
 50
311.9587487574190732
 51
39.7373821792996011
  0
ARC
  5
1A277
  8
0
 10
3411.505548927268137
 20
194.3029101093844986
 30
0.0
 40
0.1905826778830072
 50
50.5592127064014392
 51
81.4324395329505961
  0
ARC
  5
1A278
  8
0
 10
3411.5251721114609609
 20
194.4661506897101049
 30
0.0
 40
0.0266966168938123
 50
70.8242233070727565
 51
151.764550379180605
  0
ARC
  5
1A279
  8
0
 10
3411.5982945594428202
 20
194.4610128585482016
 30
0.0
 40
0.0982622146684042
 50
169.5824034587980123
 51
206.9980448714476893
  0
LINE
  5
1A27A
  8
0
 10
3411.5107705986029032
 20
194.4179884462753876
 30
0.0
 11
3411.5059835844617737
 21
194.4847116645007077
 31
0.0
  0
ARC
  5
1A27B
  8
0
 10
3411.3506184227608173
 20
194.3258801135058036
 30
0.0
 40
0.1107693844241199
 50
15.8471702401497296
 51
54.1947588751882066
  0
ARC
  5
1A27C
  8
0
 10
3411.4229714035950565
 20
194.3564252044913871
 30
0.0
 40
0.0342077372722265
 50
298.6136036670812928
 51
359.5024747525969246
  0
ARC
  5
1A27D
  8
0
 10
3411.405567835680813
 20
194.3850586558502869
 30
0.0
 40
0.0676968423788849
 50
238.3930315735412933
 51
299.9386865992332218
  0
ARC
  5
1A27E
  8
0
 10
3411.3878079021378653
 20
194.3565059134197099
 30
0.0
 40
0.0340721096312157
 50
182.9915905420770059
 51
238.6642577188912071
  0
ARC
  5
1A27F
  8
0
 10
3411.4553444023340489
 20
194.3299180351754956
 30
0.0
 40
0.1045485328387707
 50
124.8480112630484058
 51
166.2725869047229139
  0
ARC
  5
1A280
  8
0
 10
3411.4055120596549386
 20
194.4042959085957136
 30
0.0
 40
0.0151198070009394
 50
49.0476994819709375
 51
130.9365390509975953
  0
LINE
  5
1A281
  8
0
 10
3411.4571778512031415
 20
194.3561281669221898
 30
0.0
 11
3411.4619921255180088
 21
194.4201684755981034
 31
0.0
  0
ARC
  5
1A282
  8
0
 10
3411.436500837497988
 20
194.400615755382006
 30
0.0
 40
0.0319280226926079
 50
314.3123569334708236
 51
30.4037093304220711
  0
ARC
  5
1A283
  8
0
 10
3411.319441535221813
 20
194.3319272832542879
 30
0.0
 40
0.1676519573997928
 50
30.4037093304220711
 51
51.1851332778211727
  0
ARC
  5
1A284
  8
0
 10
3411.4055061027620468
 20
194.4389131590629063
 30
0.0
 40
0.0303454120045781
 50
51.1851332778211727
 51
129.0731419704775078
  0
ARC
  5
1A285
  8
0
 10
3411.5017139249989668
 20
194.3204160114719059
 30
0.0
 40
0.1829806603809687
 50
129.0731419704775078
 51
145.8065487179628974
  0
ARC
  5
1A286
  8
0
 10
3411.3822032481530186
 20
194.4016154166714045
 30
0.0
 40
0.0384948642447931
 50
145.8065487179628974
 51
218.4158382399567984
  0
LINE
  5
1A287
  8
0
 10
3411.3537822257908374
 20
194.3547277110031075
 30
0.0
 11
3411.3490234307910214
 21
194.4211334671144016
 31
0.0
  0
ARC
  5
1A288
  8
0
 10
3411.4054583651909525
 20
194.3337625571087131
 30
0.0
 40
0.0353255574171601
 50
46.3880658967633579
 51
132.8885625773563959
  0
ARC
  5
1A289
  8
0
 10
3411.4190985108762106
 20
194.3505136728234106
 30
0.0
 40
0.0138905039560022
 50
300.5022370801495981
 51
39.4472970682906023
  0
ARC
  5
1A28A
  8
0
 10
3411.4057683819628437
 20
194.368783565833894
 30
0.0
 40
0.0364651719087676
 50
229.1292810361549925
 51
303.9800916016311021
  0
ARC
  5
1A28B
  8
0
 10
3411.391233783053849
 20
194.3506816331016012
 30
0.0
 40
0.0132934007563444
 50
137.6032799690565014
 51
225.4450997916869994
  0
ARC
  5
1A28C
  8
0
 10
3410.510099759122113
 20
194.111013738513293
 30
0.0
 40
0.0158605807137526
 50
112.9966161537301019
 51
215.760581503819509
  0
ARC
  5
1A28D
  8
0
 10
3410.5389970992669078
 20
194.140082628141414
 30
0.0
 40
0.0566950177214783
 50
222.5482772202661863
 51
293.5268025488704211
  0
ARC
  5
1A28E
  8
0
 10
3410.5571705476831994
 20
194.1034524684361031
 30
0.0
 40
0.0159861554976066
 50
286.1923909850556811
 51
27.5553969136943095
  0
ARC
  5
1A28F
  8
0
 10
3410.5285385620950365
 20
194.0767386269361907
 30
0.0
 40
0.0547327900958636
 50
38.5497365312722096
 51
116.7500232293591012
  0
ARC
  5
1A290
  8
0
 10
3410.467394203819822
 20
194.124562683111094
 30
0.0
 40
0.0486730783452054
 50
118.7114519875741934
 51
220.8421640180652048
  0
ARC
  5
1A291
  8
0
 10
3410.5464813114890603
 20
194.1993549560017982
 30
0.0
 40
0.1574910575545338
 50
222.6106065000012109
 51
297.4344456290330072
  0
ARC
  5
1A292
  8
0
 10
3410.5954104551051387
 20
194.106610929575595
 30
0.0
 40
0.0526384696859408
 50
296.6765967294072084
 51
29.4459166379615489
  0
ARC
  5
1A293
  8
0
 10
3410.521075010918139
 20
194.0275704632651923
 30
0.0
 40
0.1595290558649843
 50
41.1224901072995621
 51
118.885935083561904
  0
LINE
  5
1A294
  8
0
 10
3410.4187214313010372
 20
194.1247352255556962
 30
0.0
 11
3410.414590168299128
 21
194.1678536024919879
 31
0.0
  0
ARC
  5
1A295
  8
0
 10
3410.453568228560016
 20
194.1528640159355064
 30
0.0
 40
0.0417609493044361
 50
150.9454358107973917
 51
211.9808292229307085
  0
ARC
  5
1A296
  8
0
 10
3410.5095307604960908
 20
194.0877253927409072
 30
0.0
 40
0.1258843011852876
 50
88.1936762112714234
 51
137.2691183767273913
  0
ARC
  5
1A297
  8
0
 10
3410.5249077832058902
 20
194.0504673725434941
 30
0.0
 40
0.1634783664592842
 50
43.5085049808335782
 51
94.0018760574370731
  0
ARC
  5
1A298
  8
0
 10
3410.6080458946908038
 20
194.1310585215499884
 30
0.0
 40
0.0477120670867652
 50
326.9211588268256037
 51
42.051616435691507
  0
LINE
  5
1A299
  8
0
 10
3410.6480312295361728
 20
194.105246162496087
 30
0.0
 11
3410.6516150497250237
 21
194.1505051170179001
 31
0.0
  0
ARC
  5
1A29A
  8
0
 10
3410.0777394933938922
 20
194.2420689373242908
 30
0.0
 40
0.0102232792820635
 50
110.9236118895567955
 51
219.8338652021872122
  0
ARC
  5
1A29B
  8
0
 10
3410.0991217239120488
 20
194.25990536191091
 30
0.0
 40
0.0380681679321529
 50
219.8338652021884911
 51
286.3774697316845277
  0
ARC
  5
1A29C
  8
0
 10
3410.1066185202507768
 20
194.2343964033375983
 30
0.0
 40
0.0114804090412692
 50
286.3774697316845277
 51
32.3804105243224214
  0
ARC
  5
1A29D
  8
0
 10
3410.0872266534661321
 20
194.2156728462163926
 30
0.0
 40
0.0382709979693845
 50
40.5329435584729296
 51
110.0775685415546974
  0
ARC
  5
1A29E
  8
0
 10
3410.0566935227261638
 20
194.253900790655706
 30
0.0
 40
0.0278277611967817
 50
123.4959626459029067
 51
221.9568112345355928
  0
ARC
  5
1A29F
  8
0
 10
3410.104450458959036
 20
194.2911219128750986
 30
0.0
 40
0.0883293699154341
 50
219.1993180164608077
 51
293.846475108684217
  0
ARC
  5
1A2A0
  8
0
 10
3410.1265875462268014
 20
194.2371586554274074
 30
0.0
 40
0.0300640914076377
 50
296.8387251171225785
 51
35.5147475015145773
  0
ARC
  5
1A2A1
  8
0
 10
3410.0816825274591793
 20
194.195031684045091
 30
0.0
 40
0.0914560481217059
 50
40.6613664384212186
 51
116.1777705275666932
  0
LINE
  5
1A2A2
  8
0
 10
3410.028933123780007
 20
194.2558358729737904
 30
0.0
 11
3410.0236499462948814
 21
194.3222486568162992
 31
0.0
  0
ARC
  5
1A2A3
  8
0
 10
3410.0452818965168262
 20
194.3049034924582941
 30
0.0
 40
0.0277271707354273
 50
138.0625865478235141
 51
227.820385373451586
  0
ARC
  5
1A2A4
  8
0
 10
3410.0744120632580234
 20
194.2426112518249113
 30
0.0
 40
0.0949102752243234
 50
71.8551023363055776
 51
121.6170672381314972
  0
ARC
  5
1A2A5
  8
0
 10
3410.07984745849717
 20
194.2238781738934961
 30
0.0
 40
0.1115626171787395
 50
43.109095863334133
 51
77.5130961225025601
  0
ARC
  5
1A2A6
  8
0
 10
3410.1418305487131875
 20
194.2783905255481898
 30
0.0
 40
0.029171141471741
 50
308.4427532749106717
 51
48.1469965107775124
  0
LINE
  5
1A2A7
  8
0
 10
3410.1564830602928851
 20
194.2339793739153038
 30
0.0
 11
3410.1662397332679575
 21
194.2943638534478055
 31
0.0
  0
ARC
  5
1A2A8
  8
0
 10
3410.6041870023941556
 20
194.3445898480242988
 30
0.0
 40
0.0102232792820635
 50
110.9236118895567955
 51
219.8338652021872122
  0
ARC
  5
1A2A9
  8
0
 10
3410.6255692329109479
 20
194.3624262726108896
 30
0.0
 40
0.0380681679321529
 50
219.8338652021884911
 51
286.3774697316845277
  0
ARC
  5
1A2AA
  8
0
 10
3410.6330660292501307
 20
194.3369173140376063
 30
0.0
 40
0.0114804090412692
 50
286.3774697316845277
 51
32.3804105243224214
  0
ARC
  5
1A2AB
  8
0
 10
3410.6136741624668502
 20
194.3181937569164006
 30
0.0
 40
0.0382709979693845
 50
40.5329435584729296
 51
110.0775685415546974
  0
ARC
  5
1A2AC
  8
0
 10
3410.5831410317259724
 20
194.3564217013556004
 30
0.0
 40
0.0278277611967817
 50
123.4959626459029067
 51
221.9568112345355928
  0
ARC
  5
1A2AD
  8
0
 10
3410.6308979679588447
 20
194.3936428235749929
 30
0.0
 40
0.0883293699154341
 50
219.1993180164608077
 51
293.846475108684217
  0
ARC
  5
1A2AE
  8
0
 10
3410.6530350552270647
 20
194.339679566127387
 30
0.0
 40
0.0300640914076377
 50
296.8387251171466801
 51
35.5147475015145773
  0
ARC
  5
1A2AF
  8
0
 10
3410.6081300364598974
 20
194.297552594745099
 30
0.0
 40
0.0914560481217059
 50
40.6613664384212186
 51
116.1777705275666932
  0
LINE
  5
1A2B0
  8
0
 10
3410.5553806327789061
 20
194.3583567836737984
 30
0.0
 11
3410.5500974552951448
 21
194.4247695675163925
 31
0.0
  0
ARC
  5
1A2B1
  8
0
 10
3410.5717294055161801
 20
194.4074244031583021
 30
0.0
 40
0.0277271707354273
 50
138.0625865478235141
 51
227.820385373451586
  0
ARC
  5
1A2B2
  8
0
 10
3410.600859572257832
 20
194.3451321625248909
 30
0.0
 40
0.0949102752243234
 50
71.8551023363055776
 51
121.6170672381314972
  0
ARC
  5
1A2B3
  8
0
 10
3410.6062949674969786
 20
194.3263990845935041
 30
0.0
 40
0.1115626171787395
 50
43.109095863334133
 51
77.5130961225025601
  0
ARC
  5
1A2B4
  8
0
 10
3410.6682780577139056
 20
194.3809114362481978
 30
0.0
 40
0.029171141471741
 50
308.4427532749106717
 51
48.1469965107775124
  0
LINE
  5
1A2B5
  8
0
 10
3410.6829305692931484
 20
194.3365002846153118
 30
0.0
 11
3410.6926872422668566
 21
194.3968847641478135
 31
0.0
  0
ARC
  5
1A2B6
  8
0
 10
3409.6754498798941313
 20
194.5448010520242974
 30
0.0
 40
0.0102232792820635
 50
110.9236118895567955
 51
219.8338652021872122
  0
ARC
  5
1A2B7
  8
0
 10
3409.6968321104109236
 20
194.5626374766108881
 30
0.0
 40
0.0380681679321529
 50
219.8338652021884911
 51
286.3774697316845277
  0
ARC
  5
1A2B8
  8
0
 10
3409.7043289067501064
 20
194.5371285180376049
 30
0.0
 40
0.0114804090412692
 50
286.3774697316845277
 51
32.3804105243224214
  0
ARC
  5
1A2B9
  8
0
 10
3409.684937039966826
 20
194.5184049609163139
 30
0.0
 40
0.0382709979693845
 50
40.5329435584729296
 51
110.0775685415546974
  0
ARC
  5
1A2BA
  8
0
 10
3409.6544039092259482
 20
194.556632905355599
 30
0.0
 40
0.0278277611967817
 50
123.4959626459029067
 51
221.9568112345355928
  0
ARC
  5
1A2BB
  8
0
 10
3409.7021608454588204
 20
194.5938540275751052
 30
0.0
 40
0.0883293699154341
 50
219.1993180164608077
 51
293.846475108684217
  0
ARC
  5
1A2BC
  8
0
 10
3409.7242979327270405
 20
194.539890770127414
 30
0.0
 40
0.0300640914076377
 50
296.8387251171466801
 51
35.5147475015145773
  0
ARC
  5
1A2BD
  8
0
 10
3409.6793929139598731
 20
194.4977637987450976
 30
0.0
 40
0.0914560481217059
 50
40.6613664384212186
 51
116.1777705275666932
  0
LINE
  5
1A2BE
  8
0
 10
3409.6266435102788819
 20
194.558567987673797
 30
0.0
 11
3409.6213603327951205
 21
194.6249807715163058
 31
0.0
  0
ARC
  5
1A2BF
  8
0
 10
3409.6429922830161559
 20
194.6076356071583007
 30
0.0
 40
0.0277271707354273
 50
138.0625865478235141
 51
227.820385373451586
  0
ARC
  5
1A2C0
  8
0
 10
3409.6721224497578078
 20
194.5453433665248895
 30
0.0
 40
0.0949102752243234
 50
71.8551023363055776
 51
121.6170672381314972
  0
ARC
  5
1A2C1
  8
0
 10
3409.6775578449969544
 20
194.5266102885935027
 30
0.0
 40
0.1115626171787395
 50
43.109095863334133
 51
77.5130961225025601
  0
ARC
  5
1A2C2
  8
0
 10
3409.7395409352129718
 20
194.5811226402481964
 30
0.0
 40
0.029171141471741
 50
308.4427532749106717
 51
48.1469965107775124
  0
LINE
  5
1A2C3
  8
0
 10
3409.7541934467922147
 20
194.5367114886153104
 30
0.0
 11
3409.7639501197668324
 21
194.5970959681478121
 31
0.0
  0
ARC
  5
1A2C4
  8
0
 10
3409.9636542370440111
 20
194.7892763966243024
 30
0.0
 40
0.0102232792820635
 50
110.9236118895567955
 51
219.8338652021872122
  0
ARC
  5
1A2C5
  8
0
 10
3409.9850364675608034
 20
194.8071128212108931
 30
0.0
 40
0.0380681679321529
 50
219.8338652021884911
 51
286.3774697316845277
  0
ARC
  5
1A2C6
  8
0
 10
3409.9925332638999862
 20
194.7816038626376098
 30
0.0
 40
0.0114804090412692
 50
286.3774697316845277
 51
32.3804105243224214
  0
ARC
  5
1A2C7
  8
0
 10
3409.9731413971171605
 20
194.7628803055162905
 30
0.0
 40
0.0382709979693845
 50
40.5329435584729296
 51
110.0775685415546974
  0
ARC
  5
1A2C8
  8
0
 10
3409.9426082663749185
 20
194.8011082499556039
 30
0.0
 40
0.0278277611967817
 50
123.4959626459029067
 51
221.9568112345355928
  0
ARC
  5
1A2C9
  8
0
 10
3409.9903652026091549
 20
194.8383293721751102
 30
0.0
 40
0.0883293699154341
 50
219.1993180164608077
 51
293.846475108684217
  0
ARC
  5
1A2CA
  8
0
 10
3410.0125022898769203
 20
194.7843661147273906
 30
0.0
 40
0.0300640914076377
 50
296.8387251171466801
 51
35.5147475015145773
  0
ARC
  5
1A2CB
  8
0
 10
3409.9675972711102077
 20
194.7422391433451025
 30
0.0
 40
0.0914560481217059
 50
40.6613664384212186
 51
116.1777705275666932
  0
LINE
  5
1A2CC
  8
0
 10
3409.9148478674301259
 20
194.803043332273802
 30
0.0
 11
3409.9095646899440908
 21
194.8694561161163108
 31
0.0
  0
ARC
  5
1A2CD
  8
0
 10
3409.9311966401660356
 20
194.8521109517583056
 30
0.0
 40
0.0277271707354273
 50
138.0625865478235141
 51
227.820385373451586
  0
ARC
  5
1A2CE
  8
0
 10
3409.9603268069081423
 20
194.7898187111248944
 30
0.0
 40
0.0949102752243234
 50
71.8551023363055776
 51
121.6170672381314972
  0
ARC
  5
1A2CF
  8
0
 10
3409.9657622021468342
 20
194.7710856331935076
 30
0.0
 40
0.1115626171787395
 50
43.109095863334133
 51
77.5130961225025601
  0
ARC
  5
1A2D0
  8
0
 10
3410.0277452923642159
 20
194.8255979848482013
 30
0.0
 40
0.029171141471741
 50
308.4427532749106717
 51
48.1469965107775124
  0
LINE
  5
1A2D1
  8
0
 10
3410.0423978039420945
 20
194.7811868332152017
 30
0.0
 11
3410.0521544769171669
 21
194.8415713127477886
 31
0.0
  0
ARC
  5
1A2D2
  8
0
 10
3409.8150336435860481
 20
195.2087779172694866
 30
0.0
 40
0.0102232792820635
 50
110.9236118895567955
 51
219.8338652021872122
  0
ARC
  5
1A2D3
  8
0
 10
3409.8364158741028405
 20
195.2266143418561057
 30
0.0
 40
0.0380681679321529
 50
219.8338652021884911
 51
286.3774697316845277
  0
ARC
  5
1A2D4
  8
0
 10
3409.8439126704411137
 20
195.201105383282794
 30
0.0
 40
0.0114804090412692
 50
286.3774697316845277
 51
32.3804105243224214
  0
ARC
  5
1A2D5
  8
0
 10
3409.8245208036578333
 20
195.1823818261615884
 30
0.0
 40
0.0382709979693845
 50
40.5329435584729296
 51
110.0775685415546974
  0
ARC
  5
1A2D6
  8
0
 10
3409.7939876729169555
 20
195.2206097706007881
 30
0.0
 40
0.0278277611967817
 50
123.4959626459029067
 51
221.9568112345355928
  0
ARC
  5
1A2D7
  8
0
 10
3409.8417446091498277
 20
195.2578308928202944
 30
0.0
 40
0.0883293699154341
 50
219.1993180164608077
 51
293.846475108684217
  0
ARC
  5
1A2D8
  8
0
 10
3409.8638816964189573
 20
195.2038676353726032
 30
0.0
 40
0.0300640914076377
 50
296.8387251171466801
 51
35.5147475015145773
  0
ARC
  5
1A2D9
  8
0
 10
3409.8189766776508804
 20
195.1617406639902867
 30
0.0
 40
0.0914560481217059
 50
40.6613664384212186
 51
116.1777705275666932
  0
LINE
  5
1A2DA
  8
0
 10
3409.7662272739707987
 20
195.2225448529189862
 30
0.0
 11
3409.7609440964861278
 21
195.2889576367616087
 31
0.0
  0
ARC
  5
1A2DB
  8
0
 10
3409.7825760467071632
 20
195.2716124724034898
 30
0.0
 40
0.0277271707354273
 50
138.0625865478235141
 51
227.820385373451586
  0
ARC
  5
1A2DC
  8
0
 10
3409.8117062134488151
 20
195.2093202317701071
 30
0.0
 40
0.0949102752243234
 50
71.8551023363055776
 51
121.6170672381314972
  0
ARC
  5
1A2DD
  8
0
 10
3409.8171416086888712
 20
195.1905871538386918
 30
0.0
 40
0.1115626171787395
 50
43.109095863334133
 51
77.5130961225025601
  0
ARC
  5
1A2DE
  8
0
 10
3409.8791246989048886
 20
195.245099505493414
 30
0.0
 40
0.029171141471741
 50
308.4427532749106717
 51
48.1469965107775124
  0
LINE
  5
1A2DF
  8
0
 10
3409.8937772104841315
 20
195.2006883538604995
 30
0.0
 11
3409.9035338834592039
 21
195.2610728333930012
 31
0.0
  0
ARC
  5
1A2E0
  8
0
 10
3410.3002431926411191
 20
195.2988582638236039
 30
0.0
 40
0.0102232792820635
 50
110.9236118895567955
 51
219.8338652021872122
  0
ARC
  5
1A2E1
  8
0
 10
3410.3216254231579114
 20
195.3166946884101947
 30
0.0
 40
0.0380681679321529
 50
219.8338652021884911
 51
286.3774697316845277
  0
ARC
  5
1A2E2
  8
0
 10
3410.3291222194961847
 20
195.2911857298369114
 30
0.0
 40
0.0114804090412692
 50
286.3774697316845277
 51
32.3804105243224214
  0
ARC
  5
1A2E3
  8
0
 10
3410.3097303527119948
 20
195.272462172715592
 30
0.0
 40
0.0382709979693845
 50
40.5329435584729296
 51
110.0775685415546974
  0
ARC
  5
1A2E4
  8
0
 10
3410.2791972219720265
 20
195.3106901171549055
 30
0.0
 40
0.0278277611967817
 50
123.4959626459029067
 51
221.9568112345355928
  0
ARC
  5
1A2E5
  8
0
 10
3410.3269541582048987
 20
195.347911239374298
 30
0.0
 40
0.0883293699154341
 50
219.1993180164608077
 51
293.846475108684217
  0
ARC
  5
1A2E6
  8
0
 10
3410.3490912454731188
 20
195.2939479819266921
 30
0.0
 40
0.0300640914076377
 50
296.8387251171466801
 51
35.5147475015145773
  0
ARC
  5
1A2E7
  8
0
 10
3410.3041862267059514
 20
195.2518210105444041
 30
0.0
 40
0.0914560481217059
 50
40.6613664384212186
 51
116.1777705275666932
  0
LINE
  5
1A2E8
  8
0
 10
3410.2514368230249602
 20
195.3126251994729898
 30
0.0
 11
3410.2461536455411988
 21
195.3790379833156123
 31
0.0
  0
ARC
  5
1A2E9
  8
0
 10
3410.2677855957617794
 20
195.3616928189576072
 30
0.0
 40
0.0277271707354273
 50
138.0625865478235141
 51
227.820385373451586
  0
ARC
  5
1A2EA
  8
0
 10
3410.2969157625038861
 20
195.299400578324196
 30
0.0
 40
0.0949102752243234
 50
71.8551023363055776
 51
121.6170672381314972
  0
ARC
  5
1A2EB
  8
0
 10
3410.3023511577430327
 20
195.2806675003928092
 30
0.0
 40
0.1115626171787395
 50
43.109095863334133
 51
77.5130961225025601
  0
ARC
  5
1A2EC
  8
0
 10
3410.3643342479590501
 20
195.3351798520475029
 30
0.0
 40
0.029171141471741
 50
308.4427532749106717
 51
48.1469965107775124
  0
LINE
  5
1A2ED
  8
0
 10
3410.3789867595378382
 20
195.2907687004145032
 30
0.0
 11
3410.3887434325129107
 21
195.3511531799470902
 31
0.0
  0
ARC
  5
1A2EE
  8
0
 10
3410.4544705976441037
 20
195.7224185206742959
 30
0.0
 40
0.0102232792820635
 50
110.9236118895567955
 51
219.8338652021872122
  0
ARC
  5
1A2EF
  8
0
 10
3410.4758528281618055
 20
195.7402549452608866
 30
0.0
 40
0.0380681679321529
 50
219.8338652021884911
 51
286.3774697316845277
  0
ARC
  5
1A2F0
  8
0
 10
3410.4833496245000788
 20
195.7147459866876034
 30
0.0
 40
0.0114804090412692
 50
286.3774697316845277
 51
32.3804105243224214
  0
ARC
  5
1A2F1
  8
0
 10
3410.4639577577167984
 20
195.6960224295663124
 30
0.0
 40
0.0382709979693845
 50
40.5329435584729296
 51
110.0775685415546974
  0
ARC
  5
1A2F2
  8
0
 10
3410.4334246269759205
 20
195.7342503740055975
 30
0.0
 40
0.0278277611967817
 50
123.4959626459029067
 51
221.9568112345355928
  0
ARC
  5
1A2F3
  8
0
 10
3410.4811815632087928
 20
195.77147149622499
 30
0.0
 40
0.0883293699154341
 50
219.1993180164608077
 51
293.846475108684217
  0
ARC
  5
1A2F4
  8
0
 10
3410.5033186504770129
 20
195.7175082387774125
 30
0.0
 40
0.0300640914076377
 50
296.8387251171466801
 51
35.5147475015145773
  0
ARC
  5
1A2F5
  8
0
 10
3410.458413631708936
 20
195.6753812673950961
 30
0.0
 40
0.0914560481217059
 50
40.6613664384212186
 51
116.1777705275666932
  0
LINE
  5
1A2F6
  8
0
 10
3410.4056642280288543
 20
195.7361854563237955
 30
0.0
 11
3410.4003810505450929
 21
195.8025982401663043
 31
0.0
  0
ARC
  5
1A2F7
  8
0
 10
3410.4220130007661282
 20
195.7852530758082992
 30
0.0
 40
0.0277271707354273
 50
138.0625865478235141
 51
227.820385373451586
  0
ARC
  5
1A2F8
  8
0
 10
3410.4511431675077802
 20
195.722960835174888
 30
0.0
 40
0.0949102752243234
 50
71.8551023363055776
 51
121.6170672381314972
  0
ARC
  5
1A2F9
  8
0
 10
3410.4565785627469268
 20
195.7042277572435012
 30
0.0
 40
0.1115626171787395
 50
43.109095863334133
 51
77.5130961225025601
  0
ARC
  5
1A2FA
  8
0
 10
3410.5185616529629442
 20
195.7587401088981949
 30
0.0
 40
0.029171141471741
 50
308.4427532749106717
 51
48.1469965107775124
  0
LINE
  5
1A2FB
  8
0
 10
3410.5332141645421871
 20
195.7143289572653089
 30
0.0
 11
3410.5429708375168047
 21
195.7747134367978106
 31
0.0
  0
ARC
  5
1A2FC
  8
0
 10
3410.9830454326438485
 20
195.611959666774311
 30
0.0
 40
0.0102232792820635
 50
110.9236118895567955
 51
219.8338652021872122
  0
ARC
  5
1A2FD
  8
0
 10
3411.0044276631610956
 20
195.6297960913609018
 30
0.0
 40
0.0380681679321529
 50
219.8338652021884911
 51
286.3774697316845277
  0
ARC
  5
1A2FE
  8
0
 10
3411.0119244595011878
 20
195.6042871327875901
 30
0.0
 40
0.0114804090412692
 50
286.3774697316845277
 51
32.3804105243224214
  0
ARC
  5
1A2FF
  8
0
 10
3410.9925325927169979
 20
195.5855635756664128
 30
0.0
 40
0.0382709979693845
 50
40.5329435584729296
 51
110.0775685415546974
  0
ARC
  5
1A300
  8
0
 10
3410.9619994619761201
 20
195.6237915201056126
 30
0.0
 40
0.0278277611967817
 50
123.4959626459029067
 51
221.9568112345355928
  0
ARC
  5
1A301
  8
0
 10
3411.0097563982089923
 20
195.6610126423250904
 30
0.0
 40
0.0883293699154341
 50
219.1993180164608077
 51
293.846475108684217
  0
ARC
  5
1A302
  8
0
 10
3411.0318934854772124
 20
195.6070493848773992
 30
0.0
 40
0.0300640914076377
 50
296.8387251171466801
 51
35.5147475015145773
  0
ARC
  5
1A303
  8
0
 10
3410.9869884667091355
 20
195.5649224134951112
 30
0.0
 40
0.0914560481217059
 50
40.6613664384212186
 51
116.1777705275666932
  0
LINE
  5
1A304
  8
0
 10
3410.9342390630299633
 20
195.6257266024238106
 30
0.0
 11
3410.9289558855448377
 21
195.692139386266291
 31
0.0
  0
ARC
  5
1A305
  8
0
 10
3410.9505878357667825
 20
195.6747942219082859
 30
0.0
 40
0.0277271707354273
 50
138.0625865478235141
 51
227.820385373451586
  0
ARC
  5
1A306
  8
0
 10
3410.9797180025079797
 20
195.6125019812749031
 30
0.0
 40
0.0949102752243234
 50
71.8551023363055776
 51
121.6170672381314972
  0
ARC
  5
1A307
  8
0
 10
3410.9851533977471263
 20
195.5937689033434879
 30
0.0
 40
0.1115626171787395
 50
43.109095863334133
 51
77.5130961225025601
  0
ARC
  5
1A308
  8
0
 10
3411.0471364879631437
 20
195.64828125499821
 30
0.0
 40
0.029171141471741
 50
308.4427532749106717
 51
48.1469965107775124
  0
LINE
  5
1A309
  8
0
 10
3411.0617889995428413
 20
195.6038701033652956
 30
0.0
 11
3411.0715456725179138
 21
195.6642545828977973
 31
0.0
  0
ARC
  5
1A30A
  8
0
 10
3411.1478670020937898
 20
195.1578750260242998
 30
0.0
 40
0.0102232792820635
 50
110.9236118895567955
 51
219.8338652021872122
  0
ARC
  5
1A30B
  8
0
 10
3411.1692492326110369
 20
195.1757114506108906
 30
0.0
 40
0.0380681679321529
 50
219.8338652021884911
 51
286.3774697316845277
  0
ARC
  5
1A30C
  8
0
 10
3411.1767460289502196
 20
195.1502024920376073
 30
0.0
 40
0.0114804090412692
 50
286.3774697316845277
 51
32.3804105243224214
  0
ARC
  5
1A30D
  8
0
 10
3411.1573541621669392
 20
195.1314789349164016
 30
0.0
 40
0.0382709979693845
 50
40.5329435584729296
 51
110.0775685415546974
  0
ARC
  5
1A30E
  8
0
 10
3411.1268210314260614
 20
195.1697068793556014
 30
0.0
 40
0.0278277611967817
 50
123.4959626459029067
 51
221.9568112345355928
  0
ARC
  5
1A30F
  8
0
 10
3411.1745779676589336
 20
195.2069280015751076
 30
0.0
 40
0.0883293699154341
 50
219.1993180164608077
 51
293.846475108684217
  0
ARC
  5
1A310
  8
0
 10
3411.1967150549271537
 20
195.152964744127388
 30
0.0
 40
0.0300640914076377
 50
296.8387251171466801
 51
35.5147475015145773
  0
ARC
  5
1A311
  8
0
 10
3411.1518100361590768
 20
195.1108377727451
 30
0.0
 40
0.0914560481217059
 50
40.6613664384212186
 51
116.1777705275666932
  0
LINE
  5
1A312
  8
0
 10
3411.0990606324799046
 20
195.1716419616737994
 30
0.0
 11
3411.093777454994779
 21
195.2380547455163082
 31
0.0
  0
ARC
  5
1A313
  8
0
 10
3411.1154094052158143
 20
195.2207095811583031
 30
0.0
 40
0.0277271707354273
 50
138.0625865478235141
 51
227.820385373451586
  0
ARC
  5
1A314
  8
0
 10
3411.144539571957921
 20
195.1584173405248919
 30
0.0
 40
0.0949102752243234
 50
71.8551023363055776
 51
121.6170672381314972
  0
ARC
  5
1A315
  8
0
 10
3411.1499749671970676
 20
195.1396842625935051
 30
0.0
 40
0.1115626171787395
 50
43.109095863334133
 51
77.5130961225025601
  0
ARC
  5
1A316
  8
0
 10
3411.2119580574139945
 20
195.1941966142481988
 30
0.0
 40
0.029171141471741
 50
308.4427532749106717
 51
48.1469965107775124
  0
LINE
  5
1A317
  8
0
 10
3411.2266105689927826
 20
195.1497854626153128
 30
0.0
 11
3411.2363672419669456
 21
195.2101699421477861
 31
0.0
  0
ARC
  5
1A318
  8
0
 10
3410.7366497547941435
 20
194.9790505640243055
 30
0.0
 40
0.0102232792820635
 50
110.9236118895567955
 51
219.8338652021872122
  0
ARC
  5
1A319
  8
0
 10
3410.7580319853118453
 20
194.9968869886108962
 30
0.0
 40
0.0380681679321529
 50
219.8338652021884911
 51
286.3774697316845277
  0
ARC
  5
1A31A
  8
0
 10
3410.7655287816501186
 20
194.9713780300376129
 30
0.0
 40
0.0114804090412692
 50
286.3774697316845277
 51
32.3804105243224214
  0
ARC
  5
1A31B
  8
0
 10
3410.7461369148668382
 20
194.9526544729164073
 30
0.0
 40
0.0382709979693845
 50
40.5329435584729296
 51
110.0775685415546974
  0
ARC
  5
1A31C
  8
0
 10
3410.7156037841259604
 20
194.990882417355607
 30
0.0
 40
0.0278277611967817
 50
123.4959626459029067
 51
221.9568112345355928
  0
ARC
  5
1A31D
  8
0
 10
3410.7633607203588326
 20
195.0281035395751132
 30
0.0
 40
0.0883293699154341
 50
219.1993180164608077
 51
293.846475108684217
  0
ARC
  5
1A31E
  8
0
 10
3410.7854978076270527
 20
194.9741402821273937
 30
0.0
 40
0.0300640914076377
 50
296.8387251171466801
 51
35.5147475015145773
  0
ARC
  5
1A31F
  8
0
 10
3410.7405927888589758
 20
194.9320133107451056
 30
0.0
 40
0.0914560481217059
 50
40.6613664384212186
 51
116.1777705275666932
  0
LINE
  5
1A320
  8
0
 10
3410.6878433851798036
 20
194.9928174996738051
 30
0.0
 11
3410.6825602076951327
 21
195.0592302835163139
 31
0.0
  0
ARC
  5
1A321
  8
0
 10
3410.7041921579161681
 20
195.0418851191583087
 30
0.0
 40
0.0277271707354273
 50
138.0625865478235141
 51
227.820385373451586
  0
ARC
  5
1A322
  8
0
 10
3410.73332232465782
 20
194.9795928785248975
 30
0.0
 40
0.0949102752243234
 50
71.8551023363055776
 51
121.6170672381314972
  0
ARC
  5
1A323
  8
0
 10
3410.7387577198969666
 20
194.9608598005935107
 30
0.0
 40
0.1115626171787395
 50
43.109095863334133
 51
77.5130961225025601
  0
ARC
  5
1A324
  8
0
 10
3410.8007408101138935
 20
195.0153721522482044
 30
0.0
 40
0.029171141471741
 50
308.4427532749106717
 51
48.1469965107775124
  0
LINE
  5
1A325
  8
0
 10
3410.8153933216931364
 20
194.9709610006152047
 30
0.0
 11
3410.8251499946668446
 21
195.0313454801477917
 31
0.0
  0
ARC
  5
1A326
  8
0
 10
3411.0730911783939519
 20
194.9138561397242881
 30
0.0
 40
0.0102232792820635
 50
110.9236118895567955
 51
219.8338652021872122
  0
ARC
  5
1A327
  8
0
 10
3411.0944734089111989
 20
194.9316925643109073
 30
0.0
 40
0.0380681679321529
 50
219.8338652021884911
 51
286.3774697316845277
  0
ARC
  5
1A328
  8
0
 10
3411.1019702052499269
 20
194.9061836057375956
 30
0.0
 40
0.0114804090412692
 50
286.3774697316845277
 51
32.3804105243224214
  0
ARC
  5
1A329
  8
0
 10
3411.0825783384671013
 20
194.8874600486163899
 30
0.0
 40
0.0382709979693845
 50
40.5329435584729296
 51
110.0775685415546974
  0
ARC
  5
1A32A
  8
0
 10
3411.0520452077248592
 20
194.9256879930555897
 30
0.0
 40
0.0278277611967817
 50
123.4959626459029067
 51
221.9568112345355928
  0
ARC
  5
1A32B
  8
0
 10
3411.0998021439581862
 20
194.9629091152750107
 30
0.0
 40
0.0883293699154341
 50
219.1993180164608077
 51
293.846475108684217
  0
ARC
  5
1A32C
  8
0
 10
3411.121939231226861
 20
194.9089458578274048
 30
0.0
 40
0.0300640914076377
 50
296.8387251171466801
 51
35.5147475015145773
  0
ARC
  5
1A32D
  8
0
 10
3411.0770342124601484
 20
194.8668188864450883
 30
0.0
 40
0.0914560481217059
 50
40.6613664384212186
 51
116.1777705275666932
  0
LINE
  5
1A32E
  8
0
 10
3411.0242848087791572
 20
194.9276230753737877
 30
0.0
 11
3411.019001631294941
 21
194.9940358592162966
 31
0.0
  0
ARC
  5
1A32F
  8
0
 10
3411.0406335815159764
 20
194.9766906948582914
 30
0.0
 40
0.0277271707354273
 50
138.0625865478235141
 51
227.820385373451586
  0
ARC
  5
1A330
  8
0
 10
3411.0697637482571736
 20
194.9143984542249086
 30
0.0
 40
0.0949102752243234
 50
71.8551023363055776
 51
121.6170672381314972
  0
ARC
  5
1A331
  8
0
 10
3411.0751991434967749
 20
194.8956653762934934
 30
0.0
 40
0.1115626171787395
 50
43.109095863334133
 51
77.5130961225025601
  0
ARC
  5
1A332
  8
0
 10
3411.1371822337127924
 20
194.9501777279481871
 30
0.0
 40
0.029171141471741
 50
308.4427532749106717
 51
48.1469965107775124
  0
LINE
  5
1A333
  8
0
 10
3411.1518347452929447
 20
194.9057665763153011
 30
0.0
 11
3411.1615914182671077
 21
194.9661510558478028
 31
0.0
  0
ARC
  5
1A334
  8
0
 10
3410.8648173407941613
 20
194.7378257289242924
 30
0.0
 40
0.0102232792820635
 50
110.9236118895567955
 51
219.8338652021872122
  0
ARC
  5
1A335
  8
0
 10
3410.8861995713118631
 20
194.7556621535109116
 30
0.0
 40
0.0380681679321529
 50
219.8338652021884911
 51
286.3774697316845277
  0
ARC
  5
1A336
  8
0
 10
3410.8936963676501364
 20
194.7301531949375999
 30
0.0
 40
0.0114804090412692
 50
286.3774697316845277
 51
32.3804105243224214
  0
ARC
  5
1A337
  8
0
 10
3410.874304500866856
 20
194.7114296378163942
 30
0.0
 40
0.0382709979693845
 50
40.5329435584729296
 51
110.0775685415546974
  0
ARC
  5
1A338
  8
0
 10
3410.8437713701259781
 20
194.7496575822557077
 30
0.0
 40
0.0278277611967817
 50
123.4959626459029067
 51
221.9568112345355928
  0
ARC
  5
1A339
  8
0
 10
3410.8915283063588504
 20
194.7868787044751002
 30
0.0
 40
0.0883293699154341
 50
219.1993180164608077
 51
293.846475108684217
  0
ARC
  5
1A33A
  8
0
 10
3410.9136653936270704
 20
194.7329154470274091
 30
0.0
 40
0.0300640914076377
 50
296.8387251171466801
 51
35.5147475015145773
  0
ARC
  5
1A33B
  8
0
 10
3410.8687603748589936
 20
194.6907884756450926
 30
0.0
 40
0.0914560481217059
 50
40.6613664384212186
 51
116.1777705275666932
  0
LINE
  5
1A33C
  8
0
 10
3410.8160109711798214
 20
194.751592664573792
 30
0.0
 11
3410.8107277936951505
 21
194.8180054484163009
 31
0.0
  0
ARC
  5
1A33D
  8
0
 10
3410.8323597439161858
 20
194.8006602840582957
 30
0.0
 40
0.0277271707354273
 50
138.0625865478235141
 51
227.820385373451586
  0
ARC
  5
1A33E
  8
0
 10
3410.8614899106578378
 20
194.7383680434249129
 30
0.0
 40
0.0949102752243234
 50
71.8551023363055776
 51
121.6170672381314972
  0
ARC
  5
1A33F
  8
0
 10
3410.8669253058969844
 20
194.7196349654934977
 30
0.0
 40
0.1115626171787395
 50
43.109095863334133
 51
77.5130961225025601
  0
ARC
  5
1A340
  8
0
 10
3410.9289083961139113
 20
194.7741473171481914
 30
0.0
 40
0.029171141471741
 50
308.4427532749106717
 51
48.1469965107775124
  0
LINE
  5
1A341
  8
0
 10
3410.9435609076931541
 20
194.7297361655151917
 30
0.0
 11
3410.9533175806668623
 21
194.7901206450478071
 31
0.0
  0
ARC
  5
1A342
  8
0
 10
3410.5330968322941771
 20
194.6770470899242866
 30
0.0
 40
0.0102232792820635
 50
110.9236118895567955
 51
219.8338652021872122
  0
ARC
  5
1A343
  8
0
 10
3410.554479062811879
 20
194.6948835145109058
 30
0.0
 40
0.0380681679321529
 50
219.8338652021884911
 51
286.3774697316845277
  0
ARC
  5
1A344
  8
0
 10
3410.5619758591501522
 20
194.6693745559375941
 30
0.0
 40
0.0114804090412692
 50
286.3774697316845277
 51
32.3804105243224214
  0
ARC
  5
1A345
  8
0
 10
3410.5425839923659623
 20
194.6506509988163884
 30
0.0
 40
0.0382709979693845
 50
40.5329435584729296
 51
110.0775685415546974
  0
ARC
  5
1A346
  8
0
 10
3410.5120508616250845
 20
194.6888789432555882
 30
0.0
 40
0.0278277611967817
 50
123.4959626459029067
 51
221.9568112345355928
  0
ARC
  5
1A347
  8
0
 10
3410.5598077978588663
 20
194.7261000654750092
 30
0.0
 40
0.0883293699154341
 50
219.1993180164608077
 51
293.846475108684217
  0
ARC
  5
1A348
  8
0
 10
3410.5819448851270863
 20
194.6721368080274033
 30
0.0
 40
0.0300640914076377
 50
296.8387251171466801
 51
35.5147475015145773
  0
ARC
  5
1A349
  8
0
 10
3410.5370398663590095
 20
194.6300098366450868
 30
0.0
 40
0.0914560481217059
 50
40.6613664384212186
 51
116.1777705275666932
  0
LINE
  5
1A34A
  8
0
 10
3410.4842904626789277
 20
194.6908140255737862
 30
0.0
 11
3410.4790072851951663
 21
194.7572268094162951
 31
0.0
  0
ARC
  5
1A34B
  8
0
 10
3410.5006392354162017
 20
194.7398816450582899
 30
0.0
 40
0.0277271707354273
 50
138.0625865478235141
 51
227.820385373451586
  0
ARC
  5
1A34C
  8
0
 10
3410.5297694021569441
 20
194.6775894044249071
 30
0.0
 40
0.0949102752243234
 50
71.8551023363055776
 51
121.6170672381314972
  0
ARC
  5
1A34D
  8
0
 10
3410.5352047973979097
 20
194.6588563264934919
 30
0.0
 40
0.1115626171787395
 50
43.109095863334133
 51
77.5130961225025601
  0
ARC
  5
1A34E
  8
0
 10
3410.5971878876139272
 20
194.713368678148214
 30
0.0
 40
0.029171141471741
 50
308.4427532749106717
 51
48.1469965107775124
  0
LINE
  5
1A34F
  8
0
 10
3410.6118403991918058
 20
194.6689575265151859
 30
0.0
 11
3410.6215970721668782
 21
194.7293420060478013
 31
0.0
  0
ARC
  5
1A350
  8
0
 10
3410.8166517537438267
 20
194.5217500988242989
 30
0.0
 40
0.0102232792820635
 50
110.9236118895567955
 51
219.8338652021872122
  0
ARC
  5
1A351
  8
0
 10
3410.8380339842619833
 20
194.5395865234108896
 30
0.0
 40
0.0380681679321529
 50
219.8338652021884911
 51
286.3774697316845277
  0
ARC
  5
1A352
  8
0
 10
3410.8455307805998018
 20
194.5140775648376064
 30
0.0
 40
0.0114804090412692
 50
286.3774697316845277
 51
32.3804105243224214
  0
ARC
  5
1A353
  8
0
 10
3410.8261389138169761
 20
194.4953540077164007
 30
0.0
 40
0.0382709979693845
 50
40.5329435584729296
 51
110.0775685415546974
  0
ARC
  5
1A354
  8
0
 10
3410.7956057830751888
 20
194.5335819521556004
 30
0.0
 40
0.0278277611967817
 50
123.4959626459029067
 51
221.9568112345355928
  0
ARC
  5
1A355
  8
0
 10
3410.8433627193089706
 20
194.5708030743751067
 30
0.0
 40
0.0883293699154341
 50
219.1993180164608077
 51
293.846475108684217
  0
ARC
  5
1A356
  8
0
 10
3410.8654998065771906
 20
194.5168398169273871
 30
0.0
 40
0.0300640914076377
 50
296.8387251171466801
 51
35.5147475015145773
  0
ARC
  5
1A357
  8
0
 10
3410.8205947878091138
 20
194.4747128455450991
 30
0.0
 40
0.0914560481217059
 50
40.6613664384212186
 51
116.1777705275666932
  0
LINE
  5
1A358
  8
0
 10
3410.7678453841299415
 20
194.5355170344737985
 30
0.0
 11
3410.7625622066448159
 21
194.6019298183163073
 31
0.0
  0
ARC
  5
1A359
  8
0
 10
3410.7841941568672155
 20
194.5845846539583022
 30
0.0
 40
0.0277271707354273
 50
138.0625865478235141
 51
227.820385373451586
  0
ARC
  5
1A35A
  8
0
 10
3410.8133243236079579
 20
194.522292413324891
 30
0.0
 40
0.0949102752243234
 50
71.8551023363055776
 51
121.6170672381314972
  0
ARC
  5
1A35B
  8
0
 10
3410.8187597188471045
 20
194.5035593353935042
 30
0.0
 40
0.1115626171787395
 50
43.109095863334133
 51
77.5130961225025601
  0
ARC
  5
1A35C
  8
0
 10
3410.880742809063122
 20
194.5580716870481979
 30
0.0
 40
0.029171141471741
 50
308.4427532749106717
 51
48.1469965107775124
  0
LINE
  5
1A35D
  8
0
 10
3410.8953953206419101
 20
194.5136605354153119
 30
0.0
 11
3410.9051519936169825
 21
194.5740450149478136
 31
0.0
  0
ARC
  5
1A35E
  8
0
 10
3410.951479680493776
 20
194.32052100822429
 30
0.0
 40
0.0102232792820635
 50
110.9236118895567955
 51
219.8338652021872122
  0
ARC
  5
1A35F
  8
0
 10
3410.9728619110119325
 20
194.3383574328109091
 30
0.0
 40
0.0380681679321529
 50
219.8338652021884911
 51
286.3774697316845277
  0
ARC
  5
1A360
  8
0
 10
3410.9803587073502058
 20
194.3128484742375974
 30
0.0
 40
0.0114804090412692
 50
286.3774697316845277
 51
32.3804105243224214
  0
ARC
  5
1A361
  8
0
 10
3410.9609668405669254
 20
194.2941249171163918
 30
0.0
 40
0.0382709979693845
 50
40.5329435584729296
 51
110.0775685415546974
  0
ARC
  5
1A362
  8
0
 10
3410.9304337098260476
 20
194.3323528615555915
 30
0.0
 40
0.0278277611967817
 50
123.4959626459029067
 51
221.9568112345355928
  0
ARC
  5
1A363
  8
0
 10
3410.9781906460589198
 20
194.3695739837750978
 30
0.0
 40
0.0883293699154341
 50
219.1993180164608077
 51
293.846475108684217
  0
ARC
  5
1A364
  8
0
 10
3411.0003277333271399
 20
194.3156107263274066
 30
0.0
 40
0.0300640914076377
 50
296.8387251171466801
 51
35.5147475015145773
  0
ARC
  5
1A365
  8
0
 10
3410.9554227145599725
 20
194.2734837549450901
 30
0.0
 40
0.0914560481217059
 50
40.6613664384212186
 51
116.1777705275666932
  0
LINE
  5
1A366
  8
0
 10
3410.9026733108789813
 20
194.3342879438737896
 30
0.0
 11
3410.8973901333952199
 21
194.4007007277162984
 31
0.0
  0
ARC
  5
1A367
  8
0
 10
3410.9190220836158005
 20
194.3833555633582932
 30
0.0
 40
0.0277271707354273
 50
138.0625865478235141
 51
227.820385373451586
  0
ARC
  5
1A368
  8
0
 10
3410.9481522503569977
 20
194.3210633227249104
 30
0.0
 40
0.0949102752243234
 50
71.8551023363055776
 51
121.6170672381314972
  0
ARC
  5
1A369
  8
0
 10
3410.9535876455970538
 20
194.3023302447934952
 30
0.0
 40
0.1115626171787395
 50
43.109095863334133
 51
77.5130961225025601
  0
ARC
  5
1A36A
  8
0
 10
3411.0155707358139807
 20
194.3568425964481889
 30
0.0
 40
0.029171141471741
 50
308.4427532749106717
 51
48.1469965107775124
  0
LINE
  5
1A36B
  8
0
 10
3411.0302232473932236
 20
194.3124314448151893
 30
0.0
 11
3411.0399799203669318
 21
194.3728159243478046
 31
0.0
  0
ARC
  5
1A36C
  8
0
 10
3410.9221234383981027
 20
194.0960694569523071
 30
0.0
 40
0.0102232792820635
 50
110.9236118895567955
 51
219.8338652021872122
  0
ARC
  5
1A36D
  8
0
 10
3410.9435056689148951
 20
194.1139058815388978
 30
0.0
 40
0.0380681679321529
 50
219.8338652021884911
 51
286.3774697316845277
  0
ARC
  5
1A36E
  8
0
 10
3410.9510024652540778
 20
194.0883969229655861
 30
0.0
 40
0.0114804090412692
 50
286.3774697316845277
 51
32.3804105243224214
  0
ARC
  5
1A36F
  8
0
 10
3410.9316105984707974
 20
194.0696733658444089
 30
0.0
 40
0.0382709979693845
 50
40.5329435584729296
 51
110.0775685415546974
  0
ARC
  5
1A370
  8
0
 10
3410.9010774677290101
 20
194.1079013102836939
 30
0.0
 40
0.0278277611967817
 50
123.4959626459029067
 51
221.9568112345355928
  0
ARC
  5
1A371
  8
0
 10
3410.9488344039627918
 20
194.1451224325030864
 30
0.0
 40
0.0883293699154341
 50
219.1993180164608077
 51
293.846475108684217
  0
ARC
  5
1A372
  8
0
 10
3410.9709714912310119
 20
194.091159175055509
 30
0.0
 40
0.0300640914076377
 50
296.8387251171466801
 51
35.5147475015145773
  0
ARC
  5
1A373
  8
0
 10
3410.9260664724629351
 20
194.0490322036731925
 30
0.0
 40
0.0914560481217059
 50
40.6613664384212186
 51
116.1777705275666932
  0
LINE
  5
1A374
  8
0
 10
3410.8733170687842176
 20
194.1098363926018067
 30
0.0
 11
3410.8680338912990919
 21
194.1762491764444007
 31
0.0
  0
ARC
  5
1A375
  8
0
 10
3410.8896658415210368
 20
194.1589040120863956
 30
0.0
 40
0.0277271707354273
 50
138.0625865478235141
 51
227.820385373451586
  0
ARC
  5
1A376
  8
0
 10
3410.9187960082617792
 20
194.0966117714530128
 30
0.0
 40
0.0949102752243234
 50
71.8551023363055776
 51
121.6170672381314972
  0
ARC
  5
1A377
  8
0
 10
3410.9242314035009258
 20
194.0778786935215123
 30
0.0
 40
0.1115626171787395
 50
43.109095863334133
 51
77.5130961225025601
  0
ARC
  5
1A378
  8
0
 10
3410.9862144937178527
 20
194.1323910451762913
 30
0.0
 40
0.029171141471741
 50
308.4427532749106717
 51
48.1469965107775124
  0
LINE
  5
1A379
  8
0
 10
3411.0008670052961861
 20
194.0879798935432916
 30
0.0
 11
3411.0106236782708038
 21
194.148364373075907
 31
0.0
  0
ARC
  5
1A37A
  8
0
 10
3411.2269988962948446
 20
194.1970739986242904
 30
0.0
 40
0.0102232792820635
 50
110.9236118895567955
 51
219.8338652021872122
  0
ARC
  5
1A37B
  8
0
 10
3411.2483811268111822
 20
194.2149104232109096
 30
0.0
 40
0.0380681679321529
 50
219.8338652021884911
 51
286.3774697316845277
  0
ARC
  5
1A37C
  8
0
 10
3411.2558779231499102
 20
194.1894014646375979
 30
0.0
 40
0.0114804090412692
 50
286.3774697316845277
 51
32.3804105243224214
  0
ARC
  5
1A37D
  8
0
 10
3411.2364860563670845
 20
194.1706779075163922
 30
0.0
 40
0.0382709979693845
 50
40.5329435584729296
 51
110.0775685415546974
  0
ARC
  5
1A37E
  8
0
 10
3411.2059529256262067
 20
194.208905851955592
 30
0.0
 40
0.0278277611967817
 50
123.4959626459029067
 51
221.9568112345355928
  0
ARC
  5
1A37F
  8
0
 10
3411.253709861859079
 20
194.2461269741750129
 30
0.0
 40
0.0883293699154341
 50
219.1993180164608077
 51
293.846475108684217
  0
ARC
  5
1A380
  8
0
 10
3411.2758469491268443
 20
194.1921637167274071
 30
0.0
 40
0.0300640914076377
 50
296.8387251171466801
 51
35.5147475015145773
  0
ARC
  5
1A381
  8
0
 10
3411.2309419303592222
 20
194.1500367453452043
 30
0.0
 40
0.0914560481217059
 50
40.6613664384212186
 51
116.1777705275666932
  0
LINE
  5
1A382
  8
0
 10
3411.1781925266800499
 20
194.21084093427379
 30
0.0
 11
3411.1729093491958338
 21
194.2772537181162988
 31
0.0
  0
ARC
  5
1A383
  8
0
 10
3411.1945412994168692
 20
194.2599085537582937
 30
0.0
 40
0.0277271707354273
 50
138.0625865478235141
 51
227.820385373451586
  0
ARC
  5
1A384
  8
0
 10
3411.2236714661580663
 20
194.1976163131249962
 30
0.0
 40
0.0949102752243234
 50
71.8551023363055776
 51
121.6170672381314972
  0
ARC
  5
1A385
  8
0
 10
3411.2291068613972129
 20
194.1788832351934957
 30
0.0
 40
0.1115626171787395
 50
43.109095863334133
 51
77.5130961225025601
  0
ARC
  5
1A386
  8
0
 10
3411.2910899516127756
 20
194.2333955868481894
 30
0.0
 40
0.029171141471741
 50
308.4427532749106717
 51
48.1469965107775124
  0
LINE
  5
1A387
  8
0
 10
3411.305742463192928
 20
194.1889844352153034
 30
0.0
 11
3411.3154991361670909
 21
194.2493689147478051
 31
0.0
  0
ARC
  5
1A388
  8
0
 10
3410.6076622077939646
 20
193.8288209060742986
 30
0.0
 40
0.0102232792820635
 50
110.9236118895567955
 51
219.8338652021872122
  0
ARC
  5
1A389
  8
0
 10
3410.6290444383112117
 20
193.8466573306608893
 30
0.0
 40
0.0380681679321529
 50
219.8338652021884911
 51
286.3774697316845277
  0
ARC
  5
1A38A
  8
0
 10
3410.6365412346499397
 20
193.821148372087606
 30
0.0
 40
0.0114804090412692
 50
286.3774697316845277
 51
32.3804105243224214
  0
ARC
  5
1A38B
  8
0
 10
3410.6171493678671141
 20
193.8024248149664004
 30
0.0
 40
0.0382709979693845
 50
40.5329435584729296
 51
110.0775685415546974
  0
ARC
  5
1A38C
  8
0
 10
3410.5866162371257815
 20
193.8406527594056001
 30
0.0
 40
0.0278277611967817
 50
123.4959626459029067
 51
221.9568112345355928
  0
ARC
  5
1A38D
  8
0
 10
3410.6343731733591085
 20
193.8778738816249927
 30
0.0
 40
0.0883293699154341
 50
219.1993180164608077
 51
293.846475108684217
  0
ARC
  5
1A38E
  8
0
 10
3410.6565102606268738
 20
193.8239106241773868
 30
0.0
 40
0.0300640914076377
 50
296.8387251171466801
 51
35.5147475015145773
  0
ARC
  5
1A38F
  8
0
 10
3410.6116052418601612
 20
193.7817836527950988
 30
0.0
 40
0.0914560481217059
 50
40.6613664384212186
 51
116.1777705275666932
  0
LINE
  5
1A390
  8
0
 10
3410.5588558381800794
 20
193.8425878417237982
 30
0.0
 11
3410.5535726606949538
 21
193.909000625566307
 31
0.0
  0
ARC
  5
1A391
  8
0
 10
3410.5752046109159892
 20
193.8916554612083019
 30
0.0
 40
0.0277271707354273
 50
138.0625865478235141
 51
227.820385373451586
  0
ARC
  5
1A392
  8
0
 10
3410.6043347776580958
 20
193.8293632205748906
 30
0.0
 40
0.0949102752243234
 50
71.8551023363055776
 51
121.6170672381314972
  0
ARC
  5
1A393
  8
0
 10
3410.6097701728967877
 20
193.8106301426435039
 30
0.0
 40
0.1115626171787395
 50
43.109095863334133
 51
77.5130961225025601
  0
ARC
  5
1A394
  8
0
 10
3410.6717532631128051
 20
193.8651424942981976
 30
0.0
 40
0.029171141471741
 50
308.4427532749106717
 51
48.1469965107775124
  0
LINE
  5
1A395
  8
0
 10
3410.6864057746929575
 20
193.8207313426653116
 30
0.0
 11
3410.6961624476671204
 21
193.8811158221978133
 31
0.0
  0
ARC
  5
1A396
  8
0
 10
3410.0813922594438736
 20
193.9393559935242877
 30
0.0
 40
0.0102232792820635
 50
110.9236118895567955
 51
219.8338652021872122
  0
ARC
  5
1A397
  8
0
 10
3410.1027744899611207
 20
193.9571924181109068
 30
0.0
 40
0.0380681679321529
 50
219.8338652021884911
 51
286.3774697316845277
  0
ARC
  5
1A398
  8
0
 10
3410.1102712862998487
 20
193.9316834595375951
 30
0.0
 40
0.0114804090412692
 50
286.3774697316845277
 51
32.3804105243224214
  0
ARC
  5
1A399
  8
0
 10
3410.0908794195170231
 20
193.9129599024163895
 30
0.0
 40
0.0382709979693845
 50
40.5329435584729296
 51
110.0775685415546974
  0
ARC
  5
1A39A
  8
0
 10
3410.060346288774781
 20
193.9511878468555892
 30
0.0
 40
0.0278277611967817
 50
123.4959626459029067
 51
221.9568112345355928
  0
ARC
  5
1A39B
  8
0
 10
3410.108103225009927
 20
193.9884089690750102
 30
0.0
 40
0.0883293699154341
 50
219.1993180164608077
 51
293.846475108684217
  0
ARC
  5
1A39C
  8
0
 10
3410.1302403122767828
 20
193.9344457116274043
 30
0.0
 40
0.0300640914076377
 50
296.8387251171466801
 51
35.5147475015145773
  0
ARC
  5
1A39D
  8
0
 10
3410.0853352935091607
 20
193.8923187402450878
 30
0.0
 40
0.0914560481217059
 50
40.6613664384212186
 51
116.1777705275666932
  0
LINE
  5
1A39E
  8
0
 10
3410.0325858898299884
 20
193.9531229291737873
 30
0.0
 11
3410.0273027123448628
 21
194.0195357130162961
 31
0.0
  0
ARC
  5
1A39F
  8
0
 10
3410.0489346625668077
 20
194.0021905486582909
 30
0.0
 40
0.0277271707354273
 50
138.0625865478235141
 51
227.820385373451586
  0
ARC
  5
1A3A0
  8
0
 10
3410.0780648293080048
 20
193.9398983080249081
 30
0.0
 40
0.0949102752243234
 50
71.8551023363055776
 51
121.6170672381314972
  0
ARC
  5
1A3A1
  8
0
 10
3410.0835002245480609
 20
193.9211652300934929
 30
0.0
 40
0.1115626171787395
 50
43.109095863334133
 51
77.5130961225025601
  0
ARC
  5
1A3A2
  8
0
 10
3410.1454833147640784
 20
193.9756775817481866
 30
0.0
 40
0.029171141471741
 50
308.4427532749106717
 51
48.1469965107775124
  0
LINE
  5
1A3A3
  8
0
 10
3410.160135826341957
 20
193.9312664301151869
 30
0.0
 11
3410.1698924993170294
 21
193.9916509096478023
 31
0.0
  0
ARC
  5
1A3A4
  8
0
 10
3410.8996286383930965
 20
193.5903475692209099
 30
0.0
 40
0.0102232792820635
 50
110.9236118895567955
 51
219.8338652021872122
  0
ARC
  5
1A3A5
  8
0
 10
3410.9210108689107983
 20
193.6081839938075859
 30
0.0
 40
0.0380681679321529
 50
219.8338652021884911
 51
286.3774697316845277
  0
ARC
  5
1A3A6
  8
0
 10
3410.9285076652499811
 20
193.5826750352343026
 30
0.0
 40
0.0114804090412692
 50
286.3774697316845277
 51
32.3804105243224214
  0
ARC
  5
1A3A7
  8
0
 10
3410.9091157984671554
 20
193.5639514781130117
 30
0.0
 40
0.0382709979693845
 50
40.5329435584729296
 51
110.0775685415546974
  0
ARC
  5
1A3A8
  8
0
 10
3410.8785826677258228
 20
193.6021794225522967
 30
0.0
 40
0.0278277611967817
 50
123.4959626459029067
 51
221.9568112345355928
  0
ARC
  5
1A3A9
  8
0
 10
3410.9263396039591498
 20
193.6394005447716893
 30
0.0
 40
0.0883293699154341
 50
219.1993180164608077
 51
293.846475108684217
  0
ARC
  5
1A3AA
  8
0
 10
3410.9484766912269151
 20
193.5854372873241118
 30
0.0
 40
0.0300640914076377
 50
296.8387251171466801
 51
35.5147475015145773
  0
ARC
  5
1A3AB
  8
0
 10
3410.9035716724588383
 20
193.5433103159417954
 30
0.0
 40
0.0914560481217059
 50
40.6613664384212186
 51
116.1777705275666932
  0
LINE
  5
1A3AC
  8
0
 10
3410.8508222687801208
 20
193.6041145048704948
 30
0.0
 11
3410.8455390912940857
 21
193.6705272887130036
 31
0.0
  0
ARC
  5
1A3AD
  8
0
 10
3410.8671710415160305
 20
193.6531821243549985
 30
0.0
 40
0.0277271707354273
 50
138.0625865478235141
 51
227.820385373451586
  0
ARC
  5
1A3AE
  8
0
 10
3410.8963012082581372
 20
193.5908898837215872
 30
0.0
 40
0.0949102752243234
 50
71.8551023363055776
 51
121.6170672381314972
  0
ARC
  5
1A3AF
  8
0
 10
3410.901736603496829
 20
193.5721568057902005
 30
0.0
 40
0.1115626171787395
 50
43.109095863334133
 51
77.5130961225025601
  0
ARC
  5
1A3B0
  8
0
 10
3410.9637196937128465
 20
193.6266691574448942
 30
0.0
 40
0.029171141471741
 50
308.4427532749106717
 51
48.1469965107775124
  0
LINE
  5
1A3B1
  8
0
 10
3410.9783722052920893
 20
193.5822580058120082
 30
0.0
 11
3410.9881288782671618
 21
193.6426424853445099
 31
0.0
  0
ARC
  5
1A3B2
  8
0
 10
3410.2372086422460598
 20
194.5149030872418905
 30
0.0
 40
0.0158605807137526
 50
112.9966161537301019
 51
215.760581503819509
  0
ARC
  5
1A3B3
  8
0
 10
3410.2661059823922187
 20
194.5439719768700115
 30
0.0
 40
0.0566950177214783
 50
222.5482772202661863
 51
293.5268025488704211
  0
ARC
  5
1A3B4
  8
0
 10
3410.2842794308089651
 20
194.5073418171647006
 30
0.0
 40
0.0159861554976066
 50
286.1923909850556811
 51
27.5553969136943095
  0
ARC
  5
1A3B5
  8
0
 10
3410.2556474452198927
 20
194.4806279756647882
 30
0.0
 40
0.0547327900958636
 50
38.5497365312722096
 51
116.7500232293591012
  0
ARC
  5
1A3B6
  8
0
 10
3410.194503086945133
 20
194.5284520318396915
 30
0.0
 40
0.0486730783452054
 50
118.7114519875741934
 51
220.8421640180652048
  0
ARC
  5
1A3B7
  8
0
 10
3410.273590194614826
 20
194.6032443047303104
 30
0.0
 40
0.1574910575545338
 50
222.6106065000012109
 51
297.4344456290330072
  0
ARC
  5
1A3B8
  8
0
 10
3410.3225193382299949
 20
194.5105002783041925
 30
0.0
 40
0.0526384696859408
 50
296.6765967294072084
 51
29.4459166379615489
  0
ARC
  5
1A3B9
  8
0
 10
3410.2481838940439047
 20
194.4314598119937045
 30
0.0
 40
0.1595290558649843
 50
41.1224901072995621
 51
118.885935083561904
  0
LINE
  5
1A3BA
  8
0
 10
3410.1458303144258934
 20
194.5286245742842937
 30
0.0
 11
3410.1416990514239842
 21
194.5717429512205001
 31
0.0
  0
ARC
  5
1A3BB
  8
0
 10
3410.1806771116839627
 20
194.5567533646641039
 30
0.0
 40
0.0417609493044361
 50
150.9454358107973917
 51
211.9808292229307085
  0
ARC
  5
1A3BC
  8
0
 10
3410.236639643620947
 20
194.491614741469391
 30
0.0
 40
0.1258843011852876
 50
88.1936762112714234
 51
137.2691183767273913
  0
ARC
  5
1A3BD
  8
0
 10
3410.2520166663321106
 20
194.4543567212720063
 30
0.0
 40
0.1634783664592842
 50
43.5085049808335782
 51
94.0018760574370731
  0
ARC
  5
1A3BE
  8
0
 10
3410.3351547778161148
 20
194.5349478702785859
 30
0.0
 40
0.0477120670867652
 50
326.9211588268256037
 51
42.051616435691507
  0
LINE
  5
1A3BF
  8
0
 10
3410.375140112661029
 20
194.5091355112245992
 30
0.0
 11
3410.3787239328507894
 21
194.5543944657464976
 31
0.0
  0
ARC
  5
1A3C0
  8
0
 10
3410.3322924368771965
 20
194.9480063646394115
 30
0.0
 40
0.0158605807137526
 50
112.9966161537301019
 51
215.760581503819509
  0
ARC
  5
1A3C1
  8
0
 10
3410.3611897770219912
 20
194.9770752542675041
 30
0.0
 40
0.0566950177214783
 50
222.5482772202661863
 51
293.5268025488704211
  0
ARC
  5
1A3C2
  8
0
 10
3410.3793632254401018
 20
194.9404450945623068
 30
0.0
 40
0.0159861554976066
 50
286.1923909850556811
 51
27.5553969136943095
  0
ARC
  5
1A3C3
  8
0
 10
3410.3507312398501199
 20
194.9137312530623092
 30
0.0
 40
0.0547327900958636
 50
38.5497365312722096
 51
116.7500232293591012
  0
ARC
  5
1A3C4
  8
0
 10
3410.2895868815758149
 20
194.9615553092372124
 30
0.0
 40
0.0486730783452054
 50
118.7114519875741934
 51
220.8421640180652048
  0
ARC
  5
1A3C5
  8
0
 10
3410.3686739892450532
 20
195.0363475821278882
 30
0.0
 40
0.1574910575545338
 50
222.6106065000012109
 51
297.4344456290330072
  0
ARC
  5
1A3C6
  8
0
 10
3410.4176031328611316
 20
194.9436035557017135
 30
0.0
 40
0.0526384696859408
 50
296.6765967294072084
 51
29.4459166379615489
  0
ARC
  5
1A3C7
  8
0
 10
3410.3432676886741319
 20
194.8645630893913108
 30
0.0
 40
0.1595290558649843
 50
41.1224901072995621
 51
118.885935083561904
  0
LINE
  5
1A3C8
  8
0
 10
3410.2409141090561207
 20
194.9617278516817862
 30
0.0
 11
3410.2367828460542114
 21
195.0048462286181064
 31
0.0
  0
ARC
  5
1A3C9
  8
0
 10
3410.2757609063141899
 20
194.9898566420615964
 30
0.0
 40
0.0417609493044361
 50
150.9454358107973917
 51
211.9808292229307085
  0
ARC
  5
1A3CA
  8
0
 10
3410.3317234382520837
 20
194.9247180188669972
 30
0.0
 40
0.1258843011852876
 50
88.1936762112714234
 51
137.2691183767273913
  0
ARC
  5
1A3CB
  8
0
 10
3410.3471004609618831
 20
194.8874599986696126
 30
0.0
 40
0.1634783664592842
 50
43.5085049808335782
 51
94.0018760574370731
  0
ARC
  5
1A3CC
  8
0
 10
3410.4302385724458873
 20
194.9680511476761922
 30
0.0
 40
0.0477120670867652
 50
326.9211588268256037
 51
42.051616435691507
  0
LINE
  5
1A3CD
  8
0
 10
3410.4702239072908014
 20
194.9422387886222054
 30
0.0
 11
3410.4738077274801071
 21
194.9874977431441039
 31
0.0
  0
ARC
  5
1A3CE
  8
0
 10
3410.7549385188999622
 20
195.2955300805035961
 30
0.0
 40
0.0158605807137526
 50
112.9966161537301019
 51
215.760581503819509
  0
ARC
  5
1A3CF
  8
0
 10
3410.7838358590452117
 20
195.3245989701316887
 30
0.0
 40
0.0566950177214783
 50
222.5482772202661863
 51
293.5268025488704211
  0
ARC
  5
1A3D0
  8
0
 10
3410.8020093074619581
 20
195.2879688104264062
 30
0.0
 40
0.0159861554976066
 50
286.1923909850556811
 51
27.5553969136943095
  0
ARC
  5
1A3D1
  8
0
 10
3410.7733773218728857
 20
195.2612549689264938
 30
0.0
 40
0.0547327900958636
 50
38.5497365312722096
 51
116.7500232293591012
  0
ARC
  5
1A3D2
  8
0
 10
3410.7122329635990354
 20
195.3090790251013971
 30
0.0
 40
0.0486730783452054
 50
118.7114519875741934
 51
220.8421640180652048
  0
ARC
  5
1A3D3
  8
0
 10
3410.7913200712669095
 20
195.3838712979919876
 30
0.0
 40
0.1574910575545338
 50
222.6106065000012109
 51
297.4344456290330072
  0
ARC
  5
1A3D4
  8
0
 10
3410.8402492148838974
 20
195.2911272715658981
 30
0.0
 40
0.0526384696859408
 50
296.6765967294072084
 51
29.4459166379615489
  0
ARC
  5
1A3D5
  8
0
 10
3410.7659137706968977
 20
195.2120868052554954
 30
0.0
 40
0.1595290558649843
 50
41.1224901072995621
 51
118.885935083561904
  0
LINE
  5
1A3D6
  8
0
 10
3410.6635601910797959
 20
195.3092515675459993
 30
0.0
 11
3410.6594289280769772
 21
195.3523699444822057
 31
0.0
  0
ARC
  5
1A3D7
  8
0
 10
3410.6984069883378652
 20
195.3373803579258094
 30
0.0
 40
0.0417609493044361
 50
150.9454358107973917
 51
211.9808292229307085
  0
ARC
  5
1A3D8
  8
0
 10
3410.7543695202748495
 20
195.2722417347312103
 30
0.0
 40
0.1258843011852876
 50
88.1936762112714234
 51
137.2691183767273913
  0
ARC
  5
1A3D9
  8
0
 10
3410.7697465429841941
 20
195.2349837145337972
 30
0.0
 40
0.1634783664592842
 50
43.5085049808335782
 51
94.0018760574370731
  0
ARC
  5
1A3DA
  8
0
 10
3410.8528846544691078
 20
195.3155748635402915
 30
0.0
 40
0.0477120670867652
 50
326.9211588268256037
 51
42.051616435691507
  0
LINE
  5
1A3DB
  8
0
 10
3410.892869989314022
 20
195.2897625044863048
 30
0.0
 11
3410.8964538095037824
 21
195.3350214590082032
 31
0.0
  0
ARC
  5
1A3DC
  8
0
 10
3410.9553554902367978
 20
194.6535474420157072
 30
0.0
 40
1.8072864979527421
 50
105.3380114936057055
 51
156.3415394083023102
  0
ARC
  5
1A3DD
  8
0
 10
3410.3221236656540896
 20
195.0566580991018952
 30
0.0
 40
1.0717150252438989
 50
162.5082264967199137
 51
216.8650824042462943
  0
ARC
  5
1A3DE
  8
0
 10
3411.0742784357162236
 20
195.572516137044488
 30
0.0
 40
1.9833311972417671
 50
215.7519366821491928
 51
250.25866912042639
  0
ARC
  5
1A3DF
  8
0
 10
3411.3831187747241529
 20
196.279904498252904
 30
0.0
 40
2.7539489380800619
 50
261.1954028926485876
 51
265.5255686450677217
  0
ARC
  5
1A3E0
  8
0
 10
3411.3831187747241529
 20
196.279904498252904
 30
0.0
 40
2.7539489380800619
 50
249.1819225344372057
 51
259.1757346845291181
  0
ARC
  5
1A3E1
  8
0
 10
3411.1737036126191924
 20
193.3543621251637887
 30
0.0
 40
0.1800687396478911
 50
30.3930034444721002
 51
91.7286548695906987
  0
ARC
  5
1A3E2
  8
0
 10
3410.9800302715771068
 20
193.2788850004650101
 30
0.0
 40
0.3867129802064605
 50
2.1772739845313152
 51
25.5155611721517204
  0
ARC
  5
1A3E3
  8
0
 10
3408.7052470931598691
 20
191.7639369119904131
 30
0.0
 40
2.512569001340212
 50
46.4588041110303109
 51
54.6156636705573888
  0
ARC
  5
1A3E4
  8
0
 10
3409.6830391849671287
 20
192.7928321832507095
 30
0.0
 40
1.0931667137478001
 50
6.4438713951144306
 51
46.4588041110303109
  0
ARC
  5
1A3E5
  8
0
 10
3402.4228206297912038
 20
191.6982698744010065
 30
0.0
 40
8.4347734992697934
 50
359.5310771686584985
 51
8.2975037410234354
  0
ARC
  5
1A3E6
  8
0
 10
929.6518463872962457
 20
191.6551520512209095
 30
0.0
 40
2481.2054653900640915
 50
359.9317970585547073
 51
359.9994016035969935
  0
ARC
  5
1A3E7
  8
0
 10
3411.3203507739290217
 20
194.7394925170164868
 30
0.0
 40
0.0587901969203079
 50
33.8351448893327174
 51
153.8510943638852098
  0
ARC
  5
1A3E8
  8
0
 10
3411.3061192418290375
 20
194.764973373500311
 30
0.0
 40
0.0385439698075967
 50
179.3633042394114057
 51
217.2533578934487082
  0
ARC
  5
1A3E9
  8
0
 10
3411.4057002740260032
 20
194.8554318604834918
 30
0.0
 40
0.1729629684701101
 50
221.1391988309792112
 51
246.6269091540023055
  0
ARC
  5
1A3EA
  8
0
 10
3411.3430447295290833
 20
194.7084356154161071
 30
0.0
 40
0.0131969520655039
 50
243.1437326960410985
 51
317.8919925889949809
  0
ARC
  5
1A3EB
  8
0
 10
3411.233943083504073
 20
194.7759873467043974
 30
0.0
 40
0.1413238380243132
 50
327.2750152818650804
 51
342.4504926696134248
  0
ARC
  5
1A3EC
  8
0
 10
3411.3142198040200128
 20
194.7534979840864935
 30
0.0
 40
0.058068024409382
 50
339.7230247415898248
 51
18.8165629932833092
  0
ARC
  5
1A3ED
  8
0
 10
3411.3080355803358543
 20
194.7527772204421979
 30
0.0
 40
0.014826381039225
 50
125.3826300551502015
 51
228.3631552226445081
  0
ARC
  5
1A3EE
  8
0
 10
3411.3209674796048603
 20
194.7673239169556041
 30
0.0
 40
0.0342902038435752
 50
228.3631552226455881
 51
306.4511896682868723
  0
ARC
  5
1A3EF
  8
0
 10
3411.3333927174721794
 20
194.7523346367061094
 30
0.0
 40
0.0148909261053359
 50
302.2584301280572276
 51
40.8281621928055287
  0
ARC
  5
1A3F0
  8
0
 10
3411.3204066496400628
 20
194.7367981469687948
 30
0.0
 40
0.0350273678129937
 50
46.1780401724078331
 51
126.7465552884809057
  0
LINE
  5
1A3F1
  8
0
 10
3411.267582793980182
 20
194.7654121533180955
 30
0.0
 11
3411.2633821122472
 21
194.824001373831095
 31
0.0
  0
ARC
  5
1A3F2
  8
0
 10
3411.2897249437010032
 20
194.8064715693180062
 30
0.0
 40
0.032684784325279
 50
157.1273571026306968
 51
224.1451779299675877
  0
ARC
  5
1A3F3
  8
0
 10
3411.3192376113920545
 20
194.7764556174614086
 30
0.0
 40
0.0733514535201244
 50
93.5441417789351988
 51
144.380360999795414
  0
ARC
  5
1A3F4
  8
0
 10
3411.3166994479038294
 20
194.7678240979485906
 30
0.0
 40
0.0818670278359325
 50
42.6162138368413466
 51
91.3972350318511531
  0
ARC
  5
1A3F5
  8
0
 10
3411.3272324928639136
 20
194.7968847263396981
 30
0.0
 40
0.056274392710454
 50
324.5504544710101982
 51
27.94353397248166
  0
LINE
  5
1A3F6
  8
0
 10
3411.3722878284302169
 20
194.7534979840864935
 30
0.0
 11
3411.377341601336866
 21
194.8224949688803065
 31
0.0
  0
ARC
  5
1A3F7
  8
0
 10
3411.1773375363968626
 20
194.6773990940976944
 30
0.0
 40
0.0587901969203079
 50
33.8351448893327174
 51
153.8510943638852098
  0
ARC
  5
1A3F8
  8
0
 10
3411.1662042607081275
 20
194.7033615694556943
 30
0.0
 40
0.0416398805415142
 50
180.073354018234113
 51
232.1140938845265111
  0
ARC
  5
1A3F9
  8
0
 10
3411.2314239519068906
 20
194.8527930749810082
 30
0.0
 40
0.2036526896537585
 50
243.5248370822748996
 51
271.6984697519646943
  0
ARC
  5
1A3FA
  8
0
 10
3411.2382986177608473
 20
194.6615838266831133
 30
0.0
 40
0.012382389473852
 50
266.1171584752906938
 51
350.7427215787002979
  0
ARC
  5
1A3FB
  8
0
 10
3411.1609246492189413
 20
194.6436346110870943
 30
0.0
 40
0.0910050270853747
 50
10.0987417178893306
 51
22.7389197034044983
  0
ARC
  5
1A3FC
  8
0
 10
3411.1578545125039454
 20
194.648145806326113
 30
0.0
 40
0.0922479269459926
 50
19.4158308123287711
 51
42.2194083608896378
  0
ARC
  5
1A3FD
  8
0
 10
3411.16502234280415
 20
194.6906837975234055
 30
0.0
 40
0.014826381039225
 50
125.3826300551502015
 51
228.3631552226445081
  0
ARC
  5
1A3FE
  8
0
 10
3411.1779542420740654
 20
194.705230494036897
 30
0.0
 40
0.0342902038435752
 50
228.3631552226455881
 51
306.4511896682868723
  0
ARC
  5
1A3FF
  8
0
 10
3411.1903794799400202
 20
194.6902412137874023
 30
0.0
 40
0.0148909261053359
 50
302.2584301280572276
 51
40.8281621928055287
  0
ARC
  5
1A400
  8
0
 10
3411.1773934121088132
 20
194.6747047240500876
 30
0.0
 40
0.0350273678129937
 50
46.1780401724078331
 51
126.7465552884809057
  0
LINE
  5
1A401
  8
0
 10
3411.1245695564480229
 20
194.7033187303993031
 30
0.0
 11
3411.120426489826059
 21
194.7623725627676095
 31
0.0
  0
ARC
  5
1A402
  8
0
 10
3411.1467117061702083
 20
194.7443781463992138
 30
0.0
 40
0.032684784325279
 50
157.1273571026306968
 51
224.1451779299675877
  0
ARC
  5
1A403
  8
0
 10
3411.1672459763121878
 20
194.7244494933773922
 30
0.0
 40
0.060251336140618
 50
85.9533468770220566
 51
147.206714758847113
  0
ARC
  5
1A404
  8
0
 10
3411.1722113479340805
 20
194.6948247212046113
 30
0.0
 40
0.0897287338576285
 50
8.8446342864457037
 51
90.4556139453750916
  0
ARC
  5
1A405
  8
0
 10
3411.2488669216418202
 20
194.7048063154726094
 30
0.0
 40
0.0125976385274147
 50
287.1352324192419019
 51
17.6265198586831602
  0
LINE
  5
1A406
  8
0
 10
3411.2503381092801646
 20
194.6605800563388868
 30
0.0
 11
3411.2551115071951244
 21
194.7291585132192893
 31
0.0
  0
ARC
  5
1A407
  8
0
 10
3410.2723428865338064
 20
195.1134415944127909
 30
0.0
 40
1.029494221221946
 50
164.2839655597985029
 51
188.9712828162504934
  0
ARC
  5
1A408
  8
0
 10
3410.6462260374701145
 20
194.953418718691097
 30
0.0
 40
1.4337168419186761
 50
122.4050954901505008
 51
162.1747597362171973
  0
ARC
  5
1A409
  8
0
 10
3411.2282633690761031
 20
194.1406604092179009
 30
0.0
 40
2.432468656604688
 50
104.236441937102299
 51
123.7205913752549975
  0
ARC
  5
1A40A
  8
0
 10
3411.0993048209847984
 20
194.5793120220789092
 30
0.0
 40
0.0492909516848765
 50
76.2578481239711579
 51
163.9395503483731886
  0
ARC
  5
1A40B
  8
0
 10
3411.0967958561650448
 20
194.6000182311620108
 30
0.0
 40
0.0454118731894695
 50
188.9563370558553004
 51
269.7406679606398257
  0
ARC
  5
1A40C
  8
0
 10
3411.1042494538710343
 20
194.7702725172106
 30
0.0
 40
0.2158016543683905
 50
267.9660555063800871
 51
293.3830022883967104
  0
ARC
  5
1A40D
  8
0
 10
3411.1881889776091157
 20
194.5819950372637095
 30
0.0
 40
0.0099484261085901
 50
279.8793325729544108
 51
44.876909240658307
  0
ARC
  5
1A40E
  8
0
 10
3411.0220455525441139
 20
194.3527720492357105
 30
0.0
 40
0.292927220429008
 50
53.7542615108622499
 51
60.1144005561625008
  0
ARC
  5
1A40F
  8
0
 10
3411.0890339251977821
 20
194.4762815636076141
 30
0.0
 40
0.1525027380102788
 50
58.8141029024925288
 51
81.7131422406915249
  0
ARC
  5
1A410
  8
0
 10
3411.0955254922819222
 20
194.5855819971656899
 30
0.0
 40
0.014826381039225
 50
125.3826300551502015
 51
228.3631552226445081
  0
ARC
  5
1A411
  8
0
 10
3411.1084573915509282
 20
194.6001286936790962
 30
0.0
 40
0.0342902038435752
 50
228.3631552226455881
 51
306.4511896682868723
  0
ARC
  5
1A412
  8
0
 10
3411.1208826294177925
 20
194.5851394134296868
 30
0.0
 40
0.0148909261053359
 50
302.2584301280572276
 51
40.8281621928055287
  0
ARC
  5
1A413
  8
0
 10
3411.1078965615852212
 20
194.5696029236922868
 30
0.0
 40
0.0350273678129937
 50
46.1780401724078331
 51
126.7465552884809057
  0
LINE
  5
1A414
  8
0
 10
3411.0519376778411242
 20
194.5929484317362039
 30
0.0
 11
3411.0474272538281184
 21
194.6549667410126006
 31
0.0
  0
ARC
  5
1A415
  8
0
 10
3411.0706784465419332
 20
194.6372610880798106
 30
0.0
 40
0.0297097751640462
 50
150.3641862294078919
 51
226.6559081330009917
  0
ARC
  5
1A416
  8
0
 10
3411.0981854545789247
 20
194.6090541372159919
 30
0.0
 40
0.0684424000954968
 50
86.2534556723123842
 51
141.1874009427075123
  0
ARC
  5
1A417
  8
0
 10
3411.0891070840839348
 20
194.4991364742369058
 30
0.0
 40
0.1787282142160488
 50
72.8513363880070131
 51
85.6518457601412564
  0
ARC
  5
1A418
  8
0
 10
3411.0891070840839348
 20
194.4991364742369058
 30
0.0
 40
0.1787282142160488
 50
50.2506358449826607
 51
63.3074347690620129
  0
ARC
  5
1A419
  8
0
 10
3411.1982593888419615
 20
194.6262837749113999
 30
0.0
 40
0.0114787887864739
 50
283.0431519739657915
 51
63.4433708026271219
  0
LINE
  5
1A41A
  8
0
 10
3411.1981352396501279
 20
194.5822025305105001
 30
0.0
 11
3411.202669311660884
 21
194.6371487745024069
 31
0.0
  0
ARC
  5
1A41B
  8
0
 10
3411.1111194827558393
 20
194.4764651753988005
 30
0.0
 40
0.0322095800667334
 50
97.9503767970145134
 51
175.1844900980736952
  0
ARC
  5
1A41C
  8
0
 10
3411.123881775316022
 20
194.4862388914378073
 30
0.0
 40
0.0454118731894695
 50
188.9563370558553004
 51
269.7406679606398257
  0
ARC
  5
1A41D
  8
0
 10
3411.1240686451042166
 20
194.5449855083828083
 30
0.0
 40
0.1041587641688583
 50
269.7841409023861843
 51
328.5702154977644796
  0
ARC
  5
1A41E
  8
0
 10
3411.2073284296598104
 20
194.4979397546269979
 30
0.0
 40
0.0091855690901679
 50
307.696573549950017
 51
92.7530087683456941
  0
ARC
  5
1A41F
  8
0
 10
3411.1219698263971623
 20
194.0221199119249036
 30
0.0
 40
0.4923727586935648
 50
80.0687885813004527
 51
82.3726995132985707
  0
ARC
  5
1A420
  8
0
 10
3411.151508945821206
 20
194.3036064241630925
 30
0.0
 40
0.2096119625470421
 50
80.1625734843476039
 51
102.3533917568399971
  0
ARC
  5
1A421
  8
0
 10
3411.1226114114319898
 20
194.4718026574414012
 30
0.0
 40
0.014826381039225
 50
125.3826300551502015
 51
228.3631552226445081
  0
ARC
  5
1A422
  8
0
 10
3411.1355433107019053
 20
194.4863493539548926
 30
0.0
 40
0.0342902038435752
 50
228.3631552226455881
 51
306.4511896682868723
  0
ARC
  5
1A423
  8
0
 10
3411.1349824807361983
 20
194.4558235839681117
 30
0.0
 40
0.0350273678129937
 50
46.1780401724078331
 51
126.7465552884809057
  0
LINE
  5
1A424
  8
0
 10
3411.0790235969911919
 20
194.4791690920118867
 30
0.0
 11
3411.0745131729790955
 21
194.5411874012883118
 31
0.0
  0
ARC
  5
1A425
  8
0
 10
3411.0977643656920009
 20
194.5234817483556071
 30
0.0
 40
0.0297097751640462
 50
150.3641862294078919
 51
226.6559081330009917
  0
ARC
  5
1A426
  8
0
 10
3411.1252713737289923
 20
194.4952747974917031
 30
0.0
 40
0.0684424000954968
 50
119.4092200044758982
 51
141.1874009427075123
  0
ARC
  5
1A427
  8
0
 10
3411.1512564467961965
 20
194.305602734458688
 30
0.0
 40
0.256719513537696
 50
74.3716515320228808
 51
87.7741612320713216
  0
ARC
  5
1A428
  8
0
 10
3411.2147497575851958
 20
194.5412994521948917
 30
0.0
 40
0.0128485000995475
 50
287.9601554795281118
 51
63.8333067002885315
  0
LINE
  5
1A429
  8
0
 10
3411.2165057869178781
 20
194.4983280757047908
 30
0.0
 11
3411.2204157430142004
 21
194.5528311720981947
 31
0.0
  0
ARC
  5
1A42A
  8
0
 10
3411.142643949999183
 20
194.4721517272986944
 30
0.0
 40
0.018849242633271
 50
314.7599367506034014
 51
28.326655570234621
  0
ARC
  5
1A42B
  8
0
 10
3411.2297102959992117
 20
194.3845717986131945
 30
0.0
 40
0.014826381039225
 50
125.3826300551502015
 51
228.3631552226445081
  0
ARC
  5
1A42C
  8
0
 10
3411.2426421952691271
 20
194.3991184951266007
 30
0.0
 40
0.0342902038435752
 50
228.3631552226455881
 51
306.4511896682868723
  0
ARC
  5
1A42D
  8
0
 10
3411.2420813653029654
 20
194.3685927251397914
 30
0.0
 40
0.0350273678129937
 50
46.1780401724078331
 51
126.7465552884809057
  0
ARC
  5
1A42E
  8
0
 10
3411.24974283456595
 20
194.3849208684704024
 30
0.0
 40
0.018849242633271
 50
314.7599367506034014
 51
28.326655570234621
  0
LINE
  5
1A42F
  8
0
 10
3411.1844754319881758
 20
194.4500823178223925
 30
0.0
 11
3411.1889929860399207
 21
194.3880758158362028
 31
0.0
  0
ARC
  5
1A430
  8
0
 10
3411.2269052044080127
 20
194.3908379535185986
 30
0.0
 40
0.0380127045358143
 50
184.1669866173394041
 51
260.0356112971056177
  0
ARC
  5
1A431
  8
0
 10
3411.240823669224028
 20
194.4144239088354027
 30
0.0
 40
0.0643752231149358
 50
251.4347832353888919
 51
310.9536979219968202
  0
ARC
  5
1A432
  8
0
 10
3411.2200065111078402
 20
194.4156825067476007
 30
0.0
 40
0.0803631542048185
 50
321.6364578617397001
 51
13.4548256600184093
  0
ARC
  5
1A433
  8
0
 10
3411.2859748644691535
 20
194.4304802333431894
 30
0.0
 40
0.012798168684792
 50
17.7469808567535807
 51
109.9378064564981941
  0
ARC
  5
1A434
  8
0
 10
3411.3119328665429748
 20
194.2533350295292109
 30
0.0
 40
0.1915909814008259
 50
99.1062140100194284
 51
126.7831692802480035
  0
ARC
  5
1A435
  8
0
 10
3411.2128511708710903
 20
194.388752830239099
 30
0.0
 40
0.0238677885821644
 50
130.9430096385090962
 51
181.6254238891754085
  0
ARC
  5
1A436
  8
0
 10
3411.205936836255205
 20
194.4322601110752942
 30
0.0
 40
0.0278966472256242
 50
140.2626178207003989
 51
228.0412512425808984
  0
ARC
  5
1A437
  8
0
 10
3411.3055582465322004
 20
194.3029101093844986
 30
0.0
 40
0.1905826778830072
 50
98.5675604670494039
 51
129.440787293598504
  0
ARC
  5
1A438
  8
0
 10
3411.2859350623389219
 20
194.4661506897101049
 30
0.0
 40
0.0266966168938123
 50
28.2354496208193595
 51
109.1757766929272009
  0
ARC
  5
1A439
  8
0
 10
3411.2128126143570626
 20
194.4610128585482016
 30
0.0
 40
0.0982622146684042
 50
333.0019551285508896
 51
10.41759654120197
  0
LINE
  5
1A43A
  8
0
 10
3411.3003365751969795
 20
194.4179884462753876
 30
0.0
 11
3411.305123589338109
 21
194.4847116645007077
 31
0.0
  0
ARC
  5
1A43B
  8
0
 10
3411.4055535869001687
 20
193.5024761259070942
 30
0.0
 40
3.0946895266120888
 50
75.4876822385218702
 51
104.5123177614781014
  0
ARC
  5
1A43C
  8
0
 10
3411.4055535869001687
 20
193.4654287807962874
 30
0.0
 40
3.0745085749971639
 50
72.4271761806255512
 51
107.5728238193744062
  0
LINE
  5
1A43D
  8
0
 10
3411.3664640697970754
 20
193.2935767891119951
 30
0.0
 11
3411.4446431040028074
 21
193.2935767891119951
 31
0.0
  0
LINE
  5
1A43E
  8
0
 10
3408.6792488590890571
 20
208.575317283273904
 30
0.0
 11
3408.6792488590890571
 21
209.1816164960098945
 31
0.0
  0
LINE
  5
1A43F
  8
0
 10
3408.6792488590890571
 20
209.1816164960098945
 30
0.0
 11
3408.7087764182601859
 21
209.1816164960098945
 31
0.0
  0
LINE
  5
1A440
  8
0
 10
3408.7087764182601859
 20
209.1816164960098945
 30
0.0
 11
3408.7087764182601859
 21
209.6540574409098951
 31
0.0
  0
LINE
  5
1A441
  8
0
 10
3408.7087764182601859
 20
209.6540574409098951
 30
0.0
 11
3410.0867291741601548
 21
209.6540574409098951
 31
0.0
  0
LINE
  5
1A442
  8
0
 10
3410.0867291741601548
 20
209.6540574409098951
 30
0.0
 11
3410.0867291741601548
 21
209.1816164960098945
 31
0.0
  0
LINE
  5
1A443
  8
0
 10
3409.8738148759598516
 20
210.6304353937098028
 30
0.0
 11
3408.9216907165600787
 21
210.6304353937098028
 31
0.0
  0
ARC
  5
1A444
  8
0
 10
3408.9216898041950117
 20
210.6104353936950986
 30
0.0
 40
0.0200000000355216
 50
89.9973862683589232
 51
179.9999999578541861
  0
LINE
  5
1A445
  8
0
 10
3408.9016898041600143
 20
210.6104353937099063
 30
0.0
 11
3408.9016898037798455
 21
210.0935837058098912
 31
0.0
  0
ARC
  5
1A446
  8
0
 10
3409.1300362599349683
 20
210.0935837056418904
 30
0.0
 40
0.2283464561550161
 50
179.9999999578541861
 51
248.0877879227707012
  0
ARC
  5
1A447
  8
0
 10
3409.0186976784248145
 20
209.8167907720468861
 30
0.0
 40
0.0699999998668475
 50
309.370989367234813
 51
68.087787922770687
  0
ARC
  5
1A448
  8
0
 10
3409.3977527882148024
 20
209.3548448499061863
 30
0.0
 40
0.5275590442791874
 50
129.370989367235893
 51
145.4379931282578013
  0
ARC
  5
1A449
  8
0
 10
3409.8738157883249187
 20
210.6104353936950986
 30
0.0
 40
0.020000000035518
 50
0.0000000421359884
 51
90.0026137316671253
  0
LINE
  5
1A44A
  8
0
 10
3409.893815788359916
 20
210.6104353937099063
 30
0.0
 11
3409.8938157887400848
 21
210.0935837058098912
 31
0.0
  0
ARC
  5
1A44B
  8
0
 10
3409.665469332514931
 20
210.0935837056418904
 30
0.0
 40
0.2283464562251538
 50
291.9122120837143939
 51
0.0000000421359884
  0
ARC
  5
1A44C
  8
0
 10
3409.7768079140701047
 20
209.8167907720248877
 30
0.0
 40
0.0699999998339842
 50
111.9122120837144934
 51
230.6290106379589133
  0
ARC
  5
1A44D
  8
0
 10
3409.3977528045620602
 20
209.354844850142797
 30
0.0
 40
0.5275590439331026
 50
34.5624404249444979
 51
50.6290106379588494
  0
LINE
  5
1A44E
  8
0
 10
3409.1994999183389154
 20
210.4611440550351915
 30
0.0
 11
3409.1994999183389154
 21
210.0935837058098912
 31
0.0
  0
ARC
  5
1A44F
  8
0
 10
3409.2940483553561535
 20
210.0935837058098912
 30
0.0
 40
0.0945484370168188
 50
179.9999999999967031
 51
211.9663705363016106
  0
ARC
  5
1A450
  8
0
 10
3409.3339673248251529
 20
210.1184952794878029
 30
0.0
 40
0.1416027739747707
 50
211.9663705363028896
 51
243.7007213763401126
  0
ARC
  5
1A451
  8
0
 10
3409.3949446365832046
 20
210.2418774051398032
 30
0.0
 40
0.2792304655185481
 50
243.7007213763401126
 51
264.7367334732456925
  0
ARC
  5
1A452
  8
0
 10
3409.3978388916812037
 20
210.273295515943488
 30
0.0
 40
0.3107816049440198
 50
264.7367334732456925
 51
278.4608522432673112
  0
ARC
  5
1A453
  8
0
 10
3409.4044761464638214
 20
210.2286760819345943
 30
0.0
 40
0.2656712176443498
 50
278.4608522432673112
 51
296.8037324040693079
  0
ARC
  5
1A454
  8
0
 10
3409.4578513047208617
 20
210.123028329770392
 30
0.0
 40
0.1473058719712019
 50
296.8037324040693079
 51
324.6382987007384031
  0
ARC
  5
1A455
  8
0
 10
3409.4982928754138811
 20
210.094328667472098
 30
0.0
 40
0.0977156384954912
 50
324.6382987007384031
 51
359.5631858596768211
  0
LINE
  5
1A456
  8
0
 10
3409.5960056741600965
 20
210.0935837058098912
 30
0.0
 11
3409.5960056741619155
 21
210.4611440550434054
 31
0.0
  0
LINE
  5
1A457
  8
0
 10
3409.5960056741619155
 20
210.4611440550434054
 30
0.0
 11
3409.1994999183179971
 21
210.4611440550353052
 31
0.0
  0
ARC
  5
1A458
  8
0
 10
3409.3977527962601926
 20
210.0064207030492014
 30
0.0
 40
0.4960620227807786
 50
66.4434868815552591
 51
113.5565131207766996
  0
LINE
  5
1A459
  8
0
 10
3407.8949552015519657
 20
208.2249235823823881
 30
0.0
 11
3408.07718038109806
 21
208.2249235823823881
 31
0.0
  0
LINE
  5
1A45A
  8
0
 10
3408.2263194401198234
 20
208.2249235823823881
 30
0.0
 11
3408.3188839222698334
 21
208.2249235823823881
 31
0.0
  0
LINE
  5
1A45B
  8
0
 10
3408.6129747336449327
 20
208.2249235823823881
 30
0.0
 11
3408.7312366366941205
 21
208.2249235823823028
 31
0.0
  0
LINE
  5
1A45C
  8
0
 10
3408.7464036575188402
 20
208.2839787004824075
 30
0.0
 11
3408.7390597544372213
 21
208.2317241148840026
 31
0.0
  0
LINE
  5
1A45D
  8
0
 10
3408.7294746380189281
 20
208.2839787004824075
 30
0.0
 11
3408.7221307350391726
 21
208.2317241148986113
 31
0.0
  0
LINE
  5
1A45E
  8
0
 10
3408.7234880285191139
 20
208.2839787004824075
 30
0.0
 11
3408.7161441254370402
 21
208.2317241148840026
 31
0.0
  0
LINE
  5
1A45F
  8
0
 10
3408.7207062366192076
 20
208.2839787004824075
 30
0.0
 11
3408.713362333537134
 21
208.2317241148840026
 31
0.0
  0
LINE
  5
1A460
  8
0
 10
3408.5978077128188488
 20
208.2839787004824075
 30
0.0
 11
3408.605151615901832
 21
208.2317241148840026
 31
0.0
  0
LINE
  5
1A461
  8
0
 10
3408.3267070400120247
 20
208.2317241148840026
 30
0.0
 11
3408.3333225652550027
 21
208.2787960228627924
 31
0.0
  0
LINE
  5
1A462
  8
0
 10
3408.0850034988397965
 20
208.2317241148840026
 30
0.0
 11
3408.0923474019227797
 21
208.2839787004824075
 31
0.0
  0
LINE
  5
1A463
  8
0
 10
3407.9953428014450765
 20
208.2317241148840026
 30
0.0
 11
3408.0026867045271501
 21
208.2839787004824075
 31
0.0
  0
LINE
  5
1A464
  8
0
 10
3407.8871320838097745
 20
208.2317241148840026
 30
0.0
 11
3407.8797881807281556
 21
208.2839787004824075
 31
0.0
  0
ARC
  5
1A465
  8
0
 10
3408.3188839222698334
 20
208.2328235823823093
 30
0.0
 40
0.0079
 50
269.9999999999478746
 51
351.9999999942613726
  0
ARC
  5
1A466
  8
0
 10
3408.2263194401198234
 20
208.2328235823823093
 30
0.0
 40
0.0079
 50
239.7449195376549937
 51
269.9999999999739089
  0
ARC
  5
1A467
  8
0
 10
3408.07718038109806
 20
208.2328235823823093
 30
0.0
 40
0.0079
 50
269.9999999999739089
 51
351.999999994266318
  0
ARC
  5
1A468
  8
0
 10
3407.9875196837028852
 20
208.2328235823823093
 30
0.0
 40
0.0079
 50
270.0
 51
351.999999994243808
  0
ARC
  5
1A469
  8
0
 10
3407.8949552015519657
 20
208.2328235823823093
 30
0.0
 40
0.0079
 50
188.0000000057839884
 51
270.0
  0
ARC
  5
1A46A
  8
0
 10
3408.7055392157940332
 20
208.2328235823823093
 30
0.0
 40
0.0079
 50
269.9999999999739089
 51
351.9999999941869078
  0
ARC
  5
1A46B
  8
0
 10
3408.7083210076939395
 20
208.2328235823823093
 30
0.0
 40
0.0079
 50
270.0
 51
351.999999994243808
  0
ARC
  5
1A46C
  8
0
 10
3408.7143076172937981
 20
208.2328235823823093
 30
0.0
 40
0.0079
 50
270.0000000000782165
 51
352.0000001016401825
  0
ARC
  5
1A46D
  8
0
 10
3408.7312366366941205
 20
208.2328235823823093
 30
0.0
 40
0.0079
 50
269.9999999999739089
 51
351.9999999942405111
  0
ARC
  5
1A46E
  8
0
 10
3408.6129747336449327
 20
208.2328235823823093
 30
0.0
 40
0.0079
 50
188.000000005756192
 51
270.0
  0
LINE
  5
1A46F
  8
0
 10
3409.3436474374771024
 20
208.2317241148840026
 30
0.0
 11
3409.3363035343941192
 21
208.2839787004824075
 31
0.0
  0
LINE
  5
1A470
  8
0
 10
3409.4518581551119496
 20
208.2317241148840026
 30
0.0
 11
3409.4592020581940233
 21
208.2839787004824075
 31
0.0
  0
LINE
  5
1A471
  8
0
 10
3409.4440350373688489
 20
208.2249235823823881
 30
0.0
 11
3409.3514705552202031
 21
208.2249235823823881
 31
0.0
  0
ARC
  5
1A472
  8
0
 10
3409.4440350373688489
 20
208.2328235823823093
 30
0.0
 40
0.0079
 50
269.999999999895806
 51
351.9999999942551199
  0
ARC
  5
1A473
  8
0
 10
3409.3514705552202031
 20
208.2328235823823093
 30
0.0
 40
0.0079
 50
188.0000000057594889
 51
270.0000000000259774
  0
LINE
  5
1A474
  8
0
 10
3408.3477612082410815
 20
208.2249235823823881
 30
0.0
 11
3408.4695744581140389
 21
208.2249235823823881
 31
0.0
  0
LINE
  5
1A475
  8
0
 10
3408.4481488081341922
 20
208.2317241148840026
 30
0.0
 11
3408.4554927112158111
 21
208.2839787004824075
 31
0.0
  0
LINE
  5
1A476
  8
0
 10
3408.3399380904988902
 20
208.2317241148840026
 30
0.0
 11
3408.3325941874159071
 21
208.2839787004824075
 31
0.0
  0
ARC
  5
1A477
  8
0
 10
3408.4403256903910915
 20
208.2328235823823093
 30
0.0
 40
0.0079
 50
269.9999999999478746
 51
351.9999999942613726
  0
ARC
  5
1A478
  8
0
 10
3408.3477612082410815
 20
208.2328235823823093
 30
0.0
 40
0.0079
 50
188.0000000057530087
 51
269.9999999999739089
  0
LINE
  5
1A479
  8
0
 10
3408.4773975758571396
 20
208.2317241148840026
 30
0.0
 11
3408.4847414789392133
 21
208.2839787004824075
 31
0.0
  0
ARC
  5
1A47A
  8
0
 10
3408.4695744581140389
 20
208.2328235823823093
 30
0.0
 40
0.0079
 50
269.9999999999478746
 51
351.9999999942613726
  0
LINE
  5
1A47B
  8
0
 10
3408.1257941189319354
 20
208.2249235823823881
 30
0.0
 11
3408.2183586010810359
 21
208.2249235823823881
 31
0.0
  0
LINE
  5
1A47C
  8
0
 10
3408.2261817188241366
 20
208.2317241148840026
 30
0.0
 11
3408.2335256219071198
 21
208.2839787004824075
 31
0.0
  0
LINE
  5
1A47D
  8
0
 10
3408.1179710011888346
 20
208.2317241148840026
 30
0.0
 11
3408.1106270981072157
 21
208.2839787004824075
 31
0.0
  0
ARC
  5
1A47E
  8
0
 10
3408.2183586010810359
 20
208.2328235823823093
 30
0.0
 40
0.0079
 50
269.9999999999478746
 51
351.9999999942613726
  0
ARC
  5
1A47F
  8
0
 10
3408.1257941189319354
 20
208.2328235823823093
 30
0.0
 40
0.0079
 50
188.0000000057530087
 51
269.9999999999739089
  0
LINE
  5
1A480
  8
0
 10
3407.6205674178281697
 20
208.2317241148840026
 30
0.0
 11
3407.6279113209097886
 21
208.2839787004824075
 31
0.0
  0
LINE
  5
1A481
  8
0
 10
3407.5062833604920343
 20
208.2317241148840026
 30
0.0
 11
3407.4989394574099606
 21
208.2839787004824075
 31
0.0
  0
LINE
  5
1A482
  8
0
 10
3407.614494078127791
 20
208.2317241148840026
 30
0.0
 11
3407.6218379812098647
 21
208.2839787004824075
 31
0.0
  0
LINE
  5
1A483
  8
0
 10
3406.7121786340608196
 20
208.2317241148840026
 30
0.0
 11
3406.7195225371428933
 21
208.2839787004824075
 31
0.0
  0
LINE
  5
1A484
  8
0
 10
3406.1974933395431435
 20
208.2317241148840026
 30
0.0
 11
3406.2048372426252172
 21
208.2839787004824075
 31
0.0
  0
LINE
  5
1A485
  8
0
 10
3406.0796666662431562
 20
208.2317241148840026
 30
0.0
 11
3406.0870105693247751
 21
208.2839787004824075
 31
0.0
  0
LINE
  5
1A486
  8
0
 10
3405.452782454617136
 20
208.2317241148840026
 30
0.0
 11
3405.4601263577001191
 21
208.2839787004824075
 31
0.0
  0
LINE
  5
1A487
  8
0
 10
3405.2563588218481527
 20
208.2317241148840026
 30
0.0
 11
3405.2637027249302264
 21
208.2839787004824075
 31
0.0
  0
LINE
  5
1A488
  8
0
 10
3405.1474758394429045
 20
208.2317241148840026
 30
0.0
 11
3405.1401319363608309
 21
208.2839787004824075
 31
0.0
  0
LINE
  5
1A489
  8
0
 10
3405.0764985583427915
 20
208.2317241148840026
 30
0.0
 11
3405.0691546552611726
 21
208.2839787004824075
 31
0.0
  0
LINE
  5
1A48A
  8
0
 10
3405.344571736981834
 20
208.2317241148840026
 30
0.0
 11
3405.337227833900215
 21
208.2839787004824075
 31
0.0
  0
LINE
  5
1A48B
  8
0
 10
3405.9714559486069447
 20
208.2317241148840026
 30
0.0
 11
3405.9641120455248711
 21
208.2839787004824075
 31
0.0
  0
LINE
  5
1A48C
  8
0
 10
3406.5263507057561583
 20
208.2317241148840026
 30
0.0
 11
3406.5190068026740846
 21
208.2839787004824075
 31
0.0
  0
LINE
  5
1A48D
  8
0
 10
3406.6032956516560262
 20
208.2317241148840026
 30
0.0
 11
3406.5959517485739525
 21
208.2839787004824075
 31
0.0
  0
LINE
  5
1A48E
  8
0
 10
3407.3948285399919769
 20
208.2317241148840026
 30
0.0
 11
3407.3874846369099032
 21
208.2839787004824075
 31
0.0
  0
LINE
  5
1A48F
  8
0
 10
3407.514106478235135
 20
208.2249235823823881
 30
0.0
 11
3407.612744300085069
 21
208.2249235823823881
 31
0.0
  0
LINE
  5
1A490
  8
0
 10
3407.4952161398841781
 20
208.2249235823823881
 30
0.0
 11
3407.4026516577350776
 21
208.2249235823823881
 31
0.0
  0
LINE
  5
1A491
  8
0
 10
3406.7043555163181736
 20
208.2249235823823881
 30
0.0
 11
3406.5341738234988043
 21
208.2249235823823881
 31
0.0
  0
LINE
  5
1A492
  8
0
 10
3406.1896702217991333
 20
208.2249235823823881
 30
0.0
 11
3406.0971057396500328
 21
208.2249235823823881
 31
0.0
  0
LINE
  5
1A493
  8
0
 10
3406.071843548499146
 20
208.2249235823823881
 30
0.0
 11
3405.9792790663500455
 21
208.2249235823823881
 31
0.0
  0
LINE
  5
1A494
  8
0
 10
3405.4449593368740352
 20
208.2249235823823881
 30
0.0
 11
3405.3523948547249347
 21
208.2249235823823881
 31
0.0
  0
LINE
  5
1A495
  8
0
 10
3405.2485357041041425
 20
208.2249235823823881
 30
0.0
 11
3405.0843216760858922
 21
208.2249235823823881
 31
0.0
  0
ARC
  5
1A496
  8
0
 10
3405.2485357041041425
 20
208.2328235823823093
 30
0.0
 40
0.0079
 50
269.9999999999739089
 51
351.9999999942111231
  0
ARC
  5
1A497
  8
0
 10
3405.1552989571860053
 20
208.2328235823823093
 30
0.0
 40
0.0079
 50
188.0000000057337104
 51
270.0000000000259774
  0
ARC
  5
1A498
  8
0
 10
3405.0843216760858922
 20
208.2328235823823093
 30
0.0
 40
0.0079
 50
188.000000005735302
 51
270.0000000000259774
  0
ARC
  5
1A499
  8
0
 10
3405.3523948547249347
 20
208.2328235823823093
 30
0.0
 40
0.0079
 50
188.0000000057337104
 51
270.0000000000259774
  0
ARC
  5
1A49A
  8
0
 10
3405.4449593368740352
 20
208.2328235823823093
 30
0.0
 40
0.0079
 50
269.9999999999739089
 51
351.9999999942143063
  0
ARC
  5
1A49B
  8
0
 10
3405.9792790663500455
 20
208.2328235823823093
 30
0.0
 40
0.0079
 50
188.0000000057337104
 51
270.0000000000259774
  0
ARC
  5
1A49C
  8
0
 10
3406.071843548499146
 20
208.2328235823823093
 30
0.0
 40
0.0079
 50
269.9999999999739089
 51
351.9999999942127147
  0
ARC
  5
1A49D
  8
0
 10
3406.1896702217991333
 20
208.2328235823823093
 30
0.0
 40
0.0079
 50
269.9999999999739089
 51
351.9999999942421027
  0
ARC
  5
1A49E
  8
0
 10
3406.6111187693991269
 20
208.2328235823823093
 30
0.0
 40
0.0079
 50
188.0000000057337104
 51
270.0000000000259774
  0
ARC
  5
1A49F
  8
0
 10
3406.5341738234988043
 20
208.2328235823823093
 30
0.0
 40
0.0079
 50
188.0000000057094951
 51
270.0000000000259774
  0
ARC
  5
1A4A0
  8
0
 10
3406.7043555163181736
 20
208.2328235823823093
 30
0.0
 40
0.0079
 50
269.9999999999739089
 51
351.9999999942127147
  0
ARC
  5
1A4A1
  8
0
 10
3407.4026516577350776
 20
208.2328235823823093
 30
0.0
 40
0.0079
 50
188.0000000057110867
 51
270.0000000000259774
  0
ARC
  5
1A4A2
  8
0
 10
3407.606670960385145
 20
208.2328235823823093
 30
0.0
 40
0.0079
 50
269.9999999999739089
 51
351.9999999942647264
  0
ARC
  5
1A4A3
  8
0
 10
3407.612744300085069
 20
208.2328235823823093
 30
0.0
 40
0.0079
 50
269.9999999999739089
 51
351.999999994266318
  0
ARC
  5
1A4A4
  8
0
 10
3407.514106478235135
 20
208.2328235823823093
 30
0.0
 40
0.0079
 50
188.000000005735302
 51
270.0000000000259774
  0
LINE
  5
1A4A5
  8
0
 10
3407.5030392576350096
 20
208.2317241149318079
 30
0.0
 11
3407.5046613090239589
 21
208.24326561078189
 31
0.0
  0
ARC
  5
1A4A6
  8
0
 10
3407.4952161398841781
 20
208.2328235823823093
 30
0.0
 40
0.0079
 50
270.0
 51
352.000000344207308
  0
LINE
  5
1A4A7
  8
0
 10
3406.0844746440448034
 20
208.2659346545399899
 30
0.0
 11
3406.0892826219092058
 21
208.2317241148705875
 31
0.0
  0
ARC
  5
1A4A8
  8
0
 10
3406.0971057396500328
 20
208.2328235823823093
 30
0.0
 40
0.0079
 50
188.0000001042145925
 51
269.9999999999739089
  0
LINE
  5
1A4A9
  8
0
 10
3409.1270550056269713
 20
208.2317241148828941
 30
0.0
 11
3409.1343989087167756
 21
208.2839787004824075
 31
0.0
  0
LINE
  5
1A4AA
  8
0
 10
3409.113449305028098
 20
208.2317241148840026
 30
0.0
 11
3409.1207932081101717
 21
208.2839787004824075
 31
0.0
  0
LINE
  5
1A4AB
  8
0
 10
3409.1123464143270212
 20
208.2317241148840026
 30
0.0
 11
3409.1196903174100044
 21
208.2839787004824075
 31
0.0
  0
LINE
  5
1A4AC
  8
0
 10
3409.004135696692174
 20
208.2317241148840026
 30
0.0
 11
3408.9967917936101003
 21
208.2839787004824075
 31
0.0
  0
LINE
  5
1A4AD
  8
0
 10
3409.0119588144348199
 20
208.2249235823823028
 30
0.0
 11
3409.11923188788478
 21
208.2249235823823028
 31
0.0
  0
ARC
  5
1A4AE
  8
0
 10
3409.0119588144348199
 20
208.2328235823823093
 30
0.0
 40
0.0079
 50
188.0000000057368936
 51
270.0000000000521254
  0
ARC
  5
1A4AF
  8
0
 10
3409.10452329658483
 20
208.2328235823823093
 30
0.0
 40
0.0079
 50
269.9999999999739089
 51
351.9999999942888849
  0
ARC
  5
1A4B0
  8
0
 10
3409.1056261872840878
 20
208.2328235823823093
 30
0.0
 40
0.0079
 50
269.9999999999478746
 51
351.9999999942647264
  0
ARC
  5
1A4B1
  8
0
 10
3409.11923188788478
 20
208.2328235823823093
 30
0.0
 40
0.0079
 50
269.9999999999478746
 51
351.9999999863230755
  0
LINE
  5
1A4B2
  8
0
 10
3404.4036094020179917
 20
208.2839787004824075
 30
0.0
 11
3414.3918961903877971
 21
208.2839787004824075
 31
0.0
  0
LINE
  5
1A4B3
  8
0
 10
3414.3918961904028038
 20
208.3784668894824108
 30
0.0
 11
3404.4036094020179917
 21
208.3784668894824108
 31
0.0
  0
ARC
  5
1A4B4
  8
0
 10
3404.403610303349069
 20
208.3725595285025065
 30
0.0
 40
0.0059073610486871
 50
90.0087420544465857
 51
179.982064714573994
  0
LINE
  5
1A4B5
  8
0
 10
3404.3977029425900582
 20
208.3725613776823877
 30
0.0
 11
3404.3977029425900582
 21
208.2897782878872022
 31
0.0
  0
ARC
  5
1A4B6
  8
0
 10
3404.4036073717579711
 20
208.2898840769317133
 30
0.0
 40
0.0059053767983744
 50
181.0264527083064081
 51
270.019698200347591
  0
ARC
  5
1A4B7
  8
0
 10
3404.6621971278182173
 20
208.7642936611823927
 30
0.0
 40
0.3858267716999748
 50
270.0
 51
289.0402300408280212
  0
LINE
  5
1A4B8
  8
0
 10
3404.7880661544199938
 20
208.3995755701824066
 30
0.0
 11
3405.2286412967728211
 21
208.551623866336314
 31
0.0
  0
ARC
  5
1A4B9
  8
0
 10
3405.3699228556570233
 20
208.1422464218541961
 30
0.0
 40
0.4330708613282043
 50
89.999999806801398
 51
109.040230040828007
  0
LINE
  5
1A4BA
  8
0
 10
3405.3699228571181266
 20
208.5753172831823861
 30
0.0
 11
3413.4282019951428992
 21
208.5753172834052975
 31
0.0
  0
LINE
  5
1A4BB
  8
0
 10
3408.9056268647600518
 20
166.450617970409894
 30
0.0
 11
3408.9056268619669936
 21
166.4977267322099124
 31
0.0
  0
LINE
  5
1A4BC
  8
0
 10
3408.9056268589320098
 20
166.5489078346099063
 30
0.0
 11
3408.9056256396847857
 21
187.1114910329997088
 31
0.0
  0
LINE
  5
1A4BD
  8
0
 10
3409.889878733687965
 20
166.5489078346097926
 30
0.0
 11
3409.8898799529370081
 21
187.1114273350729036
 31
0.0
  0
ARC
  5
1A4BE
  8
0
 10
3410.9820814002468978
 20
188.7260693705298991
 30
0.0
 40
0.1288699135816685
 50
190.9408675430491087
 51
254.5903677035848034
  0
ARC
  5
1A4BF
  8
0
 10
3411.4055535868938023
 20
189.6073083393289949
 30
0.0
 40
1.104755839068402
 50
245.5239077464761976
 51
294.4760922541242962
  0
ARC
  5
1A4C0
  8
0
 10
3390.6836411094432151
 20
187.9491536087031136
 30
0.0
 40
21.1926790246878909
 50
357.9795731294348116
 51
1.767157892201549
  0
LINE
  5
1A4C1
  8
0
 10
3411.8339383811321568
 20
188.4394970099486954
 30
0.0
 11
3411.8406950004441569
 21
188.5918589736928936
 31
0.0
  0
LINE
  5
1A4C2
  8
0
 10
3409.0040520088600715
 20
209.9031366722713017
 30
0.0
 11
3409.0040520088600715
 21
209.7060118209267898
 31
0.0
  0
LINE
  5
1A4C3
  8
0
 10
3409.7914535836598589
 20
209.9031366722336998
 30
0.0
 11
3409.7914535836598589
 21
209.7060118209319057
 31
0.0
  0
LINE
  5
1A4C4
  8
0
 10
3405.766036769557104
 20
208.2317241148840026
 30
0.0
 11
3405.7733806726400871
 21
208.2839787004824075
 31
0.0
  0
LINE
  5
1A4C5
  8
0
 10
3405.657826051921802
 20
208.2317241148840026
 30
0.0
 11
3405.6504821488401831
 21
208.2839787004824075
 31
0.0
  0
LINE
  5
1A4C6
  8
0
 10
3405.7582136518140032
 20
208.2249235823823881
 30
0.0
 11
3405.6656491696649027
 21
208.2249235823823881
 31
0.0
  0
ARC
  5
1A4C7
  8
0
 10
3405.6656491696649027
 20
208.2328235823823093
 30
0.0
 40
0.0079
 50
188.0000000057320051
 51
270.0000000000259774
  0
ARC
  5
1A4C8
  8
0
 10
3405.7582136518140032
 20
208.2328235823823093
 30
0.0
 40
0.0079
 50
269.9999999999739089
 51
351.9999999942143063
  0
LINE
  5
1A4C9
  8
0
 10
3405.9266186408558497
 20
208.2317241148840026
 30
0.0
 11
3405.9339625439379233
 21
208.2839787004824075
 31
0.0
  0
LINE
  5
1A4CA
  8
0
 10
3405.8184079232200929
 20
208.2317241148840026
 30
0.0
 11
3405.8110640201380193
 21
208.2839787004824075
 31
0.0
  0
LINE
  5
1A4CB
  8
0
 10
3405.9187955231132037
 20
208.2249235823823881
 30
0.0
 11
3405.8262310409631937
 21
208.2249235823823881
 31
0.0
  0
ARC
  5
1A4CC
  8
0
 10
3405.8262310409631937
 20
208.2328235823823093
 30
0.0
 40
0.0079
 50
188.0000000057320051
 51
270.0000000000259774
  0
ARC
  5
1A4CD
  8
0
 10
3405.9187955231132037
 20
208.2328235823823093
 30
0.0
 40
0.0079
 50
269.9999999999739089
 51
351.9999999942143063
  0
LINE
  5
1A4CE
  8
0
 10
3406.3837181789008355
 20
208.2317241148840026
 30
0.0
 11
3406.3910620819829091
 21
208.2839787004824075
 31
0.0
  0
LINE
  5
1A4CF
  8
0
 10
3406.2755074612650787
 20
208.2317241148840026
 30
0.0
 11
3406.2681635581830051
 21
208.2839787004824075
 31
0.0
  0
LINE
  5
1A4D0
  8
0
 10
3406.3758950611581895
 20
208.2249235823823881
 30
0.0
 11
3406.283330579009089
 21
208.2249235823823881
 31
0.0
  0
ARC
  5
1A4D1
  8
0
 10
3406.283330579009089
 20
208.2328235823823093
 30
0.0
 40
0.0079
 50
188.0000000057320051
 51
270.0000000000259774
  0
ARC
  5
1A4D2
  8
0
 10
3406.3758950611581895
 20
208.2328235823823093
 30
0.0
 40
0.0079
 50
269.9999999999739089
 51
351.9999999942143063
  0
LINE
  5
1A4D3
  8
0
 10
3406.9977224653148369
 20
208.2317241148840026
 30
0.0
 11
3407.0050663683969105
 21
208.2839787004824075
 31
0.0
  0
LINE
  5
1A4D4
  8
0
 10
3406.8895117476799896
 20
208.2317241148840026
 30
0.0
 11
3406.8821678445970065
 21
208.2839787004824075
 31
0.0
  0
LINE
  5
1A4D5
  8
0
 10
3406.9898993475721909
 20
208.2249235823823881
 30
0.0
 11
3406.8973348654230904
 21
208.2249235823823881
 31
0.0
  0
ARC
  5
1A4D6
  8
0
 10
3406.8973348654230904
 20
208.2328235823823093
 30
0.0
 40
0.0079
 50
188.0000000057320051
 51
270.0000000000259774
  0
ARC
  5
1A4D7
  8
0
 10
3406.9898993475721909
 20
208.2328235823823093
 30
0.0
 40
0.0079
 50
269.9999999999739089
 51
351.9999999942143063
  0
LINE
  5
1A4D8
  8
0
 10
3407.3295259010901646
 20
208.2317241148840026
 30
0.0
 11
3407.3368698041731477
 21
208.2839787004824075
 31
0.0
  0
LINE
  5
1A4D9
  8
0
 10
3407.2152418437549386
 20
208.2317241148840026
 30
0.0
 11
3407.2078979406728649
 21
208.2839787004824075
 31
0.0
  0
LINE
  5
1A4DA
  8
0
 10
3407.3234525613897858
 20
208.2317241148840026
 30
0.0
 11
3407.3307964644732238
 21
208.2839787004824075
 31
0.0
  0
LINE
  5
1A4DB
  8
0
 10
3407.2230649614980393
 20
208.2249235823823881
 30
0.0
 11
3407.3217027833479733
 21
208.2249235823823881
 31
0.0
  0
ARC
  5
1A4DC
  8
0
 10
3407.3156294436471399
 20
208.2328235823823093
 30
0.0
 40
0.0079
 50
269.9999999999739089
 51
351.9999999942647264
  0
ARC
  5
1A4DD
  8
0
 10
3407.3217027833479733
 20
208.2328235823823093
 30
0.0
 40
0.0079
 50
269.9999999999739089
 51
351.999999994266318
  0
ARC
  5
1A4DE
  8
0
 10
3407.2230649614980393
 20
208.2328235823823093
 30
0.0
 40
0.0079
 50
188.000000005735302
 51
270.0000000000259774
  0
LINE
  5
1A4DF
  8
0
 10
3408.0333027253468572
 20
208.2317241148840026
 30
0.0
 11
3408.0406466284289309
 21
208.2839787004824075
 31
0.0
  0
ARC
  5
1A4E0
  8
0
 10
3408.0254796076042112
 20
208.2328235823823093
 30
0.0
 40
0.0079
 50
269.9999999999739089
 51
351.999999994266318
  0
LINE
  5
1A4E1
  8
0
 10
3408.0087450704882031
 20
208.2317241148840026
 30
0.0
 11
3408.016088973569822
 21
208.2839787004824075
 31
0.0
  0
ARC
  5
1A4E2
  8
0
 10
3408.0009219527441928
 20
208.2328235823823093
 30
0.0
 40
0.0079
 50
269.9999999999739089
 51
351.999999994266318
  0
LINE
  5
1A4E3
  8
0
 10
3410.900550391068009
 20
208.2249235823823881
 30
0.0
 11
3410.7183252115228242
 21
208.2249235823823881
 31
0.0
  0
LINE
  5
1A4E4
  8
0
 10
3410.5691861525001514
 20
208.2249235823823881
 30
0.0
 11
3410.4766216703510509
 21
208.2249235823823881
 31
0.0
  0
LINE
  5
1A4E5
  8
0
 10
3410.1825308589750421
 20
208.2249235823823881
 30
0.0
 11
3410.0642689559258542
 21
208.2249235823823028
 31
0.0
  0
LINE
  5
1A4E6
  8
0
 10
3410.0491019351011346
 20
208.2839787004824075
 30
0.0
 11
3410.0564458381832083
 21
208.2317241148840026
 31
0.0
  0
LINE
  5
1A4E7
  8
0
 10
3410.0660309546010467
 20
208.2839787004824075
 30
0.0
 11
3410.0733748575808022
 21
208.2317241148986113
 31
0.0
  0
LINE
  5
1A4E8
  8
0
 10
3410.0720175640999514
 20
208.2839787004824075
 30
0.0
 11
3410.0793614671829346
 21
208.2317241148840026
 31
0.0
  0
LINE
  5
1A4E9
  8
0
 10
3410.0747993560012219
 20
208.2839787004824075
 30
0.0
 11
3410.0821432590828408
 21
208.2317241148840026
 31
0.0
  0
LINE
  5
1A4EA
  8
0
 10
3410.197697879801126
 20
208.2839787004824075
 30
0.0
 11
3410.1903539767181428
 21
208.2317241148840026
 31
0.0
  0
LINE
  5
1A4EB
  8
0
 10
3410.4687985526079501
 20
208.2317241148840026
 30
0.0
 11
3410.4621830273649721
 21
208.2787960228627924
 31
0.0
  0
LINE
  5
1A4EC
  8
0
 10
3410.7105020937801783
 20
208.2317241148840026
 30
0.0
 11
3410.7031581906981046
 21
208.2839787004824075
 31
0.0
  0
LINE
  5
1A4ED
  8
0
 10
3410.8001627911748983
 20
208.2317241148840026
 30
0.0
 11
3410.7928188880928246
 21
208.2839787004824075
 31
0.0
  0
LINE
  5
1A4EE
  8
0
 10
3410.9083735088111098
 20
208.2317241148840026
 30
0.0
 11
3410.9157174118931835
 21
208.2839787004824075
 31
0.0
  0
ARC
  5
1A4EF
  8
0
 10
3410.4766216703510509
 20
208.2328235823823093
 30
0.0
 40
0.0079
 50
188.0000000057385137
 51
270.0000000000521254
  0
ARC
  5
1A4F0
  8
0
 10
3410.5691861525001514
 20
208.2328235823823093
 30
0.0
 40
0.0079
 50
270.0000000000259774
 51
300.2550804623448926
  0
ARC
  5
1A4F1
  8
0
 10
3410.7183252115228242
 20
208.2328235823823093
 30
0.0
 40
0.0079
 50
188.0000000057337104
 51
270.0000000000259774
  0
ARC
  5
1A4F2
  8
0
 10
3410.807985908917999
 20
208.2328235823823093
 30
0.0
 40
0.0079
 50
188.000000005756192
 51
270.0
  0
ARC
  5
1A4F3
  8
0
 10
3410.900550391068009
 20
208.2328235823823093
 30
0.0
 40
0.0079
 50
270.0
 51
351.9999999942158979
  0
ARC
  5
1A4F4
  8
0
 10
3410.0899663768259416
 20
208.2328235823823093
 30
0.0
 40
0.0079
 50
188.0000000058130922
 51
270.0000000000259774
  0
ARC
  5
1A4F5
  8
0
 10
3410.0871845849260353
 20
208.2328235823823093
 30
0.0
 40
0.0079
 50
188.000000005756192
 51
270.0
  0
ARC
  5
1A4F6
  8
0
 10
3410.0811979753261767
 20
208.2328235823823093
 30
0.0
 40
0.0079
 50
187.9999998983597891
 51
269.9999999999218971
  0
ARC
  5
1A4F7
  8
0
 10
3410.0642689559258542
 20
208.2328235823823093
 30
0.0
 40
0.0079
 50
188.0000000057594889
 51
270.0000000000259774
  0
ARC
  5
1A4F8
  8
0
 10
3410.1825308589750421
 20
208.2328235823823093
 30
0.0
 40
0.0079
 50
270.0
 51
351.999999994243808
  0
LINE
  5
1A4F9
  8
0
 10
3410.4477443843788933
 20
208.2249235823823881
 30
0.0
 11
3410.3259311345068454
 21
208.2249235823823881
 31
0.0
  0
LINE
  5
1A4FA
  8
0
 10
3410.3473567844871468
 20
208.2317241148840026
 30
0.0
 11
3410.3400128814041636
 21
208.2839787004824075
 31
0.0
  0
LINE
  5
1A4FB
  8
0
 10
3410.455567502121994
 20
208.2317241148840026
 30
0.0
 11
3410.4629114052040677
 21
208.2839787004824075
 31
0.0
  0
ARC
  5
1A4FC
  8
0
 10
3410.3551799022288833
 20
208.2328235823823093
 30
0.0
 40
0.0079
 50
188.0000000057385137
 51
270.0000000000521254
  0
ARC
  5
1A4FD
  8
0
 10
3410.4477443843788933
 20
208.2328235823823093
 30
0.0
 40
0.0079
 50
270.0000000000259774
 51
351.9999999942469913
  0
LINE
  5
1A4FE
  8
0
 10
3410.3181080167628352
 20
208.2317241148840026
 30
0.0
 11
3410.3107641136812163
 21
208.2839787004824075
 31
0.0
  0
ARC
  5
1A4FF
  8
0
 10
3410.3259311345068454
 20
208.2328235823823093
 30
0.0
 40
0.0079
 50
188.0000000057385137
 51
270.0000000000521254
  0
LINE
  5
1A500
  8
0
 10
3410.6697114736880394
 20
208.2249235823823881
 30
0.0
 11
3410.5771469915380294
 21
208.2249235823823881
 31
0.0
  0
LINE
  5
1A501
  8
0
 10
3410.5693238737958382
 20
208.2317241148840026
 30
0.0
 11
3410.5619799707142192
 21
208.2839787004824075
 31
0.0
  0
LINE
  5
1A502
  8
0
 10
3410.6775345914320496
 20
208.2317241148840026
 30
0.0
 11
3410.6848784945141233
 21
208.2839787004824075
 31
0.0
  0
ARC
  5
1A503
  8
0
 10
3410.5771469915380294
 20
208.2328235823823093
 30
0.0
 40
0.0079
 50
188.0000000057385137
 51
270.0000000000521254
  0
ARC
  5
1A504
  8
0
 10
3410.6697114736880394
 20
208.2328235823823093
 30
0.0
 40
0.0079
 50
270.0000000000259774
 51
351.9999999942469913
  0
LINE
  5
1A505
  8
0
 10
3411.1749381747918051
 20
208.2317241148840026
 30
0.0
 11
3411.1675942717101861
 21
208.2839787004824075
 31
0.0
  0
LINE
  5
1A506
  8
0
 10
3411.2892222321279405
 20
208.2317241148840026
 30
0.0
 11
3411.2965661352100142
 21
208.2839787004824075
 31
0.0
  0
LINE
  5
1A507
  8
0
 10
3411.1810115144921838
 20
208.2317241148840026
 30
0.0
 11
3411.1736676114101101
 21
208.2839787004824075
 31
0.0
  0
LINE
  5
1A508
  8
0
 10
3412.0833269585600647
 20
208.2317241148840026
 30
0.0
 11
3412.075983055477991
 21
208.2839787004824075
 31
0.0
  0
LINE
  5
1A509
  8
0
 10
3412.5980122530781955
 20
208.2317241148840026
 30
0.0
 11
3412.5906683499961218
 21
208.2839787004824075
 31
0.0
  0
LINE
  5
1A50A
  8
0
 10
3412.7158389263781828
 20
208.2317241148840026
 30
0.0
 11
3412.7084950232951996
 21
208.2839787004824075
 31
0.0
  0
LINE
  5
1A50B
  8
0
 10
3413.3427231380028388
 20
208.2317241148840026
 30
0.0
 11
3413.3353792349212199
 21
208.2839787004824075
 31
0.0
  0
LINE
  5
1A50C
  8
0
 10
3413.5391467707731863
 20
208.2317241148840026
 30
0.0
 11
3413.5318028676911126
 21
208.2839787004824075
 31
0.0
  0
LINE
  5
1A50D
  8
0
 10
3413.6480297531770702
 20
208.2317241148840026
 30
0.0
 11
3413.6553736562591439
 21
208.2839787004824075
 31
0.0
  0
LINE
  5
1A50E
  8
0
 10
3413.7190070342771833
 20
208.2317241148840026
 30
0.0
 11
3413.7263509373601664
 21
208.2839787004824075
 31
0.0
  0
LINE
  5
1A50F
  8
0
 10
3413.4509338556381408
 20
208.2317241148840026
 30
0.0
 11
3413.458277758721124
 21
208.2839787004824075
 31
0.0
  0
LINE
  5
1A510
  8
0
 10
3412.82404964401303
 20
208.2317241148840026
 30
0.0
 11
3412.8313935470951037
 21
208.2839787004824075
 31
0.0
  0
LINE
  5
1A511
  8
0
 10
3412.2691548868638165
 20
208.2317241148840026
 30
0.0
 11
3412.2764987899458902
 21
208.2839787004824075
 31
0.0
  0
LINE
  5
1A512
  8
0
 10
3412.1922099409639486
 20
208.2317241148840026
 30
0.0
 11
3412.1995538440460223
 21
208.2839787004824075
 31
0.0
  0
LINE
  5
1A513
  8
0
 10
3411.4006770526279979
 20
208.2317241148840026
 30
0.0
 11
3411.4080209557100716
 21
208.2839787004824075
 31
0.0
  0
LINE
  5
1A514
  8
0
 10
3411.2813991143848398
 20
208.2249235823823881
 30
0.0
 11
3411.1827612925349058
 21
208.2249235823823881
 31
0.0
  0
LINE
  5
1A515
  8
0
 10
3411.3002894527357967
 20
208.2249235823823881
 30
0.0
 11
3411.3928539348848972
 21
208.2249235823823881
 31
0.0
  0
LINE
  5
1A516
  8
0
 10
3412.0911500763031654
 20
208.2249235823823881
 30
0.0
 11
3412.2613317691211705
 21
208.2249235823823881
 31
0.0
  0
LINE
  5
1A517
  8
0
 10
3412.6058353708208415
 20
208.2249235823823881
 30
0.0
 11
3412.698399852969942
 21
208.2249235823823881
 31
0.0
  0
LINE
  5
1A518
  8
0
 10
3412.7236620441208288
 20
208.2249235823823881
 30
0.0
 11
3412.8162265262699293
 21
208.2249235823823881
 31
0.0
  0
LINE
  5
1A519
  8
0
 10
3413.3505462557459396
 20
208.2249235823823881
 30
0.0
 11
3413.4431107378941306
 21
208.2249235823823881
 31
0.0
  0
LINE
  5
1A51A
  8
0
 10
3413.5469698885149228
 20
208.2249235823823881
 30
0.0
 11
3413.7111839165340825
 21
208.2249235823823881
 31
0.0
  0
ARC
  5
1A51B
  8
0
 10
3413.5469698885149228
 20
208.2328235823823093
 30
0.0
 40
0.0079
 50
188.0000000057889054
 51
270.0000000000259774
  0
ARC
  5
1A51C
  8
0
 10
3413.6402066354339695
 20
208.2328235823823093
 30
0.0
 40
0.0079
 50
269.9999999999739089
 51
351.999999994266318
  0
ARC
  5
1A51D
  8
0
 10
3413.7111839165340825
 20
208.2328235823823093
 30
0.0
 40
0.0079
 50
269.9999999999478746
 51
351.9999999942647264
  0
ARC
  5
1A51E
  8
0
 10
3413.4431107378941306
 20
208.2328235823823093
 30
0.0
 40
0.0079
 50
269.9999999999739089
 51
351.999999994266318
  0
ARC
  5
1A51F
  8
0
 10
3413.3505462557459396
 20
208.2328235823823093
 30
0.0
 40
0.0079
 50
188.0000000057856937
 51
270.0
  0
ARC
  5
1A520
  8
0
 10
3412.8162265262699293
 20
208.2328235823823093
 30
0.0
 40
0.0079
 50
269.9999999999739089
 51
351.999999994266318
  0
ARC
  5
1A521
  8
0
 10
3412.7236620441208288
 20
208.2328235823823093
 30
0.0
 40
0.0079
 50
188.0000000057873137
 51
270.0000000000259774
  0
ARC
  5
1A522
  8
0
 10
3412.6058353708208415
 20
208.2328235823823093
 30
0.0
 40
0.0079
 50
188.000000005757812
 51
270.0
  0
ARC
  5
1A523
  8
0
 10
3412.1843868232208479
 20
208.2328235823823093
 30
0.0
 40
0.0079
 50
269.9999999999739089
 51
351.999999994266318
  0
ARC
  5
1A524
  8
0
 10
3412.2613317691211705
 20
208.2328235823823093
 30
0.0
 40
0.0079
 50
269.9999999999739089
 51
351.9999999942904765
  0
ARC
  5
1A525
  8
0
 10
3412.0911500763031654
 20
208.2328235823823093
 30
0.0
 40
0.0079
 50
188.0000000057873137
 51
270.0000000000259774
  0
ARC
  5
1A526
  8
0
 10
3411.3928539348848972
 20
208.2328235823823093
 30
0.0
 40
0.0079
 50
269.9999999999739089
 51
351.9999999942888849
  0
ARC
  5
1A527
  8
0
 10
3411.1888346322348298
 20
208.2328235823823093
 30
0.0
 40
0.0079
 50
188.000000005735302
 51
270.0000000000259774
  0
ARC
  5
1A528
  8
0
 10
3411.1827612925349058
 20
208.2328235823823093
 30
0.0
 40
0.0079
 50
188.0000000057337104
 51
270.0000000000259774
  0
ARC
  5
1A529
  8
0
 10
3411.2813991143848398
 20
208.2328235823823093
 30
0.0
 40
0.0079
 50
269.9999999999739089
 51
351.9999999942647264
  0
LINE
  5
1A52A
  8
0
 10
3411.2924663349858747
 20
208.2317241149318079
 30
0.0
 11
3411.2908442835960159
 21
208.24326561078189
 31
0.0
  0
ARC
  5
1A52B
  8
0
 10
3411.3002894527357967
 20
208.2328235823823093
 30
0.0
 40
0.0079
 50
187.999999655792692
 51
270.0
  0
LINE
  5
1A52C
  8
0
 10
3412.7110309485751714
 20
208.2659346545399899
 30
0.0
 11
3412.7062229707112238
 21
208.2317241148705875
 31
0.0
  0
ARC
  5
1A52D
  8
0
 10
3412.698399852969942
 20
208.2328235823823093
 30
0.0
 40
0.0079
 50
270.0
 51
351.9999998957853791
  0
LINE
  5
1A52E
  8
0
 10
3409.668450586992094
 20
208.2317241148828941
 30
0.0
 11
3409.6611066839018349
 21
208.2839787004824075
 31
0.0
  0
LINE
  5
1A52F
  8
0
 10
3409.6820562875927862
 20
208.2317241148840026
 30
0.0
 11
3409.6747123845098031
 21
208.2839787004824075
 31
0.0
  0
LINE
  5
1A530
  8
0
 10
3409.6831591782929536
 20
208.2317241148840026
 30
0.0
 11
3409.6758152752099704
 21
208.2839787004824075
 31
0.0
  0
LINE
  5
1A531
  8
0
 10
3409.7913698959268913
 20
208.2317241148840026
 30
0.0
 11
3409.7987137990098745
 21
208.2839787004824075
 31
0.0
  0
LINE
  5
1A532
  8
0
 10
3409.7835467781851548
 20
208.2249235823823028
 30
0.0
 11
3409.6762737047351948
 21
208.2249235823823028
 31
0.0
  0
ARC
  5
1A533
  8
0
 10
3409.7835467781851548
 20
208.2328235823823093
 30
0.0
 40
0.0079
 50
269.9999999999478746
 51
351.999999994263078
  0
ARC
  5
1A534
  8
0
 10
3409.6909822960351448
 20
208.2328235823823093
 30
0.0
 40
0.0079
 50
188.0000000057110867
 51
270.0000000000259774
  0
ARC
  5
1A535
  8
0
 10
3409.6898794053349775
 20
208.2328235823823093
 30
0.0
 40
0.0079
 50
188.000000005735302
 51
270.0000000000259774
  0
ARC
  5
1A536
  8
0
 10
3409.6762737047351948
 20
208.2328235823823093
 30
0.0
 40
0.0079
 50
188.0000000136768108
 51
270.0000000000521254
  0
ARC
  5
1A537
  8
0
 10
3414.1333084648031218
 20
208.7642936611823927
 30
0.0
 40
0.3858267716999748
 50
250.9597699591720072
 51
270.0
  0
LINE
  5
1A538
  8
0
 10
3414.0074394381999809
 20
208.3995755701824066
 30
0.0
 11
3413.5668642958471537
 21
208.551623866336314
 31
0.0
  0
ARC
  5
1A539
  8
0
 10
3413.4255074682309896
 20
208.1419507033317018
 30
0.0
 40
0.4333749568213454
 50
70.9631177484148026
 51
89.6437588003130088
  0
LINE
  5
1A53A
  8
0
 10
3413.0294688230628708
 20
208.2317241148840026
 30
0.0
 11
3413.0221249199807971
 21
208.2839787004824075
 31
0.0
  0
LINE
  5
1A53B
  8
0
 10
3413.1376795406981728
 20
208.2317241148840026
 30
0.0
 11
3413.1450234437797917
 21
208.2839787004824075
 31
0.0
  0
LINE
  5
1A53C
  8
0
 10
3413.037291940805062
 20
208.2249235823823881
 30
0.0
 11
3413.129856422955072
 21
208.2249235823823881
 31
0.0
  0
ARC
  5
1A53D
  8
0
 10
3413.129856422955072
 20
208.2328235823823093
 30
0.0
 40
0.0079
 50
269.9999999999739089
 51
351.999999994266318
  0
ARC
  5
1A53E
  8
0
 10
3413.037291940805062
 20
208.2328235823823093
 30
0.0
 40
0.0079
 50
188.0000000057856937
 51
270.0
  0
LINE
  5
1A53F
  8
0
 10
3412.8688869517641251
 20
208.2317241148840026
 30
0.0
 11
3412.8615430486820514
 21
208.2839787004824075
 31
0.0
  0
LINE
  5
1A540
  8
0
 10
3412.9770976693998819
 20
208.2317241148840026
 30
0.0
 11
3412.9844415724819555
 21
208.2839787004824075
 31
0.0
  0
LINE
  5
1A541
  8
0
 10
3412.8767100695072259
 20
208.2249235823823881
 30
0.0
 11
3412.9692745516558716
 21
208.2249235823823881
 31
0.0
  0
ARC
  5
1A542
  8
0
 10
3412.9692745516558716
 20
208.2328235823823093
 30
0.0
 40
0.0079
 50
269.9999999999739089
 51
351.999999994266318
  0
ARC
  5
1A543
  8
0
 10
3412.8767100695072259
 20
208.2328235823823093
 30
0.0
 40
0.0079
 50
188.0000000057856937
 51
270.0
  0
LINE
  5
1A544
  8
0
 10
3412.4117874137191393
 20
208.2317241148840026
 30
0.0
 11
3412.4044435106370656
 21
208.2839787004824075
 31
0.0
  0
LINE
  5
1A545
  8
0
 10
3412.5199981313539865
 20
208.2317241148840026
 30
0.0
 11
3412.5273420344369697
 21
208.2839787004824075
 31
0.0
  0
LINE
  5
1A546
  8
0
 10
3412.4196105314617853
 20
208.2249235823823881
 30
0.0
 11
3412.5121750136108858
 21
208.2249235823823881
 31
0.0
  0
ARC
  5
1A547
  8
0
 10
3412.5121750136108858
 20
208.2328235823823093
 30
0.0
 40
0.0079
 50
269.9999999999739089
 51
351.999999994266318
  0
ARC
  5
1A548
  8
0
 10
3412.4196105314617853
 20
208.2328235823823093
 30
0.0
 40
0.0079
 50
188.0000000057856937
 51
270.0
  0
LINE
  5
1A549
  8
0
 10
3411.7977831273051379
 20
208.2317241148840026
 30
0.0
 11
3411.7904392242230642
 21
208.2839787004824075
 31
0.0
  0
LINE
  5
1A54A
  8
0
 10
3411.9059938449399851
 20
208.2317241148840026
 30
0.0
 11
3411.9133377480229683
 21
208.2839787004824075
 31
0.0
  0
LINE
  5
1A54B
  8
0
 10
3411.8056062450477839
 20
208.2249235823823881
 30
0.0
 11
3411.8981707271968844
 21
208.2249235823823881
 31
0.0
  0
ARC
  5
1A54C
  8
0
 10
3411.8981707271968844
 20
208.2328235823823093
 30
0.0
 40
0.0079
 50
269.9999999999739089
 51
351.999999994266318
  0
ARC
  5
1A54D
  8
0
 10
3411.8056062450477839
 20
208.2328235823823093
 30
0.0
 40
0.0079
 50
188.0000000057856937
 51
270.0
  0
LINE
  5
1A54E
  8
0
 10
3411.4659796915298102
 20
208.2317241148840026
 30
0.0
 11
3411.4586357884481913
 21
208.2839787004824075
 31
0.0
  0
LINE
  5
1A54F
  8
0
 10
3411.5802637488650362
 20
208.2317241148840026
 30
0.0
 11
3411.5876076519480193
 21
208.2839787004824075
 31
0.0
  0
LINE
  5
1A550
  8
0
 10
3411.4720530312301889
 20
208.2317241148840026
 30
0.0
 11
3411.4647091281481153
 21
208.2839787004824075
 31
0.0
  0
LINE
  5
1A551
  8
0
 10
3411.5724406311219354
 20
208.2249235823823881
 30
0.0
 11
3411.473802809272911
 21
208.2249235823823881
 31
0.0
  0
ARC
  5
1A552
  8
0
 10
3411.4798761489728349
 20
208.2328235823823093
 30
0.0
 40
0.0079
 50
188.000000005735302
 51
270.0000000000259774
  0
ARC
  5
1A553
  8
0
 10
3411.473802809272911
 20
208.2328235823823093
 30
0.0
 40
0.0079
 50
188.0000000057337104
 51
270.0000000000259774
  0
ARC
  5
1A554
  8
0
 10
3411.5724406311219354
 20
208.2328235823823093
 30
0.0
 40
0.0079
 50
269.9999999999739089
 51
351.9999999942647264
  0
LINE
  5
1A555
  8
0
 10
3410.7622028672731176
 20
208.2317241148840026
 30
0.0
 11
3410.7548589641910439
 21
208.2839787004824075
 31
0.0
  0
ARC
  5
1A556
  8
0
 10
3410.7700259850162183
 20
208.2328235823823093
 30
0.0
 40
0.0079
 50
188.0000000057337104
 51
270.0000000000259774
  0
LINE
  5
1A557
  8
0
 10
3410.7867605221322265
 20
208.2317241148840026
 30
0.0
 11
3410.7794166190501528
 21
208.2839787004824075
 31
0.0
  0
ARC
  5
1A558
  8
0
 10
3410.794583639875782
 20
208.2328235823823093
 30
0.0
 40
0.0079
 50
188.0000000057337104
 51
270.0000000000259774
  0
ARC
  5
1A559
  8
0
 10
3408.5440414929930739
 20
163.800386960029698
 30
0.0
 40
0.0319893728334751
 50
90.8982769399967054
 51
171.8009099871690069
  0
LINE
  5
1A55A
  8
0
 10
3408.5123790996599382
 20
163.6070858696936909
 30
0.0
 11
3410.2831264929600366
 21
163.6070858696936909
 31
0.0
  0
ARC
  5
1A55B
  8
0
 10
3409.1499000245389652
 20
163.7903360591782871
 30
0.0
 40
0.6633493835818715
 50
196.0411328472773107
 51
249.4763977457538999
  0
ARC
  5
1A55C
  8
0
 10
3409.393598424458105
 20
164.2160050510366034
 30
0.0
 40
1.216111608964056
 50
261.3600908699733054
 51
270.1957291048231014
  0
ARC
  5
1A55D
  8
0
 10
3409.2703330956128411
 20
163.4479869459777888
 30
0.0
 40
0.4383396465649373
 50
246.6692131860399115
 51
262.2086637048639091
  0
ARC
  5
1A55E
  8
0
 10
3409.1404010276360168
 20
163.1377819516615091
 30
0.0
 40
0.1021023721506713
 50
223.042323318643497
 51
244.6793562938449043
  0
ARC
  5
1A55F
  8
0
 10
3409.1181833738619389
 20
163.1248164937115064
 30
0.0
 40
0.0772249868120958
 50
209.447796462760607
 51
227.2667112119453918
  0
ARC
  5
1A560
  8
0
 10
3409.1035099652908684
 20
163.115953955115998
 30
0.0
 40
0.0600923416172781
 50
182.0688744606844978
 51
208.9675882081313034
  0
ARC
  5
1A561
  8
0
 10
3412.3077295446178141
 20
163.1305793619686995
 30
0.0
 40
3.2643159545040179
 50
179.0766758981883129
 51
180.2947860567026908
  0
ARC
  5
1A562
  8
0
 10
3409.0725305633468452
 20
163.1775403025748119
 30
0.0
 40
0.0292424403623068
 50
131.6321802715700926
 51
168.8768953309995027
  0
ARC
  5
1A563
  8
0
 10
3409.3927220812752239
 20
161.976493933878686
 30
0.0
 40
1.2886525439541421
 50
89.7796153113998514
 51
98.1504515584733355
  0
ARC
  5
1A564
  8
0
 10
3409.2955355644380688
 20
162.6498744094382971
 30
0.0
 40
0.608295776541333
 50
98.0809645516706041
 51
108.8229763106413941
  0
ARC
  5
1A565
  8
0
 10
3409.1425223031728819
 20
163.0958115888799114
 30
0.0
 40
0.1368416330860793
 50
108.4249659427918004
 51
130.8020462785719076
  0
ARC
  5
1A566
  8
0
 10
3409.4058885258191367
 20
161.109597786841988
 30
0.0
 40
2.189240546997703
 50
90.2148618238570634
 51
94.9550579996492132
  0
ARC
  5
1A567
  8
0
 10
3409.3185803233468505
 20
162.1386477144039873
 30
0.0
 40
1.1564968079170981
 50
95.0492667424903175
 51
104.3757101845604041
  0
ARC
  5
1A568
  8
0
 10
3409.1138431354470413
 20
162.9048249643537076
 30
0.0
 40
0.3635679763257313
 50
103.0989985646301932
 51
118.2750382539862954
  0
ARC
  5
1A569
  8
0
 10
3408.9802913582698238
 20
163.156846339555301
 30
0.0
 40
0.0783726604874245
 50
119.5667914248101056
 51
146.1291497410261968
  0
ARC
  5
1A56A
  8
0
 10
3408.9327775990582268
 20
163.1887391844076944
 30
0.0
 40
0.021147570996574
 50
146.1291497410288969
 51
188.6543870208705016
  0
ARC
  5
1A56B
  8
0
 10
3408.9627612083918393
 20
163.1933028955652105
 30
0.0
 40
0.0514765058305286
 50
188.6543870208705016
 51
227.914332025423704
  0
ARC
  5
1A56C
  8
0
 10
3409.1257230686201183
 20
163.4111895296711054
 30
0.0
 40
0.3233786038426683
 50
232.3651877055106922
 51
255.7729455774525036
  0
ARC
  5
1A56D
  8
0
 10
3409.025387924952156
 20
163.1615208692531098
 30
0.0
 40
0.0920866883317074
 50
110.6388085080569965
 51
146.7737551451716911
  0
ARC
  5
1A56E
  8
0
 10
3408.9691837163959462
 20
163.1983366529684076
 30
0.0
 40
0.0248980360908634
 50
146.7737551451716911
 51
216.7322402203485012
  0
ARC
  5
1A56F
  8
0
 10
3409.0888026840211751
 20
163.3187850934243102
 30
0.0
 40
0.194415611569423
 50
224.1176703247556929
 51
256.49892001433102
  0
ARC
  5
1A570
  8
0
 10
3409.397221888437798
 20
164.2653547549656139
 30
0.0
 40
1.260692089358934
 50
265.8329105498988838
 51
270.0241286365774727
  0
ARC
  5
1A571
  8
0
 10
3409.369371579924973
 20
163.8830998113390933
 30
0.0
 40
0.8774239304791356
 50
255.9333643715314963
 51
265.8329106284543855
  0
ARC
  5
1A572
  8
0
 10
3409.2007934860489513
 20
163.2103043763289918
 30
0.0
 40
0.18383019412808
 50
234.5710846796812064
 51
255.9333643715314963
  0
ARC
  5
1A573
  8
0
 10
3409.1061562061818222
 20
163.0803255315140063
 30
0.0
 40
0.0231258507108578
 50
142.6152049720575974
 51
238.9508351500689969
  0
ARC
  5
1A574
  8
0
 10
3409.1323268067130812
 20
163.0587453758365086
 30
0.0
 40
0.0570369482497579
 50
121.0961940744718959
 51
141.3522012881728074
  0
ARC
  5
1A575
  8
0
 10
3409.2403886506308481
 20
162.8549023787219028
 30
0.0
 40
0.2876819149527858
 50
99.9716029569203357
 51
118.5567033813453008
  0
ARC
  5
1A576
  8
0
 10
3409.3731717555428986
 20
162.2220992397631107
 30
0.0
 40
0.9341590807371504
 50
92.6133426296154454
 51
101.2720589207099948
  0
ARC
  5
1A577
  8
0
 10
3409.3971963556150513
 20
161.9007800400711972
 30
0.0
 40
1.2562743046086291
 50
89.9746220197947082
 51
93.0397268189106228
  0
ARC
  5
1A578
  8
0
 10
3409.2301424441279778
 20
162.8381940409055062
 30
0.0
 40
0.3079185733781986
 50
101.2096682715002061
 51
117.9132074917645951
  0
ARC
  5
1A579
  8
0
 10
3409.1099567599380862
 20
163.0650588246761004
 30
0.0
 40
0.0511848031035646
 50
117.9132074917645951
 51
151.0009783027730066
  0
ARC
  5
1A57A
  8
0
 10
3409.083406580683004
 20
163.0797752367361966
 30
0.0
 40
0.0208288349521736
 50
151.0009783027745129
 51
221.1572083174646082
  0
ARC
  5
1A57B
  8
0
 10
3409.3890049711881147
 20
162.0033558628115031
 30
0.0
 40
1.285672956155109
 50
89.6134498459259845
 51
100.0169247153381065
  0
ARC
  5
1A57C
  8
0
 10
3409.2070694011231353
 20
162.9583942032010953
 30
0.0
 40
0.3138183145326711
 50
97.6347619112184191
 51
123.0991903783523043
  0
ARC
  5
1A57D
  8
0
 10
3409.052660167275917
 20
163.1981716239583875
 30
0.0
 40
0.0286730472413608
 50
126.2727965752391981
 51
193.0446837474104029
  0
ARC
  5
1A57E
  8
0
 10
3409.0779842127039956
 20
163.2154930393373036
 30
0.0
 40
0.0583304694855221
 50
204.0732375281608881
 51
233.9194647644640952
  0
ARC
  5
1A57F
  8
0
 10
3409.1702931704039656
 20
163.192705535147411
 30
0.0
 40
0.1196783346568372
 50
230.2212477987143018
 51
245.775322122238407
  0
ARC
  5
1A580
  8
0
 10
3409.4002950680837785
 20
163.6126875281038053
 30
0.0
 40
0.5982233072538916
 50
242.1886894468478886
 51
246.0073642250353885
  0
ARC
  5
1A581
  8
0
 10
3409.3816847844718723
 20
163.5518748776337077
 30
0.0
 40
0.535153471477344
 50
245.1802345789153037
 51
260.9858305285185907
  0
ARC
  5
1A582
  8
0
 10
3409.3925280614939766
 20
163.5431048886403005
 30
0.0
 40
0.5283289042506463
 50
259.6753024528949823
 51
270.5666169902165166
  0
ARC
  5
1A583
  8
0
 10
3409.3977527963102148
 20
163.6527031537665948
 30
0.0
 40
0.6058229244783571
 50
258.3491611273410058
 51
281.6508388726589942
  0
ARC
  5
1A584
  8
0
 10
3409.396961316685065
 20
163.648936434515889
 30
0.0
 40
0.6019739762488153
 50
249.8250313368862123
 51
258.3505407196204828
  0
ARC
  5
1A585
  8
0
 10
3409.3950672749037949
 20
163.6437816314038116
 30
0.0
 40
0.5964822197544738
 50
247.3657367265587084
 51
249.8250313368862123
  0
ARC
  5
1A586
  8
0
 10
3409.1964696252812246
 20
163.0645270702210894
 30
0.0
 40
0.042223023496074
 50
126.5363961272176994
 51
137.1533912834046873
  0
LINE
  5
1A587
  8
0
 10
3409.1713328532600826
 20
163.0984523764919061
 30
0.0
 11
3409.1651997826747902
 21
163.100984895391889
 31
0.0
  0
LINE
  5
1A588
  8
0
 10
3409.1651997827598279
 20
163.1009848953563903
 30
0.0
 11
3409.1553572630618874
 21
163.0991072735776015
 31
0.0
  0
LINE
  5
1A589
  8
0
 10
3409.1553572630618874
 20
163.0991072735776015
 30
0.0
 11
3409.1651997826770639
 21
163.0893234994624947
 31
0.0
  0
LINE
  5
1A58A
  8
0
 10
3409.1651997826770639
 20
163.0893234994624947
 30
0.0
 11
3409.1845921716339944
 21
163.0816351950282126
 31
0.0
  0
LINE
  5
1A58B
  8
0
 10
3409.1845921716339944
 20
163.0816351950282126
 30
0.0
 11
3409.1848848221438857
 21
163.0817783053840913
 31
0.0
  0
LINE
  5
1A58C
  8
0
 10
3409.1848848221438857
 20
163.0817783053840913
 30
0.0
 11
3409.1878444189110269
 21
163.0844519196620013
 31
0.0
  0
LINE
  5
1A58D
  8
0
 10
3409.37806806026083
 20
163.128875485587713
 30
0.0
 11
3409.3879105799601348
 21
163.1397829147919083
 31
0.0
  0
LINE
  5
1A58E
  8
0
 10
3409.3879105799601348
 20
163.1397829147919083
 30
0.0
 11
3409.4075956193601087
 21
163.1397829146916081
 31
0.0
  0
LINE
  5
1A58F
  8
0
 10
3409.407595619427866
 20
163.1180537242512969
 30
0.0
 11
3409.3879105799601348
 21
163.1180537241918955
 31
0.0
  0
LINE
  5
1A590
  8
0
 10
3409.3879105799601348
 20
163.1180537241918955
 30
0.0
 11
3409.3780680602699249
 21
163.1288754856012133
 31
0.0
  0
LINE
  5
1A591
  8
0
 10
3409.3879105799601348
 20
163.1397829147919083
 30
0.0
 11
3409.3879105799601348
 21
163.1180537241918955
 31
0.0
  0
LINE
  5
1A592
  8
0
 10
3409.3780680602549182
 20
163.0964827544241018
 30
0.0
 11
3409.3879105801538572
 21
163.1055095834728945
 31
0.0
  0
LINE
  5
1A593
  8
0
 10
3409.3879105801538572
 20
163.1055095834728945
 30
0.0
 11
3409.407595619345102
 21
163.1055095834095141
 31
0.0
  0
LINE
  5
1A594
  8
0
 10
3409.4075956196211337
 20
163.0875019152512095
 30
0.0
 11
3409.3879105801538572
 21
163.0875019151918934
 31
0.0
  0
LINE
  5
1A595
  8
0
 10
3409.3879105801538572
 20
163.0875019151918934
 30
0.0
 11
3409.3780680602649227
 21
163.0964827544376021
 31
0.0
  0
LINE
  5
1A596
  8
0
 10
3409.3879105801538572
 20
163.1055095834728945
 30
0.0
 11
3409.3879105801538572
 21
163.0875019151918934
 31
0.0
  0
LINE
  5
1A597
  8
0
 10
3409.3780680602449138
 20
163.0698862967601883
 30
0.0
 11
3409.3879105803198399
 21
163.0771974214922011
 31
0.0
  0
LINE
  5
1A598
  8
0
 10
3409.3879105803198399
 20
163.0771974214922011
 30
0.0
 11
3409.4075956197198138
 21
163.077197420928286
 31
0.0
  0
LINE
  5
1A599
  8
0
 10
3409.4075956197880259
 20
163.0625974097513051
 30
0.0
 11
3409.3879105803198399
 21
163.0625974096919037
 31
0.0
  0
LINE
  5
1A59A
  8
0
 10
3409.3879105803198399
 20
163.0625974096919037
 30
0.0
 11
3409.3780680602549182
 21
163.0698862967736886
 31
0.0
  0
LINE
  5
1A59B
  8
0
 10
3409.3879105803198399
 20
163.0771974214922011
 30
0.0
 11
3409.3879105803198399
 21
163.0625974096919037
 31
0.0
  0
LINE
  5
1A59C
  8
0
 10
3409.3502292106381901
 20
163.1135526689216135
 30
0.0
 11
3409.3600717303029342
 21
163.1230281805663935
 31
0.0
  0
LINE
  5
1A59D
  8
0
 10
3409.3600717303029342
 20
163.1230281805663935
 30
0.0
 11
3409.3797567698588864
 21
163.1220621455427988
 31
0.0
  0
LINE
  5
1A59E
  8
0
 10
3409.3797567698588864
 20
163.1220621455427988
 30
0.0
 11
3409.389599289384023
 21
163.1116414401348891
 31
0.0
  0
LINE
  5
1A59F
  8
0
 10
3409.389599289384023
 20
163.1116414401348891
 30
0.0
 11
3409.3797567696938131
 21
163.1022370853353891
 31
0.0
  0
LINE
  5
1A5A0
  8
0
 10
3409.3797567696938131
 20
163.1022370853353891
 30
0.0
 11
3409.3601055233639272
 21
163.1031804092874893
 31
0.0
  0
LINE
  5
1A5A1
  8
0
 10
3409.3601055233639272
 20
163.1031804092874893
 30
0.0
 11
3409.3502292106481946
 21
163.1135526689351138
 31
0.0
  0
LINE
  5
1A5A2
  8
0
 10
3409.3600717303029342
 20
163.1230281805663935
 30
0.0
 11
3409.3601055233639272
 21
163.1031804092874893
 31
0.0
  0
LINE
  5
1A5A3
  8
0
 10
3409.3797567696260558
 20
163.1022370852604126
 30
0.0
 11
3409.3797567698588864
 21
163.1220621455427988
 31
0.0
  0
LINE
  5
1A5A4
  8
0
 10
3409.3223903610150956
 20
163.1335936164105931
 30
0.0
 11
3409.3322328806598307
 21
163.1435691899775975
 31
0.0
  0
LINE
  5
1A5A5
  8
0
 10
3409.3322328806598307
 20
163.1435691899775975
 30
0.0
 11
3409.3519179200598046
 21
163.1415877828918894
 31
0.0
  0
LINE
  5
1A5A6
  8
0
 10
3409.3519179200598046
 20
163.1415877828918894
 30
0.0
 11
3409.3617604397068135
 21
163.1296820013272963
 31
0.0
  0
LINE
  5
1A5A7
  8
0
 10
3409.3617604397068135
 20
163.1296820013272963
 30
0.0
 11
3409.351880685568176
 21
163.1198161399198909
 31
0.0
  0
LINE
  5
1A5A8
  8
0
 10
3409.351880685568176
 20
163.1198161399198909
 30
0.0
 11
3409.3322658881352254
 21
163.1217404764460071
 31
0.0
  0
LINE
  5
1A5A9
  8
0
 10
3409.3322658881352254
 20
163.1217404764460071
 30
0.0
 11
3409.3223903610251
 21
163.1335936164240934
 31
0.0
  0
LINE
  5
1A5AA
  8
0
 10
3409.3322328806598307
 20
163.1435691899775975
 30
0.0
 11
3409.3322658881352254
 21
163.1217404764460071
 31
0.0
  0
LINE
  5
1A5AB
  8
0
 10
3409.3518806854999639
 20
163.119816139844886
 30
0.0
 11
3409.3519179200598046
 21
163.1415877828918894
 31
0.0
  0
LINE
  5
1A5AC
  8
0
 10
3409.322390360972804
 20
163.1010369585866044
 30
0.0
 11
3409.3319848795231337
 21
163.1089369190067089
 31
0.0
  0
LINE
  5
1A5AD
  8
0
 10
3409.3319848795231337
 20
163.1089369190067089
 30
0.0
 11
3409.3519179202098712
 21
163.1072452522230094
 31
0.0
  0
LINE
  5
1A5AE
  8
0
 10
3409.3519179202098712
 20
163.1072452522230094
 30
0.0
 11
3409.3617604397441028
 21
163.0972614449576952
 31
0.0
  0
LINE
  5
1A5AF
  8
0
 10
3409.3617604397441028
 20
163.0972614449576952
 30
0.0
 11
3409.3519179199552127
 21
163.0892042962310029
 31
0.0
  0
LINE
  5
1A5B0
  8
0
 10
3409.3519179199552127
 20
163.0892042962310029
 30
0.0
 11
3409.3325168905421378
 21
163.0910435811838965
 31
0.0
  0
LINE
  5
1A5B1
  8
0
 10
3409.3325168905421378
 20
163.0910435811838965
 30
0.0
 11
3409.3223903609828085
 21
163.1010369586001048
 31
0.0
  0
LINE
  5
1A5B2
  8
0
 10
3409.3319848795231337
 20
163.1089369190067089
 30
0.0
 11
3409.3325168905421378
 21
163.0910435811838965
 31
0.0
  0
LINE
  5
1A5B3
  8
0
 10
3409.3519179198870006
 20
163.089204296155998
 30
0.0
 11
3409.3519179202098712
 21
163.1072452522230094
 31
0.0
  0
LINE
  5
1A5B4
  8
0
 10
3409.2945515112801331
 20
163.1209331790838064
 30
0.0
 11
3409.30439403093078
 21
163.1295040529176958
 31
0.0
  0
LINE
  5
1A5B5
  8
0
 10
3409.30439403093078
 20
163.1295040529176958
 30
0.0
 11
3409.324079070398966
 21
163.1265758210944057
 31
0.0
  0
LINE
  5
1A5B6
  8
0
 10
3409.324079070398966
 20
163.1265758210944057
 30
0.0
 11
3409.3339215900741692
 21
163.1151411310042931
 31
0.0
  0
LINE
  5
1A5B7
  8
0
 10
3409.3339215900741692
 20
163.1151411310042931
 30
0.0
 11
3409.3240790703598577
 21
163.1066542941919124
 31
0.0
  0
LINE
  5
1A5B8
  8
0
 10
3409.3240790703598577
 20
163.1066542941919124
 30
0.0
 11
3409.3043940310071775
 21
163.1095190885552881
 31
0.0
  0
LINE
  5
1A5B9
  8
0
 10
3409.3043940310071775
 20
163.1095190885552881
 30
0.0
 11
3409.2945515112901376
 21
163.120933179097193
 31
0.0
  0
LINE
  5
1A5BA
  8
0
 10
3409.30439403093078
 20
163.1295040529176958
 30
0.0
 11
3409.3043940310071775
 21
163.1095190885552881
 31
0.0
  0
LINE
  5
1A5BB
  8
0
 10
3409.3240790702911909
 20
163.1066542941169075
 30
0.0
 11
3409.324079070398966
 21
163.1265758210944057
 31
0.0
  0
LINE
  5
1A5BC
  8
0
 10
3409.2945515113178772
 20
163.091239475715895
 30
0.0
 11
3409.3043940309989921
 21
163.0980357818085054
 31
0.0
  0
LINE
  5
1A5BD
  8
0
 10
3409.3043940309989921
 20
163.0980357818085054
 30
0.0
 11
3409.3240790705581276
 21
163.0952037261313023
 31
0.0
  0
LINE
  5
1A5BE
  8
0
 10
3409.3240790705581276
 20
163.0952037261313023
 30
0.0
 11
3409.3339215900978161
 21
163.0856172043874892
 31
0.0
  0
LINE
  5
1A5BF
  8
0
 10
3409.3339215900978161
 20
163.0856172043874892
 30
0.0
 11
3409.3240790703598577
 21
163.0788607557919079
 31
0.0
  0
LINE
  5
1A5C0
  8
0
 10
3409.3240790703598577
 20
163.0788607557919079
 30
0.0
 11
3409.304420177564225
 21
163.0816472212910924
 31
0.0
  0
LINE
  5
1A5C1
  8
0
 10
3409.304420177564225
 20
163.0816472212910924
 30
0.0
 11
3409.2945515113278816
 21
163.09123947572931
 31
0.0
  0
LINE
  5
1A5C2
  8
0
 10
3409.3043940309989921
 20
163.0980357818085054
 30
0.0
 11
3409.304420177564225
 21
163.0816472212910924
 31
0.0
  0
LINE
  5
1A5C3
  8
0
 10
3409.3240790702911909
 20
163.078860755716903
 30
0.0
 11
3409.3240790705581276
 21
163.0952037261313023
 31
0.0
  0
LINE
  5
1A5C4
  8
0
 10
3409.3502292106400091
 20
163.084129638439407
 30
0.0
 11
3409.3600748530511737
 21
163.091771059041406
 31
0.0
  0
LINE
  5
1A5C5
  8
0
 10
3409.3600748530511737
 20
163.091771059041406
 30
0.0
 11
3409.3797013482108014
 21
163.090838037916086
 31
0.0
  0
LINE
  5
1A5C6
  8
0
 10
3409.3797013482108014
 20
163.090838037916086
 30
0.0
 11
3409.3895992893872062
 21
163.0822184096525973
 31
0.0
  0
LINE
  5
1A5C7
  8
0
 10
3409.3895992893872062
 20
163.0822184096525973
 30
0.0
 11
3409.3797567697538398
 21
163.0745564507213885
 31
0.0
  0
LINE
  5
1A5C8
  8
0
 10
3409.3797567697538398
 20
163.0745564507213885
 30
0.0
 11
3409.3601025972270691
 21
163.0754759963841138
 31
0.0
  0
LINE
  5
1A5C9
  8
0
 10
3409.3601025972270691
 20
163.0754759963841138
 30
0.0
 11
3409.3502292106500136
 21
163.0841296384529073
 31
0.0
  0
LINE
  5
1A5CA
  8
0
 10
3409.3600748530511737
 20
163.091771059041406
 30
0.0
 11
3409.3601025972270691
 21
163.0754759963841138
 31
0.0
  0
LINE
  5
1A5CB
  8
0
 10
3409.3797567696851729
 20
163.074556450646412
 30
0.0
 11
3409.3797013482108014
 21
163.090838037916086
 31
0.0
  0
LINE
  5
1A5CC
  8
0
 10
3409.3223903610110028
 20
163.0743333462690998
 30
0.0
 11
3409.3322328806598307
 21
163.0807407566919096
 31
0.0
  0
LINE
  5
1A5CD
  8
0
 10
3409.3322328806598307
 20
163.0807407566919096
 30
0.0
 11
3409.3519179200598046
 21
163.0788868815918988
 31
0.0
  0
LINE
  5
1A5CE
  8
0
 10
3409.3519179200598046
 20
163.0788868815918988
 30
0.0
 11
3409.3617604397281866
 21
163.0706467874761074
 31
0.0
  0
LINE
  5
1A5CF
  8
0
 10
3409.3617604397281866
 20
163.0706467874761074
 30
0.0
 11
3409.3519179201298357
 21
163.0642635474239057
 31
0.0
  0
LINE
  5
1A5D0
  8
0
 10
3409.3519179201298357
 20
163.0642635474239057
 30
0.0
 11
3409.332260020474223
 21
163.0660934180855008
 31
0.0
  0
LINE
  5
1A5D1
  8
0
 10
3409.332260020474223
 20
163.0660934180855008
 30
0.0
 11
3409.3223903610210073
 21
163.0743333462824864
 31
0.0
  0
LINE
  5
1A5D2
  8
0
 10
3409.3322328806598307
 20
163.0807407566919096
 30
0.0
 11
3409.332260020474223
 21
163.0660934180855008
 31
0.0
  0
LINE
  5
1A5D3
  8
0
 10
3409.3519179200620783
 20
163.0642635473489008
 30
0.0
 11
3409.3519179200598046
 21
163.0788868815918988
 31
0.0
  0
LINE
  5
1A5D4
  8
0
 10
3409.211034962355825
 20
163.1268696370800058
 30
0.0
 11
3409.220877482026026
 21
163.1331821137738132
 31
0.0
  0
LINE
  5
1A5D5
  8
0
 10
3409.220877482026026
 20
163.1331821137738132
 30
0.0
 11
3409.2405625214810243
 21
163.1272253686803992
 31
0.0
  0
LINE
  5
1A5D6
  8
0
 10
3409.2405625214810243
 20
163.1272253686803992
 30
0.0
 11
3409.2504050410839227
 21
163.115072120227893
 31
0.0
  0
LINE
  5
1A5D7
  8
0
 10
3409.2504050410839227
 20
163.115072120227893
 30
0.0
 11
3409.2405625213891653
 21
163.1088170789618061
 31
0.0
  0
LINE
  5
1A5D8
  8
0
 10
3409.2405625213891653
 20
163.1088170789618061
 30
0.0
 11
3409.220877482060132
 21
163.114658968891888
 31
0.0
  0
LINE
  5
1A5D9
  8
0
 10
3409.220877482060132
 20
163.114658968891888
 30
0.0
 11
3409.2110349623671937
 21
163.1268696370933924
 31
0.0
  0
LINE
  5
1A5DA
  8
0
 10
3409.220877482026026
 20
163.1331821137738132
 30
0.0
 11
3409.220877482060132
 21
163.114658968891888
 31
0.0
  0
LINE
  5
1A5DB
  8
0
 10
3409.2405625213209532
 20
163.1088170788868013
 30
0.0
 11
3409.2405625214810243
 21
163.1272253686803992
 31
0.0
  0
LINE
  5
1A5DC
  8
0
 10
3409.1553572630728013
 20
163.1210698981194867
 30
0.0
 11
3409.1651997827520972
 21
163.1246535670404114
 31
0.0
  0
LINE
  5
1A5DD
  8
0
 10
3409.1651997827520972
 20
163.1246535670404114
 30
0.0
 11
3409.1846590333179847
 21
163.1167380153991076
 31
0.0
  0
LINE
  5
1A5DE
  8
0
 10
3409.1846590333179847
 20
163.1167380153991076
 30
0.0
 11
3409.1947273417358701
 21
163.1051696435247038
 31
0.0
  0
LINE
  5
1A5DF
  8
0
 10
3409.1947273417358701
 20
163.1051696435247038
 30
0.0
 11
3409.1848848219951833
 21
163.101570207642709
 31
0.0
  0
LINE
  5
1A5E0
  8
0
 10
3409.1848848219951833
 20
163.101570207642709
 30
0.0
 11
3409.1651997827598279
 21
163.1094674497919073
 31
0.0
  0
LINE
  5
1A5E1
  8
0
 10
3409.1651997827598279
 20
163.1094674497919073
 30
0.0
 11
3409.1553572630818962
 21
163.121069898132987
 31
0.0
  0
LINE
  5
1A5E2
  8
0
 10
3409.1651997827520972
 20
163.1246535670404114
 30
0.0
 11
3409.1651997827598279
 21
163.1094674497919073
 31
0.0
  0
LINE
  5
1A5E3
  8
0
 10
3409.1848848219269712
 20
163.1015702075677041
 30
0.0
 11
3409.1846590333179847
 21
163.1167380153991076
 31
0.0
  0
LINE
  5
1A5E4
  8
0
 10
3409.1831961126890747
 20
163.1225408467686862
 30
0.0
 11
3409.1930386323879247
 21
163.1274949787004971
 31
0.0
  0
LINE
  5
1A5E5
  8
0
 10
3409.1930386323879247
 20
163.1274949787004971
 30
0.0
 11
3409.2127468805688295
 21
163.1205093322348887
 31
0.0
  0
LINE
  5
1A5E6
  8
0
 10
3409.2127468805688295
 20
163.1205093322348887
 30
0.0
 11
3409.2225661914740158
 21
163.1087401437100937
 31
0.0
  0
LINE
  5
1A5E7
  8
0
 10
3409.2225661914740158
 20
163.1087401437100937
 30
0.0
 11
3409.2127236717401502
 21
163.1038088737547014
 31
0.0
  0
LINE
  5
1A5E8
  8
0
 10
3409.2127236717401502
 20
163.1038088737547014
 30
0.0
 11
3409.193343188423114
 21
163.1105413190541924
 31
0.0
  0
LINE
  5
1A5E9
  8
0
 10
3409.193343188423114
 20
163.1105413190541924
 30
0.0
 11
3409.1831961126999886
 21
163.1225408467821865
 31
0.0
  0
LINE
  5
1A5EA
  8
0
 10
3409.1930386323879247
 20
163.1274949787004971
 30
0.0
 11
3409.193343188423114
 21
163.1105413190541924
 31
0.0
  0
LINE
  5
1A5EB
  8
0
 10
3409.2127236716719381
 20
163.1038088736796965
 30
0.0
 11
3409.2127468805688295
 21
163.1205093322348887
 31
0.0
  0
LINE
  5
1A5EC
  8
0
 10
3409.2110349623840193
 20
163.0995239546209916
 30
0.0
 11
3409.2208774821287989
 21
163.1040978056803112
 31
0.0
  0
LINE
  5
1A5ED
  8
0
 10
3409.2208774821287989
 20
163.1040978056803112
 30
0.0
 11
3409.240562521396896
 21
163.0983138855424954
 31
0.0
  0
LINE
  5
1A5EE
  8
0
 10
3409.240562521396896
 20
163.0983138855424954
 30
0.0
 11
3409.250405041112117
 21
163.0880271320347106
 31
0.0
  0
LINE
  5
1A5EF
  8
0
 10
3409.250405041112117
 20
163.0880271320347106
 30
0.0
 11
3409.2405625214601059
 21
163.0835296009717865
 31
0.0
  0
LINE
  5
1A5F0
  8
0
 10
3409.2405625214601059
 20
163.0835296009717865
 30
0.0
 11
3409.220877482060132
 21
163.0891762083919048
 31
0.0
  0
LINE
  5
1A5F1
  8
0
 10
3409.220877482060132
 20
163.0891762083919048
 30
0.0
 11
3409.2110349623940238
 21
163.0995239546344919
 31
0.0
  0
LINE
  5
1A5F2
  8
0
 10
3409.2208774821287989
 20
163.1040978056803112
 30
0.0
 11
3409.220877482060132
 21
163.0891762083919048
 31
0.0
  0
LINE
  5
1A5F3
  8
0
 10
3409.2405625213918938
 20
163.0835296008966964
 30
0.0
 11
3409.240562521396896
 21
163.0983138855424954
 31
0.0
  0
LINE
  5
1A5F4
  8
0
 10
3409.2388738119989284
 20
163.1039259507263921
 30
0.0
 11
3409.2487163317600789
 21
163.1098176715499051
 31
0.0
  0
LINE
  5
1A5F5
  8
0
 10
3409.2487163317600789
 20
163.1098176715499051
 30
0.0
 11
3409.2684013710600084
 21
163.1050025116574886
 31
0.0
  0
LINE
  5
1A5F6
  8
0
 10
3409.2684013710600084
 20
163.1050025116574886
 30
0.0
 11
3409.2782438907379401
 21
163.0943694472605046
 31
0.0
  0
LINE
  5
1A5F7
  8
0
 10
3409.2782438907379401
 20
163.0943694472605046
 30
0.0
 11
3409.2684013711877924
 21
163.0885143570122864
 31
0.0
  0
LINE
  5
1A5F8
  8
0
 10
3409.2684013711877924
 20
163.0885143570122864
 30
0.0
 11
3409.2487163315931866
 21
163.0932562621958084
 31
0.0
  0
LINE
  5
1A5F9
  8
0
 10
3409.2487163315931866
 20
163.0932562621958084
 30
0.0
 11
3409.2388738120089329
 21
163.1039259507398924
 31
0.0
  0
LINE
  5
1A5FA
  8
0
 10
3409.2487163317600789
 20
163.1098176715499051
 30
0.0
 11
3409.2487163315931866
 21
163.0932562621958084
 31
0.0
  0
LINE
  5
1A5FB
  8
0
 10
3409.268401371120035
 20
163.0885143569373099
 30
0.0
 11
3409.2684013710600084
 21
163.1050025116574886
 31
0.0
  0
LINE
  5
1A5FC
  8
0
 10
3409.2667126617170652
 20
163.1110603052376007
 30
0.0
 11
3409.2765551813599814
 21
163.1182774546356882
 31
0.0
  0
LINE
  5
1A5FD
  8
0
 10
3409.2765551813599814
 20
163.1182774546356882
 30
0.0
 11
3409.2962402207599553
 21
163.114409453520409
 31
0.0
  0
LINE
  5
1A5FE
  8
0
 10
3409.2962402207599553
 20
163.114409453520409
 30
0.0
 11
3409.3060827403851363
 21
163.1033959994954898
 31
0.0
  0
LINE
  5
1A5FF
  8
0
 10
3409.3060827403851363
 20
163.1033959994954898
 30
0.0
 11
3409.2962402207599553
 21
163.0962398504919122
 31
0.0
  0
LINE
  5
1A600
  8
0
 10
3409.2962402207599553
 20
163.0962398504919122
 30
0.0
 11
3409.2765551813681668
 21
163.1000369920820106
 31
0.0
  0
LINE
  5
1A601
  8
0
 10
3409.2765551813681668
 20
163.1000369920820106
 30
0.0
 11
3409.2667126617270696
 21
163.111060305251101
 31
0.0
  0
LINE
  5
1A602
  8
0
 10
3409.2765551813599814
 20
163.1182774546356882
 30
0.0
 11
3409.2765551813681668
 21
163.1000369920820106
 31
0.0
  0
LINE
  5
1A603
  8
0
 10
3409.2962402206921979
 20
163.0962398504169073
 30
0.0
 11
3409.2962402207599553
 21
163.114409453520409
 31
0.0
  0
LINE
  5
1A604
  8
0
 10
3409.2667126616402129
 20
163.0841146585939043
 30
0.0
 11
3409.2765551813831735
 21
163.0896186063847892
 31
0.0
  0
LINE
  5
1A605
  8
0
 10
3409.2765551813831735
 20
163.0896186063847892
 30
0.0
 11
3409.2962402207599553
 21
163.0858573078922973
 31
0.0
  0
LINE
  5
1A606
  8
0
 10
3409.2962402207599553
 20
163.0858573078922973
 30
0.0
 11
3409.3060827403601252
 21
163.0766361995032128
 31
0.0
  0
LINE
  5
1A607
  8
0
 10
3409.3060827403601252
 20
163.0766361995032128
 30
0.0
 11
3409.2959254911029348
 21
163.0712082798557958
 31
0.0
  0
LINE
  5
1A608
  8
0
 10
3409.2959254911029348
 20
163.0712082798557958
 30
0.0
 11
3409.2765551813490674
 21
163.0748716111222905
 31
0.0
  0
LINE
  5
1A609
  8
0
 10
3409.2765551813490674
 20
163.0748716111222905
 30
0.0
 11
3409.2667126616502173
 21
163.0841146586074046
 31
0.0
  0
LINE
  5
1A60A
  8
0
 10
3409.2765551813831735
 20
163.0896186063847892
 30
0.0
 11
3409.2765551813490674
 21
163.0748716111222905
 31
0.0
  0
LINE
  5
1A60B
  8
0
 10
3409.2959254910338132
 20
163.0712082797807909
 30
0.0
 11
3409.2962402207599553
 21
163.0858573078922973
 31
0.0
  0
LINE
  5
1A60C
  8
0
 10
3409.2667126617111535
 20
163.1439881405613903
 30
0.0
 11
3409.276710498320881
 21
163.1512027587342004
 31
0.0
  0
LINE
  5
1A60D
  8
0
 10
3409.276710498320881
 20
163.1512027587342004
 30
0.0
 11
3409.2962402207531341
 21
163.1490426537791905
 31
0.0
  0
LINE
  5
1A60E
  8
0
 10
3409.2962402207531341
 20
163.1490426537791905
 30
0.0
 11
3409.3060827404638076
 21
163.1360387123079931
 31
0.0
  0
LINE
  5
1A60F
  8
0
 10
3409.3060827404638076
 20
163.1360387123079931
 30
0.0
 11
3409.2962402207031118
 21
163.1270770067891078
 31
0.0
  0
LINE
  5
1A610
  8
0
 10
3409.2962402207031118
 20
163.1270770067891078
 30
0.0
 11
3409.2765551813599814
 21
163.1309999603919039
 31
0.0
  0
LINE
  5
1A611
  8
0
 10
3409.2765551813599814
 20
163.1309999603919039
 30
0.0
 11
3409.2667126617220674
 21
163.1439881405748054
 31
0.0
  0
LINE
  5
1A612
  8
0
 10
3409.276710498320881
 20
163.1512027587342004
 30
0.0
 11
3409.2765551813599814
 21
163.1309999603919039
 31
0.0
  0
LINE
  5
1A613
  8
0
 10
3409.2962402206348997
 20
163.1270770067141029
 30
0.0
 11
3409.2962402207531341
 21
163.1490426537791905
 31
0.0
  0
LINE
  5
1A614
  8
0
 10
3409.2388738119761911
 20
163.134016481526487
 30
0.0
 11
3409.2487163317478007
 21
163.1416976019038998
 31
0.0
  0
LINE
  5
1A615
  8
0
 10
3409.2487163317478007
 20
163.1416976019038998
 30
0.0
 11
3409.2684013710600084
 21
163.1367119064223061
 31
0.0
  0
LINE
  5
1A616
  8
0
 10
3409.2684013710600084
 20
163.1367119064223061
 30
0.0
 11
3409.2782438907302094
 21
163.1241592560853917
 31
0.0
  0
LINE
  5
1A617
  8
0
 10
3409.2782438907302094
 20
163.1241592560853917
 30
0.0
 11
3409.2684013710600084
 21
163.1165678466915097
 31
0.0
  0
LINE
  5
1A618
  8
0
 10
3409.2684013710600084
 20
163.1165678466915097
 30
0.0
 11
3409.2487163317600789
 21
163.1214409767183895
 31
0.0
  0
LINE
  5
1A619
  8
0
 10
3409.2487163317600789
 20
163.1214409767183895
 30
0.0
 11
3409.2388738119861955
 21
163.1340164815399021
 31
0.0
  0
LINE
  5
1A61A
  8
0
 10
3409.2487163317478007
 20
163.1416976019038998
 30
0.0
 11
3409.2487163317600789
 21
163.1214409767183895
 31
0.0
  0
LINE
  5
1A61B
  8
0
 10
3409.2684013709917963
 20
163.11656784661659
 30
0.0
 11
3409.2684013710600084
 21
163.1367119064223061
 31
0.0
  0
LINE
  5
1A61C
  8
0
 10
3409.3817997476298842
 20
163.156932154075605
 30
0.0
 11
3409.3895992893521907
 21
163.1471447866267113
 31
0.0
  0
LINE
  5
1A61D
  8
0
 10
3409.3895992893521907
 20
163.1471447866267113
 30
0.0
 11
3409.3797567696601618
 21
163.13581691599191
 31
0.0
  0
LINE
  5
1A61E
  8
0
 10
3409.3797567696601618
 20
163.13581691599191
 30
0.0
 11
3409.360071730378877
 21
163.1367986516987116
 31
0.0
  0
LINE
  5
1A61F
  8
0
 10
3409.360071730378877
 20
163.1367986516987116
 30
0.0
 11
3409.3502292106550158
 21
163.1491374894874014
 31
0.0
  0
LINE
  5
1A620
  8
0
 10
3409.3502292106550158
 20
163.1491374894874014
 30
0.0
 11
3409.3565483527190736
 21
163.1563994941998885
 31
0.0
  0
LINE
  5
1A621
  8
0
 10
3409.3600720281260692
 20
163.1565056919268955
 30
0.0
 11
3409.3600717302970224
 21
163.1367986517043107
 31
0.0
  0
LINE
  5
1A622
  8
0
 10
3409.379756769668802
 20
163.1358169159028932
 30
0.0
 11
3409.379756769668802
 21
163.1569332907783121
 31
0.0
  0
LINE
  5
1A623
  8
0
 10
3409.3861982012390399
 20
163.1570062016440943
 30
0.0
 11
3409.3879105797877855
 21
163.1548195888057933
 31
0.0
  0
LINE
  5
1A624
  8
0
 10
3409.3879105797877855
 20
163.1548195888057933
 30
0.0
 11
3409.3977531031969193
 21
163.1548195887488077
 31
0.0
  0
LINE
  5
1A625
  8
0
 10
3409.3879105799601348
 20
163.1548195885860082
 30
0.0
 11
3409.3879105799601348
 21
163.157020026216486
 31
0.0
  0
LINE
  5
1A626
  8
0
 10
3409.3305781930898775
 20
163.1552867753426881
 30
0.0
 11
3409.3339215900218733
 21
163.1507941360644054
 31
0.0
  0
LINE
  5
1A627
  8
0
 10
3409.3339215900218733
 20
163.1507941360644054
 30
0.0
 11
3409.3240790703139282
 21
163.1404044544530905
 31
0.0
  0
LINE
  5
1A628
  8
0
 10
3409.3240790703139282
 20
163.1404044544530905
 30
0.0
 11
3409.3043940309698883
 21
163.1433812981294977
 31
0.0
  0
LINE
  5
1A629
  8
0
 10
3409.3043940309698883
 20
163.1433812981294977
 30
0.0
 11
3409.297179823111037
 21
163.1531622958063963
 31
0.0
  0
LINE
  5
1A62A
  8
0
 10
3409.3043822617250953
 20
163.153722121440012
 30
0.0
 11
3409.3043940310599282
 21
163.1433812981919118
 31
0.0
  0
LINE
  5
1A62B
  8
0
 10
3409.324071516226013
 20
163.1549670517399875
 30
0.0
 11
3409.3240790703139282
 21
163.1404044544530905
 31
0.0
  0
LINE
  5
1A62C
  8
0
 10
3409.250405041112117
 20
163.1481526734841907
 30
0.0
 11
3409.2405625214601059
 21
163.1400781825335002
 31
0.0
  0
LINE
  5
1A62D
  8
0
 10
3409.2405625214601059
 20
163.1400781825335002
 30
0.0
 11
3409.2257541424150986
 21
163.1445531602724088
 31
0.0
  0
LINE
  5
1A62E
  8
0
 10
3409.2405625213718849
 20
163.1400781824642934
 30
0.0
 11
3409.2405625213718849
 21
163.1467980983846076
 31
0.0
  0
LINE
  5
1A62F
  8
0
 10
3409.2192841840178517
 20
163.1434958988918993
 30
0.0
 11
3409.2225661914458215
 21
163.1389864727200063
 31
0.0
  0
LINE
  5
1A630
  8
0
 10
3409.2225661914458215
 20
163.1389864727200063
 30
0.0
 11
3409.2127236717587948
 21
163.1322943898165931
 31
0.0
  0
LINE
  5
1A631
  8
0
 10
3409.2127236717587948
 20
163.1322943898165931
 30
0.0
 11
3409.1941098274451178
 21
163.1389362012940012
 31
0.0
  0
LINE
  5
1A632
  8
0
 10
3409.2127236717587948
 20
163.1322943897918947
 30
0.0
 11
3409.2127236717587948
 21
163.1423761548998925
 31
0.0
  0
LINE
  5
1A633
  8
0
 10
3409.1905736318058189
 20
163.1382384831815102
 30
0.0
 11
3409.1947273417790711
 21
163.1326679843612055
 31
0.0
  0
LINE
  5
1A634
  8
0
 10
3409.1947273417790711
 20
163.1326679843612055
 30
0.0
 11
3409.1848848220861328
 21
163.1273423904218873
 31
0.0
  0
LINE
  5
1A635
  8
0
 10
3409.1848848220861328
 20
163.1273423904218873
 30
0.0
 11
3409.1693065256508817
 21
163.1336643124558066
 31
0.0
  0
LINE
  5
1A636
  8
0
 10
3409.1848848221598018
 20
163.1273423903917035
 30
0.0
 11
3409.1848848221598018
 21
163.1371792095386013
 31
0.0
  0
LINE
  5
1A637
  8
0
 10
3409.1644206814171412
 20
163.1323726507229992
 30
0.0
 11
3409.1668884921050449
 21
163.1292041851492911
 31
0.0
  0
LINE
  5
1A638
  8
0
 10
3409.1668884921050449
 20
163.1292041851492911
 30
0.0
 11
3409.1570459724539433
 21
163.1252519013175117
 31
0.0
  0
LINE
  5
1A639
  8
0
 10
3409.1570459724539433
 20
163.1252519013175117
 30
0.0
 11
3409.1505364665408706
 21
163.1281924612443106
 31
0.0
  0
LINE
  5
1A63A
  8
0
 10
3409.157045972459855
 20
163.1252519013146127
 30
0.0
 11
3409.157045972459855
 21
163.1302474026211939
 31
0.0
  0
LINE
  5
1A63B
  8
0
 10
3409.1387733721930999
 20
163.1240402976013115
 30
0.0
 11
3409.15704597249578
 21
163.1156102751180015
 31
0.0
  0
LINE
  5
1A63C
  8
0
 10
3409.15704597249578
 20
163.1156102751180015
 30
0.0
 11
3409.1668884921091376
 21
163.1044109188979121
 31
0.0
  0
LINE
  5
1A63D
  8
0
 10
3409.1668884921091376
 20
163.1044109188979121
 30
0.0
 11
3409.1570459724662214
 21
163.1021730178732128
 31
0.0
  0
LINE
  5
1A63E
  8
0
 10
3409.1570459724662214
 20
163.1021730178732128
 30
0.0
 11
3409.1373609331972148
 21
163.1111937558364957
 31
0.0
  0
LINE
  5
1A63F
  8
0
 10
3409.1373609331972148
 20
163.1111937558364957
 30
0.0
 11
3409.1293999976151099
 21
163.1203122562556018
 31
0.0
  0
LINE
  5
1A640
  8
0
 10
3409.1262809312361242
 20
163.1189862906990129
 30
0.0
 11
3409.1292071227949236
 21
163.1175124238982903
 31
0.0
  0
LINE
  5
1A641
  8
0
 10
3409.1292071227949236
 20
163.1175124238982903
 30
0.0
 11
3409.139049642441023
 21
163.1065623683149965
 31
0.0
  0
LINE
  5
1A642
  8
0
 10
3409.139049642441023
 20
163.1065623683149965
 30
0.0
 11
3409.1292071227808265
 21
163.1057401863762948
 31
0.0
  0
LINE
  5
1A643
  8
0
 10
3409.1292071227808265
 20
163.1057401863762948
 30
0.0
 11
3409.1142298548361396
 21
163.1134460741278076
 31
0.0
  0
LINE
  5
1A644
  8
0
 10
3409.1070532075309529
 20
163.1098191176857881
 30
0.0
 11
3409.1095220834381507
 21
163.1096261485384105
 31
0.0
  0
LINE
  5
1A645
  8
0
 10
3409.1095220834381507
 20
163.1096261485384105
 30
0.0
 11
3409.1292071228599525
 21
163.0993996585918921
 31
0.0
  0
LINE
  5
1A646
  8
0
 10
3409.1292071228599525
 20
163.0993996585918921
 30
0.0
 11
3409.1390496426738537
 21
163.0902518686606868
 31
0.0
  0
LINE
  5
1A647
  8
0
 10
3409.1390496426738537
 20
163.0902518686606868
 30
0.0
 11
3409.1292071228658642
 21
163.091160335180291
 31
0.0
  0
LINE
  5
1A648
  8
0
 10
3409.1292071228658642
 20
163.091160335180291
 30
0.0
 11
3409.1095220836828048
 21
163.101377703087195
 31
0.0
  0
LINE
  5
1A649
  8
0
 10
3409.1095220836828048
 20
163.101377703087195
 30
0.0
 11
3409.1028685661967756
 21
163.1075861941276059
 31
0.0
  0
LINE
  5
1A64A
  8
0
 10
3409.0996795638111507
 20
163.1001790013731068
 30
0.0
 11
3409.109522083471802
 21
163.0972894348556963
 31
0.0
  0
LINE
  5
1A64B
  8
0
 10
3409.109522083471802
 20
163.0972894348556963
 30
0.0
 11
3409.1292071231050613
 21
163.0870493222344066
 31
0.0
  0
LINE
  5
1A64C
  8
0
 10
3409.1292071231050613
 20
163.0870493222344066
 30
0.0
 11
3409.1390496425401579
 21
163.0796230592052041
 31
0.0
  0
LINE
  5
1A64D
  8
0
 10
3409.1390496425401579
 20
163.0796230592052041
 30
0.0
 11
3409.1292071231059708
 21
163.0823246695331079
 31
0.0
  0
LINE
  5
1A64E
  8
0
 10
3409.1292071231059708
 20
163.0823246695331079
 30
0.0
 11
3409.1095220840597904
 21
163.0926376555175068
 31
0.0
  0
LINE
  5
1A64F
  8
0
 10
3409.1095220840597904
 20
163.0926376555175068
 30
0.0
 11
3409.0996795636510797
 21
163.1001790015019992
 31
0.0
  0
LINE
  5
1A650
  8
0
 10
3409.1275184135070049
 20
163.0898380686799953
 30
0.0
 11
3409.1373609330607906
 21
163.0885495858190097
 31
0.0
  0
LINE
  5
1A651
  8
0
 10
3409.1275184134110532
 20
163.103307723288907
 30
0.0
 11
3409.1373609330980798
 21
163.103760110011109
 31
0.0
  0
LINE
  5
1A652
  8
0
 10
3409.1373609330980798
 20
163.103760110011109
 30
0.0
 11
3409.1570459724398461
 21
163.0947776454196969
 31
0.0
  0
LINE
  5
1A653
  8
0
 10
3409.1570459724398461
 20
163.0947776454196969
 30
0.0
 11
3409.1668884921059544
 21
163.0853707407640059
 31
0.0
  0
LINE
  5
1A654
  8
0
 10
3409.1668884921059544
 20
163.0853707407640059
 30
0.0
 11
3409.157045972459855
 21
163.0848182207446939
 31
0.0
  0
LINE
  5
1A655
  8
0
 10
3409.157045972459855
 20
163.0848182207446939
 30
0.0
 11
3409.1373609330607906
 21
163.093770795311201
 31
0.0
  0
LINE
  5
1A656
  8
0
 10
3409.1373609330607906
 20
163.093770795311201
 30
0.0
 11
3409.1275184134110532
 21
163.103307723288907
 31
0.0
  0
LINE
  5
1A657
  8
0
 10
3409.1275184135070049
 20
163.0898380686799953
 30
0.0
 11
3409.1373609331290027
 21
163.0820420103077879
 31
0.0
  0
LINE
  5
1A658
  8
0
 10
3409.1373609331290027
 20
163.0820420103077879
 30
0.0
 11
3409.157045972459855
 21
163.0730595456876983
 31
0.0
  0
LINE
  5
1A659
  8
0
 10
3409.157045972459855
 20
163.0730595456876983
 30
0.0
 11
3409.1668884921841709
 21
163.0719010861670029
 31
0.0
  0
LINE
  5
1A65A
  8
0
 10
3409.1668884921841709
 20
163.0719010861670029
 30
0.0
 11
3409.157045972459855
 21
163.0795970112918951
 31
0.0
  0
LINE
  5
1A65B
  8
0
 10
3409.157045972459855
 20
163.0795970112918951
 30
0.0
 11
3409.1373609330607906
 21
163.0885495858190097
 31
0.0
  0
LINE
  5
1A65C
  8
0
 10
3409.12751841374984
 20
163.0821375389672028
 30
0.0
 11
3409.1373609330607906
 21
163.0790332374918989
 31
0.0
  0
LINE
  5
1A65D
  8
0
 10
3409.1373609330607906
 20
163.0790332374918989
 30
0.0
 11
3409.1570459730742186
 21
163.0700124990640063
 31
0.0
  0
LINE
  5
1A65E
  8
0
 10
3409.1570459730742186
 20
163.0700124990640063
 30
0.0
 11
3409.1668884921668905
 21
163.064001955234005
 31
0.0
  0
LINE
  5
1A65F
  8
0
 10
3409.1668884921668905
 20
163.064001955234005
 30
0.0
 11
3409.1570459724280227
 21
163.0669528662884034
 31
0.0
  0
LINE
  5
1A660
  8
0
 10
3409.1570459724280227
 20
163.0669528662884034
 30
0.0
 11
3409.1373609335469155
 21
163.076066290371898
 31
0.0
  0
LINE
  5
1A661
  8
0
 10
3409.1373609335469155
 20
163.076066290371898
 30
0.0
 11
3409.127518413395137
 21
163.082137539094191
 31
0.0
  0
LINE
  5
1A662
  8
0
 10
3409.1553572629909468
 20
163.072167964412813
 30
0.0
 11
3409.1651997827229934
 21
163.0706326355102931
 31
0.0
  0
LINE
  5
1A663
  8
0
 10
3409.1553572629909468
 20
163.072167964412813
 30
0.0
 11
3409.1651997827270861
 21
163.0657971410172138
 31
0.0
  0
LINE
  5
1A664
  8
0
 10
3409.1651997827270861
 20
163.0657971410172138
 30
0.0
 11
3409.1713328532600826
 21
163.0632646221918947
 31
0.0
  0
LINE
  5
1A665
  8
0
 10
3409.1713328532600826
 20
163.0632646221918947
 30
0.0
 11
3409.1655126793539239
 21
163.0684766699739896
 31
0.0
  0
LINE
  5
1A666
  8
0
 10
3409.1655126793539239
 20
163.0684766699739896
 30
0.0
 11
3409.1704459028601377
 21
163.0684766699918953
 31
0.0
  0
LINE
  5
1A667
  8
0
 10
3409.1651997827598279
 20
163.0706326354919042
 30
0.0
 11
3409.1845921716358134
 21
163.0629443311487137
 31
0.0
  0
LINE
  5
1A668
  8
0
 10
3409.1845921716358134
 20
163.0629443311487137
 30
0.0
 11
3409.1848848222289234
 21
163.0630874414256084
 31
0.0
  0
LINE
  5
1A669
  8
0
 10
3409.1848848222289234
 20
163.0630874414256084
 30
0.0
 11
3409.1921312303979903
 21
163.0635166846147968
 31
0.0
  0
LINE
  5
1A66A
  8
0
 10
3409.1921312303979903
 20
163.0635166846147968
 30
0.0
 11
3409.2136310738451357
 21
163.0729452430475988
 31
0.0
  0
LINE
  5
1A66B
  8
0
 10
3409.2136310738451357
 20
163.0729452430475988
 30
0.0
 11
3409.215916443677088
 21
163.0748324177750135
 31
0.0
  0
LINE
  5
1A66C
  8
0
 10
3409.1553572631260067
 20
163.082837304657005
 30
0.0
 11
3409.165199782747095
 21
163.0830267124059958
 31
0.0
  0
LINE
  5
1A66D
  8
0
 10
3409.165199782747095
 20
163.0830267124059958
 30
0.0
 11
3409.183371093470214
 21
163.0758141963297874
 31
0.0
  0
LINE
  5
1A66E
  8
0
 10
3409.183371093470214
 20
163.0758141963297874
 30
0.0
 11
3409.1848848220979562
 21
163.0765570959165132
 31
0.0
  0
LINE
  5
1A66F
  8
0
 10
3409.1848848220979562
 20
163.0765570959165132
 30
0.0
 11
3409.1947273417808901
 21
163.0771040832746053
 31
0.0
  0
LINE
  5
1A670
  8
0
 10
3409.1947273417808901
 20
163.0771040832746053
 30
0.0
 11
3409.1848848221598018
 21
163.068308650838901
 31
0.0
  0
LINE
  5
1A671
  8
0
 10
3409.1848848221598018
 20
163.068308650838901
 30
0.0
 11
3409.1833710935738964
 21
163.0675657511806946
 31
0.0
  0
LINE
  5
1A672
  8
0
 10
3409.1833710935738964
 20
163.0675657511806946
 30
0.0
 11
3409.1651997827361811
 21
163.0747782673167023
 31
0.0
  0
LINE
  5
1A673
  8
0
 10
3409.1651997827361811
 20
163.0747782673167023
 30
0.0
 11
3409.1553572631260067
 21
163.082837304657005
 31
0.0
  0
LINE
  5
1A674
  8
0
 10
3409.2136310738451357
 20
163.0729452430475135
 30
0.0
 11
3409.2136310738601424
 21
163.0684766699918953
 31
0.0
  0
LINE
  5
1A675
  8
0
 10
3409.2136310738601424
 20
163.0684766699918953
 30
0.0
 11
3409.2374752842001726
 21
163.0684766699918953
 31
0.0
  0
ARC
  5
1A676
  8
0
 10
3409.3977998410327928
 20
163.629123451054312
 30
0.0
 40
0.6070065626058422
 50
265.6291306549027809
 51
269.9955594152630169
  0
ARC
  5
1A677
  8
0
 10
3409.3976601943240894
 20
163.6271203998803969
 30
0.0
 40
0.6049986944284387
 50
254.9889756154965994
 51
265.6278600918457755
  0
ARC
  5
1A678
  8
0
 10
3409.3964820027249516
 20
163.6227267107340992
 30
0.0
 40
0.600449778100362
 50
247.3773334894507059
 51
254.9889756154965994
  0
ARC
  5
1A679
  8
0
 10
3409.2054874046161785
 20
163.1981824065400133
 30
0.0
 40
0.1402558603474966
 50
249.0582135725543083
 51
253.3069838070676951
  0
LINE
  5
1A67A
  8
0
 10
3409.1651997827598279
 20
163.0638372767919009
 30
0.0
 11
3409.184884822182994
 21
163.0559400345090069
 31
0.0
  0
LINE
  5
1A67B
  8
0
 10
3409.1848848221598018
 20
163.055940034491897
 30
0.0
 11
3409.1947273423720617
 21
163.0512910250799905
 31
0.0
  0
LINE
  5
1A67C
  8
0
 10
3409.1947273423720617
 20
163.0512910250799905
 30
0.0
 11
3409.1848848221598018
 21
163.0545238407918873
 31
0.0
  0
LINE
  5
1A67D
  8
0
 10
3409.1848848221598018
 20
163.0545238407918873
 30
0.0
 11
3409.1651997827671039
 21
163.062526503600111
 31
0.0
  0
LINE
  5
1A67E
  8
0
 10
3409.1651997827671039
 20
163.062526503600111
 30
0.0
 11
3409.1553572630550661
 21
163.0671912799232075
 31
0.0
  0
LINE
  5
1A67F
  8
0
 10
3409.183196112936912
 20
163.0574815911573978
 30
0.0
 11
3409.1930386324470419
 21
163.0524762319294894
 31
0.0
  0
LINE
  5
1A680
  8
0
 10
3409.1930386324470419
 20
163.0524762319294894
 30
0.0
 11
3409.2127236720170913
 21
163.0456868699021982
 31
0.0
  0
LINE
  5
1A681
  8
0
 10
3409.2127236720170913
 20
163.0456868699021982
 30
0.0
 11
3409.2225661914580996
 21
163.0439659307025977
 31
0.0
  0
LINE
  5
1A682
  8
0
 10
3409.2225661914580996
 20
163.0439659307025977
 30
0.0
 11
3409.2127236717587948
 21
163.0471397317913897
 31
0.0
  0
LINE
  5
1A683
  8
0
 10
3409.2127236717587948
 20
163.0471397317913897
 30
0.0
 11
3409.1930386323601851
 21
163.0538954113918919
 31
0.0
  0
LINE
  5
1A684
  8
0
 10
3409.1930386323601851
 20
163.0538954113918919
 30
0.0
 11
3409.183196112936912
 21
163.0574815911573978
 31
0.0
  0
LINE
  5
1A685
  8
0
 10
3409.2110349628328549
 20
163.0456453362197067
 30
0.0
 11
3409.220877482026026
 21
163.043546035350289
 31
0.0
  0
LINE
  5
1A686
  8
0
 10
3409.220877482026026
 20
163.043546035350289
 30
0.0
 11
3409.2405625214601059
 21
163.0378329690919088
 31
0.0
  0
LINE
  5
1A687
  8
0
 10
3409.2405625214601059
 20
163.0378329690919088
 30
0.0
 11
3409.2504050411439493
 21
163.0341485137361985
 31
0.0
  0
LINE
  5
1A688
  8
0
 10
3409.2504050411439493
 20
163.0341485137361985
 30
0.0
 11
3409.2405625213991698
 21
163.0361868220780934
 31
0.0
  0
LINE
  5
1A689
  8
0
 10
3409.2405625213991698
 20
163.0361868220780934
 30
0.0
 11
3409.220877482060132
 21
163.0419707421918929
 31
0.0
  0
LINE
  5
1A68A
  8
0
 10
3409.220877482060132
 20
163.0419707421918929
 30
0.0
 11
3409.2110349623721959
 21
163.0456453363358094
 31
0.0
  0
LINE
  5
1A68B
  8
0
 10
3409.2388738120221205
 20
163.039247815416104
 30
0.0
 11
3409.2487163324981339
 21
163.0352162931914108
 31
0.0
  0
LINE
  5
1A68C
  8
0
 10
3409.2487163324981339
 20
163.0352162931914108
 30
0.0
 11
3409.2684013710468207
 21
163.0305102313267867
 31
0.0
  0
LINE
  5
1A68D
  8
0
 10
3409.2684013710468207
 20
163.0305102313267867
 30
0.0
 11
3409.2782438907670439
 21
163.0298771459686122
 31
0.0
  0
LINE
  5
1A68E
  8
0
 10
3409.2782438907670439
 20
163.0298771459686122
 30
0.0
 11
3409.2684013710600084
 21
163.0320419387969082
 31
0.0
  0
LINE
  5
1A68F
  8
0
 10
3409.2684013710600084
 20
163.0320419387969082
 30
0.0
 11
3409.2487163317600789
 21
163.0367241371114062
 31
0.0
  0
LINE
  5
1A690
  8
0
 10
3409.2487163317600789
 20
163.0367241371114062
 30
0.0
 11
3409.2388738120489506
 21
163.0392478154568892
 31
0.0
  0
LINE
  5
1A691
  8
0
 10
3409.2667126618789553
 20
163.0302360403142927
 30
0.0
 11
3409.2765551813808997
 21
163.0292414380639912
 31
0.0
  0
LINE
  5
1A692
  8
0
 10
3409.2765551813808997
 20
163.0292414380639912
 30
0.0
 11
3409.2962402207790547
 21
163.0255240200706908
 31
0.0
  0
LINE
  5
1A693
  8
0
 10
3409.2962402207790547
 20
163.0255240200706908
 30
0.0
 11
3409.306082740381953
 21
163.0227575813501062
 31
0.0
  0
LINE
  5
1A694
  8
0
 10
3409.306082740381953
 20
163.0227575813501062
 30
0.0
 11
3409.2962402207599553
 21
163.0237302445324019
 31
0.0
  0
LINE
  5
1A695
  8
0
 10
3409.2962402207599553
 20
163.0237302445324019
 30
0.0
 11
3409.2765551813431557
 21
163.0274915429044995
 31
0.0
  0
LINE
  5
1A696
  8
0
 10
3409.2765551813431557
 20
163.0274915429044995
 30
0.0
 11
3409.2667126618789553
 21
163.0302360403142927
 31
0.0
  0
LINE
  5
1A697
  8
0
 10
3409.2945515113260626
 20
163.0268066698992868
 30
0.0
 11
3409.3044959971039134
 21
163.0252478497770028
 31
0.0
  0
LINE
  5
1A698
  8
0
 10
3409.3044959971039134
 20
163.0252478497770028
 30
0.0
 11
3409.3240790703598577
 21
163.0225070509856096
 31
0.0
  0
LINE
  5
1A699
  8
0
 10
3409.3240790703598577
 20
163.0225070509856096
 30
0.0
 11
3409.333921590060072
 21
163.0212896250918959
 31
0.0
  0
LINE
  5
1A69A
  8
0
 10
3409.333921590060072
 20
163.0212896250918959
 30
0.0
 11
3409.3240790698741876
 21
163.0209277312488041
 31
0.0
  0
LINE
  5
1A69B
  8
0
 10
3409.3240790698741876
 20
163.0209277312488041
 30
0.0
 11
3409.3043940310599282
 21
163.0236980485919105
 31
0.0
  0
LINE
  5
1A69C
  8
0
 10
3409.3043940310599282
 20
163.0236980485919105
 30
0.0
 11
3409.2945515113260626
 21
163.0268066698992868
 31
0.0
  0
LINE
  5
1A69D
  8
0
 10
3409.322390360989175
 20
163.0204547280117993
 30
0.0
 11
3409.3322328806598307
 21
163.0204662227959886
 31
0.0
  0
LINE
  5
1A69E
  8
0
 10
3409.3322328806598307
 20
163.0204662227959886
 30
0.0
 11
3409.3519179198979145
 21
163.0186333743046134
 31
0.0
  0
LINE
  5
1A69F
  8
0
 10
3409.3519179198979145
 20
163.0186333743046134
 30
0.0
 11
3409.36176043944306
 21
163.0167681692007022
 31
0.0
  0
LINE
  5
1A6A0
  8
0
 10
3409.36176043944306
 20
163.0167681692007022
 30
0.0
 11
3409.3519179200598046
 21
163.0167681692007022
 31
0.0
  0
LINE
  5
1A6A1
  8
0
 10
3409.3519179200598046
 20
163.0167681692007022
 30
0.0
 11
3409.3322328806930273
 21
163.018613693313398
 31
0.0
  0
LINE
  5
1A6A2
  8
0
 10
3409.3322328806930273
 20
163.018613693313398
 30
0.0
 11
3409.322390360936879
 21
163.0204547280227985
 31
0.0
  0
LINE
  5
1A6A3
  8
0
 10
3409.3502288906602189
 20
163.0197756401919094
 30
0.0
 11
3409.3600717303597776
 21
163.0191649273706105
 31
0.0
  0
LINE
  5
1A6A4
  8
0
 10
3409.3600717303597776
 20
163.0191649273706105
 30
0.0
 11
3409.3797567696601618
 21
163.0182543973234885
 31
0.0
  0
LINE
  5
1A6A5
  8
0
 10
3409.3797567696601618
 20
163.0182543973234885
 30
0.0
 11
3409.3895992894058509
 21
163.0179534401173953
 31
0.0
  0
LINE
  5
1A6A6
  8
0
 10
3409.3895992894058509
 20
163.0179534401173953
 30
0.0
 11
3409.379756769677897
 21
163.0166543471482896
 31
0.0
  0
LINE
  5
1A6A7
  8
0
 10
3409.379756769677897
 20
163.0166543471482896
 30
0.0
 11
3409.3600717306871957
 21
163.017569269234798
 31
0.0
  0
LINE
  5
1A6A8
  8
0
 10
3409.3600717306871957
 20
163.017569269234798
 30
0.0
 11
3409.3502288906602189
 21
163.0197756401919094
 31
0.0
  0
LINE
  5
1A6A9
  8
0
 10
3409.3780680603699693
 20
163.0160076785037973
 30
0.0
 11
3409.3879105799592253
 21
163.0169629564597074
 31
0.0
  0
LINE
  5
1A6AA
  8
0
 10
3409.3879105799592253
 20
163.0169629564597074
 30
0.0
 11
3409.4075956193050843
 21
163.016962956467097
 31
0.0
  0
LINE
  5
1A6AB
  8
0
 10
3409.4075953169917739
 20
163.0150703579751053
 30
0.0
 11
3409.3879102756282009
 21
163.0150703579751053
 31
0.0
  0
LINE
  5
1A6AC
  8
0
 10
3409.3879105799601348
 20
163.0150703579751053
 30
0.0
 11
3409.3780680603699693
 21
163.0160076785037973
 31
0.0
  0
LINE
  5
1A6AD
  8
0
 10
3409.3600717303720558
 20
163.0662266781014011
 30
0.0
 11
3409.379756769632877
 21
163.0653117559922123
 31
0.0
  0
LINE
  5
1A6AE
  8
0
 10
3409.379756769632877
 20
163.0653117559922123
 30
0.0
 11
3409.3895992893599214
 21
163.0583624037919037
 31
0.0
  0
LINE
  5
1A6AF
  8
0
 10
3409.3895992893599214
 20
163.0583624037919037
 30
0.0
 11
3409.3502292106850291
 21
163.0601845848273967
 31
0.0
  0
LINE
  5
1A6B0
  8
0
 10
3409.3502292106850291
 20
163.0601845848273967
 30
0.0
 11
3409.3600717303497731
 21
163.0662266780873892
 31
0.0
  0
LINE
  5
1A6B1
  8
0
 10
3409.2945515112751309
 20
163.067215633606196
 30
0.0
 11
3409.333921590060072
 21
163.0616985887918986
 31
0.0
  0
LINE
  5
1A6B2
  8
0
 10
3409.333921590060072
 20
163.0616985887918986
 30
0.0
 11
3409.3240790703957828
 21
163.0695851400396066
 31
0.0
  0
LINE
  5
1A6B3
  8
0
 10
3409.3240790703957828
 20
163.0695851400396066
 30
0.0
 11
3409.3043940309571553
 21
163.072355457553499
 31
0.0
  0
LINE
  5
1A6B4
  8
0
 10
3409.3043940309571553
 20
163.072355457553499
 30
0.0
 11
3409.2945515112128305
 21
163.0672156336148078
 31
0.0
  0
LINE
  5
1A6B5
  8
0
 10
3409.2782438907861433
 20
163.0702861096372089
 30
0.0
 11
3409.268401371121854
 21
163.0791676401989889
 31
0.0
  0
LINE
  5
1A6B6
  8
0
 10
3409.268401371121854
 20
163.0791676401989889
 30
0.0
 11
3409.2487163317541672
 21
163.0838737023086082
 31
0.0
  0
LINE
  5
1A6B7
  8
0
 10
3409.2487163317541672
 20
163.0838737023086082
 30
0.0
 11
3409.2388738120389462
 21
163.0796567791338987
 31
0.0
  0
LINE
  5
1A6B8
  8
0
 10
3409.2388738120389462
 20
163.0796567791338987
 30
0.0
 11
3409.2782438907861433
 21
163.0702861096372089
 31
0.0
  0
LINE
  5
1A6B9
  8
0
 10
3409.222566191524038
 20
163.0843748943931928
 30
0.0
 11
3409.1831994349599881
 21
163.0978870356919117
 31
0.0
  0
LINE
  5
1A6BA
  8
0
 10
3409.1831994349599881
 20
163.0978870356919117
 30
0.0
 11
3409.1930419053601327
 21
163.1011347958919089
 31
0.0
  0
LINE
  5
1A6BB
  8
0
 10
3409.1930419053601327
 20
163.1011347958919089
 30
0.0
 11
3409.212723671934782
 21
163.0943442787877018
 31
0.0
  0
LINE
  5
1A6BC
  8
0
 10
3409.212723671934782
 20
163.0943442787877018
 30
0.0
 11
3409.222566191524038
 21
163.0843748943931928
 31
0.0
  0
LINE
  5
1A6BD
  8
0
 10
3409.1893476208911125
 20
163.0838973018894933
 30
0.0
 11
3409.1839364314428167
 21
163.0790132371988079
 31
0.0
  0
LINE
  5
1A6BE
  8
0
 10
3409.1839364314428167
 20
163.0790132371988079
 30
0.0
 11
3409.1832018062068528
 21
163.0789192152716112
 31
0.0
  0
LINE
  5
1A6BF
  8
0
 10
3409.1832018062068528
 20
163.0789192152716112
 30
0.0
 11
3409.1838010142669191
 21
163.0783830034201003
 31
0.0
  0
LINE
  5
1A6C0
  8
0
 10
3409.1838010142669191
 20
163.0783830034201003
 30
0.0
 11
3409.1833710935748059
 21
163.0758141963812022
 31
0.0
  0
LINE
  5
1A6C1
  8
0
 10
3409.1845921716339944
 20
163.0816351950282126
 30
0.0
 11
3409.1839364314428167
 21
163.0790132371988079
 31
0.0
  0
LINE
  5
1A6C2
  8
0
 10
3409.1838010142669191
 20
163.0783830034201003
 30
0.0
 11
3409.1930386322292179
 21
163.0789326345991128
 31
0.0
  0
LINE
  5
1A6C3
  8
0
 10
3409.1930386322292179
 20
163.0789326345991128
 30
0.0
 11
3409.1974829510791096
 21
163.0809738200512982
 31
0.0
  0
LINE
  5
1A6C4
  8
0
 10
3409.1930386324302162
 20
163.0789326346084067
 30
0.0
 11
3409.1930386323601851
 21
163.0825547549937085
 31
0.0
  0
LINE
  5
1A6C5
  8
0
 10
3409.2041029617039385
 20
163.0786923438014071
 30
0.0
 11
3409.1930386323601851
 21
163.0737114251919024
 31
0.0
  0
LINE
  5
1A6C6
  8
0
 10
3409.1930386323601851
 20
163.0737114251919024
 30
0.0
 11
3409.1838038675268763
 21
163.0654228781405095
 31
0.0
  0
LINE
  5
1A6C7
  8
0
 10
3409.1838038675268763
 20
163.0654228781405095
 30
0.0
 11
3409.1831961126281385
 21
163.065448842275913
 31
0.0
  0
LINE
  5
1A6C8
  8
0
 10
3409.1831961126281385
 20
163.065448842275913
 30
0.0
 11
3409.1839364313941587
 21
163.0649231644300983
 31
0.0
  0
LINE
  5
1A6C9
  8
0
 10
3409.1839364313941587
 20
163.0649231644300983
 30
0.0
 11
3409.1845921716089833
 21
163.0629443312161868
 31
0.0
  0
LINE
  5
1A6CA
  8
0
 10
3409.1833710936248281
 20
163.06756575116421
 30
0.0
 11
3409.1838038682399201
 21
163.0654228787803106
 31
0.0
  0
LINE
  5
1A6CB
  8
0
 10
3409.183936431343227
 20
163.0649231644235044
 30
0.0
 11
3409.1930386323601851
 21
163.0654629799477959
 31
0.0
  0
LINE
  5
1A6CC
  8
0
 10
3409.1930386323601851
 20
163.0654629799477959
 30
0.0
 11
3409.1930386323601851
 21
163.0737114252434878
 31
0.0
  0
LINE
  5
1A6CD
  8
0
 10
3409.1930386323601851
 20
163.0654629799477959
 30
0.0
 11
3409.2127236717587948
 21
163.0740951502918961
 31
0.0
  0
LINE
  5
1A6CE
  8
0
 10
3409.2127236717587948
 20
163.0740951502918961
 30
0.0
 11
3409.2142499281849268
 21
163.07536061860921
 31
0.0
  0
LINE
  5
1A6CF
  8
0
 10
3409.2127236717428787
 20
163.0740951502843927
 30
0.0
 11
3409.2127234652029983
 21
163.0758491094402984
 31
0.0
  0
LINE
  5
1A6D0
  8
0
 10
3409.220877482060132
 20
163.0684766699918953
 30
0.0
 11
3409.220877482060132
 21
163.0732928753502051
 31
0.0
  0
LINE
  5
1A6D1
  8
0
 10
3409.1848848221370645
 20
163.0683086507777944
 30
0.0
 11
3409.1848848221598018
 21
163.0765570959198953
 31
0.0
  0
LINE
  5
1A6D2
  8
0
 10
3409.1848848221438857
 20
163.0817783053840913
 30
0.0
 11
3409.1848848221438857
 21
163.0855576985019013
 31
0.0
  0
LINE
  5
1A6D3
  8
0
 10
3409.165199787462825
 20
163.0625265016911101
 30
0.0
 11
3409.165199787462825
 21
163.0638372753815872
 31
0.0
  0
LINE
  5
1A6D4
  8
0
 10
3409.165199787462825
 20
163.0657971390614875
 30
0.0
 11
3409.165199787462825
 21
163.0706326336274117
 31
0.0
  0
LINE
  5
1A6D5
  8
0
 10
3409.165199787462825
 20
163.0747782654403011
 30
0.0
 11
3409.165199787462825
 21
163.0830267105341989
 31
0.0
  0
LINE
  5
1A6D6
  8
0
 10
3409.165199787462825
 20
163.0893234975650046
 30
0.0
 11
3409.165199787462825
 21
163.1009848934151023
 31
0.0
  0
LINE
  5
1A6D7
  8
0
 10
3409.15704597249578
 20
163.1156102751180015
 30
0.0
 11
3409.1570459724662214
 21
163.1021730178732128
 31
0.0
  0
LINE
  5
1A6D8
  8
0
 10
3409.1570459724398461
 20
163.0947776454196969
 30
0.0
 11
3409.157045972459855
 21
163.0848182207446939
 31
0.0
  0
LINE
  5
1A6D9
  8
0
 10
3409.157045972459855
 20
163.0795970112918951
 30
0.0
 11
3409.157045972459855
 21
163.0730595456876983
 31
0.0
  0
LINE
  5
1A6DA
  8
0
 10
3409.1570459730742186
 20
163.0700124990640063
 30
0.0
 11
3409.1570459724280227
 21
163.0669528662884034
 31
0.0
  0
LINE
  5
1A6DB
  8
0
 10
3409.1373609335469155
 20
163.076066290371898
 30
0.0
 11
3409.1373609330607906
 21
163.0790332374918989
 31
0.0
  0
LINE
  5
1A6DC
  8
0
 10
3409.1373609331290027
 20
163.0820420103077879
 30
0.0
 11
3409.1373609330607906
 21
163.0885495858190097
 31
0.0
  0
LINE
  5
1A6DD
  8
0
 10
3409.1373609330607906
 20
163.093770795311201
 30
0.0
 11
3409.1369027671730692
 21
163.1037390515639061
 31
0.0
  0
LINE
  5
1A6DE
  8
0
 10
3409.1292071227808265
 20
163.1057401863762948
 30
0.0
 11
3409.1292071227949236
 21
163.1175124238982903
 31
0.0
  0
LINE
  5
1A6DF
  8
0
 10
3409.1292071228599525
 20
163.0993996585918921
 30
0.0
 11
3409.1292071228658642
 21
163.091160335180291
 31
0.0
  0
LINE
  5
1A6E0
  8
0
 10
3409.1292071231050613
 20
163.0870493222344066
 30
0.0
 11
3409.1292071231059708
 21
163.0823246695331079
 31
0.0
  0
LINE
  5
1A6E1
  8
0
 10
3409.1095220840597904
 20
163.0926376555175068
 30
0.0
 11
3409.109522083471802
 21
163.0972894348556963
 31
0.0
  0
LINE
  5
1A6E2
  8
0
 10
3409.1095220836828048
 20
163.101377703087195
 30
0.0
 11
3409.1095220834381507
 21
163.1096261485384105
 31
0.0
  0
ARC
  5
1A6E3
  8
0
 10
3409.3970306795158649
 20
161.8212592584380047
 30
0.0
 40
1.3802431982561369
 50
89.9700239446570578
 51
96.5362479305017871
  0
ARC
  5
1A6E4
  8
0
 10
3409.3301640399508869
 20
162.4048573930394923
 30
0.0
 40
0.7928268806438992
 50
96.5362479039876291
 51
104.2736189244612035
  0
ARC
  5
1A6E5
  8
0
 10
3409.2092363938759263
 20
162.8801897521277908
 30
0.0
 40
0.3023532858582498
 50
104.2736189244612035
 51
116.5914882473968959
  0
ARC
  5
1A6E6
  8
0
 10
3409.1091572208129037
 20
163.08011742149111
 30
0.0
 40
0.0787757515267583
 50
116.5914882473968959
 51
139.4508474069284887
  0
ARC
  5
1A6E7
  8
0
 10
3409.0678117270540497
 20
163.1154911965624876
 30
0.0
 40
0.0243629422162967
 50
139.450847406927295
 51
167.0080874483801949
  0
ARC
  5
1A6E8
  8
0
 10
3409.0716020573131573
 20
163.1146166933847041
 30
0.0
 40
0.0282528470077515
 50
167.0080874483786033
 51
175.3495618692352025
  0
LINE
  5
1A6E9
  8
0
 10
3409.4174381468519641
 20
163.128875485587713
 30
0.0
 11
3409.407595627153114
 21
163.1397829147919083
 31
0.0
  0
LINE
  5
1A6EA
  8
0
 10
3409.407595627153114
 20
163.1180537241918955
 30
0.0
 11
3409.4174381468419597
 21
163.1288754856012133
 31
0.0
  0
LINE
  5
1A6EB
  8
0
 10
3409.407595627153114
 20
163.1397829147919083
 30
0.0
 11
3409.407595627153114
 21
163.1180537241918955
 31
0.0
  0
LINE
  5
1A6EC
  8
0
 10
3409.4174381468578758
 20
163.0964827544241018
 30
0.0
 11
3409.4075956269589369
 21
163.1055095834728945
 31
0.0
  0
LINE
  5
1A6ED
  8
0
 10
3409.4075956269589369
 20
163.0875019151918934
 30
0.0
 11
3409.4174381468478714
 21
163.0964827544376021
 31
0.0
  0
LINE
  5
1A6EE
  8
0
 10
3409.4075956269589369
 20
163.1055095834728945
 30
0.0
 11
3409.4075956269589369
 21
163.0875019151918934
 31
0.0
  0
LINE
  5
1A6EF
  8
0
 10
3409.4174381468678803
 20
163.0698862967601883
 30
0.0
 11
3409.4075956267929541
 21
163.0771974214922011
 31
0.0
  0
LINE
  5
1A6F0
  8
0
 10
3409.4075956267929541
 20
163.0625974096919037
 30
0.0
 11
3409.4174381468578758
 21
163.0698862967736886
 31
0.0
  0
LINE
  5
1A6F1
  8
0
 10
3409.4075956267929541
 20
163.0771974214922011
 30
0.0
 11
3409.4075956267929541
 21
163.0625974096919037
 31
0.0
  0
LINE
  5
1A6F2
  8
0
 10
3409.4093080058742089
 20
163.1570062016440943
 30
0.0
 11
3409.4075956273250085
 21
163.1548195888057933
 31
0.0
  0
LINE
  5
1A6F3
  8
0
 10
3409.4075956273250085
 20
163.1548195888057933
 30
0.0
 11
3409.3977531039158748
 21
163.1548195887488077
 31
0.0
  0
LINE
  5
1A6F4
  8
0
 10
3409.407595627153114
 20
163.1548195885860082
 30
0.0
 11
3409.407595627153114
 21
163.157020026216486
 31
0.0
  0
ARC
  5
1A6F5
  8
0
 10
3409.4019071681618698
 20
164.2160050510364897
 30
0.0
 40
1.2161116089640081
 50
269.8042708951768986
 51
278.6399091300266946
  0
ARC
  5
1A6F6
  8
0
 10
3409.5251724970080431
 20
163.4479869459777888
 30
0.0
 40
0.4383396465649373
 50
277.7913362951359773
 51
293.3307868139601169
  0
ARC
  5
1A6F7
  8
0
 10
3409.655104564983958
 20
163.1377819516615091
 30
0.0
 40
0.1021023721506713
 50
295.3206437061551242
 51
316.9576766813564745
  0
ARC
  5
1A6F8
  8
0
 10
3409.6773222187580359
 20
163.1248164937115064
 30
0.0
 40
0.0772249868120958
 50
312.7332887880544945
 51
330.552203537239393
  0
ARC
  5
1A6F9
  8
0
 10
3409.6919956273291064
 20
163.115953955115998
 30
0.0
 40
0.0600923416172781
 50
331.0324117918685829
 51
357.931125539315417
  0
ARC
  5
1A6FA
  8
0
 10
3406.4877760480021607
 20
163.1305793619686995
 30
0.0
 40
3.2643159545040179
 50
359.705213943297224
 51
0.9075234594787048
  0
ARC
  5
1A6FB
  8
0
 10
3409.7228270201107989
 20
163.1775403025748119
 30
0.0
 40
0.0292424403623068
 50
9.3309681616956333
 51
48.367819728429879
  0
ARC
  5
1A6FC
  8
0
 10
3409.4026355021828749
 20
161.976493933878686
 30
0.0
 40
1.2886525439541421
 50
81.8495484415266787
 51
90.2203846886001486
  0
ARC
  5
1A6FD
  8
0
 10
3409.49982201902003
 20
162.6498744094382971
 30
0.0
 40
0.608295776541333
 50
71.1770236893585917
 51
81.9190354483294243
  0
ARC
  5
1A6FE
  8
0
 10
3409.6528352802852169
 20
163.0958115888799114
 30
0.0
 40
0.1368416330860793
 50
49.1979537214280711
 51
71.5750340572081711
  0
ARC
  5
1A6FF
  8
0
 10
3409.3894690576389621
 20
161.1095977868421016
 30
0.0
 40
2.189240546997564
 50
85.0449420003508152
 51
89.7851381761429224
  0
ARC
  5
1A700
  8
0
 10
3409.4767772601098841
 20
162.1386477144039873
 30
0.0
 40
1.1564968079170981
 50
75.6242898154396244
 51
84.9507332575096825
  0
ARC
  5
1A701
  8
0
 10
3409.681514448010148
 20
162.9048249643537076
 30
0.0
 40
0.3635679763257313
 50
61.7249617460136619
 51
76.9010014353697642
  0
ARC
  5
1A702
  8
0
 10
3409.8150662251869107
 20
163.156846339555301
 30
0.0
 40
0.0783726604874245
 50
33.8708502589737606
 51
60.4332085751899228
  0
ARC
  5
1A703
  8
0
 10
3409.8625799843989626
 20
163.1887391844076944
 30
0.0
 40
0.021147570996574
 50
351.3456129791293847
 51
33.8708502589710534
  0
ARC
  5
1A704
  8
0
 10
3409.8325963750658048
 20
163.1933028955652105
 30
0.0
 40
0.0514765058305286
 50
312.0856679745763245
 51
351.3456129791293847
  0
ARC
  5
1A705
  8
0
 10
3409.6696345148379805
 20
163.4111895296711054
 30
0.0
 40
0.3233786038426683
 50
284.256484478136997
 51
307.6348122944892793
  0
ARC
  5
1A706
  8
0
 10
3409.7699696585059428
 20
163.1615208692531098
 30
0.0
 40
0.0920866883317074
 50
33.2262448548283089
 51
69.3611914919429893
  0
ARC
  5
1A707
  8
0
 10
3409.8261738670621526
 20
163.1983366529684076
 30
0.0
 40
0.0248980360908634
 50
323.2677597796514988
 51
33.2262448548283089
  0
ARC
  5
1A708
  8
0
 10
3409.7065548994369237
 20
163.3187850934243102
 30
0.0
 40
0.194415611569423
 50
283.5459460157492231
 51
315.8823296752443071
  0
ARC
  5
1A709
  8
0
 10
3409.3982837041821767
 20
164.2653547549656139
 30
0.0
 40
1.260692089358934
 50
269.9758713634225273
 51
274.1670894501011162
  0
ARC
  5
1A70A
  8
0
 10
3409.4261340126950017
 20
163.8830998113390933
 30
0.0
 40
0.8774239304791356
 50
274.1670893715455009
 51
284.0666356284684753
  0
ARC
  5
1A70B
  8
0
 10
3409.5947121065710235
 20
163.2103043763289918
 30
0.0
 40
0.18383019412808
 50
284.0666356284684753
 51
305.4289153203188221
  0
ARC
  5
1A70C
  8
0
 10
3409.6893493864381526
 20
163.0803255315140063
 30
0.0
 40
0.0231258507108578
 50
301.0491648499302073
 51
37.3847950279423529
  0
ARC
  5
1A70D
  8
0
 10
3409.6631787859068936
 20
163.0587453758365086
 30
0.0
 40
0.0570369482497579
 50
38.6477987118271571
 51
58.9038059255280899
  0
ARC
  5
1A70E
  8
0
 10
3409.5551169419891266
 20
162.8549023787219028
 30
0.0
 40
0.2876819149527858
 50
61.4432966186546494
 51
80.0283970430796785
  0
ARC
  5
1A70F
  8
0
 10
3409.4223338370761667
 20
162.2220992397631107
 30
0.0
 40
0.9341590807371504
 50
78.727941079289991
 51
87.3866573703845404
  0
ARC
  5
1A710
  8
0
 10
3409.3983092370049235
 20
161.9007800400711972
 30
0.0
 40
1.2562743046086291
 50
86.960273181089363
 51
90.025377980205306
  0
ARC
  5
1A711
  8
0
 10
3409.3977527963102148
 20
161.9519371311816087
 30
0.0
 40
1.209876862227981
 50
79.1632916949951237
 51
100.8367083050045068
  0
ARC
  5
1A712
  8
0
 10
3409.565363148491997
 20
162.8381940409055062
 30
0.0
 40
0.3079185733781986
 50
62.0867925082353196
 51
78.7903317284997229
  0
ARC
  5
1A713
  8
0
 10
3409.6855488326818886
 20
163.0650588246761004
 30
0.0
 40
0.0511848031035646
 50
28.9990216972255084
 51
62.0867925082353196
  0
ARC
  5
1A714
  8
0
 10
3409.7120990119369708
 20
163.0797752367361966
 30
0.0
 40
0.0208288349521736
 50
318.8427916825353918
 51
28.9990216972255084
  0
ARC
  5
1A715
  8
0
 10
3409.4063526122690746
 20
162.0033558628115031
 30
0.0
 40
1.285672956155109
 50
79.9830752846619077
 51
90.3865501540740439
  0
ARC
  5
1A716
  8
0
 10
3409.588288182334054
 20
162.9583942032010953
 30
0.0
 40
0.3138183145326711
 50
56.9008096216476318
 51
82.3652380887815951
  0
ARC
  5
1A717
  8
0
 10
3409.7426974161821818
 20
163.1981716239583875
 30
0.0
 40
0.0286730472413608
 50
346.9553162525896255
 51
53.727203424760738
  0
ARC
  5
1A718
  8
0
 10
3409.7173733707541032
 20
163.2154930393373036
 30
0.0
 40
0.0583304694855221
 50
306.259115156883297
 51
335.9267624718376055
  0
ARC
  5
1A719
  8
0
 10
3409.6252124222150997
 20
163.192705535147411
 30
0.0
 40
0.1196783346568372
 50
294.2246778777616214
 51
309.7787522012857266
  0
ARC
  5
1A71A
  8
0
 10
3409.3952105245361963
 20
163.6126875281038053
 30
0.0
 40
0.5982233072538916
 50
293.9926357749645831
 51
297.8113105531521114
  0
ARC
  5
1A71B
  8
0
 10
3409.413820808147193
 20
163.5518748776337077
 30
0.0
 40
0.535153471477344
 50
279.0141694714812957
 51
294.8197654210846963
  0
ARC
  5
1A71C
  8
0
 10
3409.4029775311269077
 20
163.5431048886403005
 30
0.0
 40
0.5283289042506463
 50
269.4333830097834266
 51
280.3246975471050177
  0
ARC
  5
1A71D
  8
0
 10
3409.3985442759349098
 20
163.648936434515889
 30
0.0
 40
0.6019739762488153
 50
281.6494592803794035
 51
290.1749686631131908
  0
ARC
  5
1A71E
  8
0
 10
3409.4004383177161799
 20
163.6437816314038116
 30
0.0
 40
0.5964822197544738
 50
290.1749686631131908
 51
292.6342632734405811
  0
ARC
  5
1A71F
  8
0
 10
3409.5990359673401144
 20
163.0645270702210894
 30
0.0
 40
0.042223023496074
 50
42.8466087165953127
 51
53.4636038727823077
  0
LINE
  5
1A720
  8
0
 10
3409.6241727393598921
 20
163.0984523764919061
 30
0.0
 11
3409.6303058099438203
 21
163.100984895391889
 31
0.0
  0
LINE
  5
1A721
  8
0
 10
3409.6303058098601468
 20
163.1009848953563903
 30
0.0
 11
3409.6401483295580874
 21
163.0991072735776015
 31
0.0
  0
LINE
  5
1A722
  8
0
 10
3409.6401483295580874
 20
163.0991072735776015
 30
0.0
 11
3409.6303058099438203
 21
163.0893234994624947
 31
0.0
  0
LINE
  5
1A723
  8
0
 10
3409.6303058099438203
 20
163.0893234994624947
 30
0.0
 11
3409.6109134209868898
 21
163.0816351950282126
 31
0.0
  0
LINE
  5
1A724
  8
0
 10
3409.6109134209868898
 20
163.0816351950282126
 30
0.0
 11
3409.6106207704760891
 21
163.0817783053840913
 31
0.0
  0
LINE
  5
1A725
  8
0
 10
3409.6106207704760891
 20
163.0817783053840913
 30
0.0
 11
3409.6076611737089479
 21
163.0844519196620013
 31
0.0
  0
LINE
  5
1A726
  8
0
 10
3409.4452763819817847
 20
163.1135526689216135
 30
0.0
 11
3409.4354338623170406
 21
163.1230281805663935
 31
0.0
  0
LINE
  5
1A727
  8
0
 10
3409.4354338623170406
 20
163.1230281805663935
 30
0.0
 11
3409.4157488227610884
 21
163.1220621455427988
 31
0.0
  0
LINE
  5
1A728
  8
0
 10
3409.4157488227610884
 20
163.1220621455427988
 30
0.0
 11
3409.4059063032359518
 21
163.1116414401348891
 31
0.0
  0
LINE
  5
1A729
  8
0
 10
3409.4059063032359518
 20
163.1116414401348891
 30
0.0
 11
3409.4157488229261617
 21
163.1022370853353891
 31
0.0
  0
LINE
  5
1A72A
  8
0
 10
3409.4157488229261617
 20
163.1022370853353891
 30
0.0
 11
3409.4354000692560476
 21
163.1031804092874893
 31
0.0
  0
LINE
  5
1A72B
  8
0
 10
3409.4354000692560476
 20
163.1031804092874893
 30
0.0
 11
3409.4452763819717802
 21
163.1135526689351138
 31
0.0
  0
LINE
  5
1A72C
  8
0
 10
3409.4354338623170406
 20
163.1230281805663935
 30
0.0
 11
3409.4354000692560476
 21
163.1031804092874893
 31
0.0
  0
LINE
  5
1A72D
  8
0
 10
3409.415748822993919
 20
163.1022370852604126
 30
0.0
 11
3409.4157488227610884
 21
163.1220621455427988
 31
0.0
  0
LINE
  5
1A72E
  8
0
 10
3409.4731152316048792
 20
163.1335936164105931
 30
0.0
 11
3409.4632727119601441
 21
163.1435691899775975
 31
0.0
  0
LINE
  5
1A72F
  8
0
 10
3409.4632727119601441
 20
163.1435691899775975
 30
0.0
 11
3409.4435876725601702
 21
163.1415877828918894
 31
0.0
  0
LINE
  5
1A730
  8
0
 10
3409.4435876725601702
 20
163.1415877828918894
 30
0.0
 11
3409.4337451529131613
 21
163.1296820013272963
 31
0.0
  0
LINE
  5
1A731
  8
0
 10
3409.4337451529131613
 20
163.1296820013272963
 30
0.0
 11
3409.4436249070508893
 21
163.1198161399198909
 31
0.0
  0
LINE
  5
1A732
  8
0
 10
3409.4436249070508893
 20
163.1198161399198909
 30
0.0
 11
3409.4632397044852041
 21
163.1217404764460071
 31
0.0
  0
LINE
  5
1A733
  8
0
 10
3409.4632397044852041
 20
163.1217404764460071
 30
0.0
 11
3409.4731152315948748
 21
163.1335936164240934
 31
0.0
  0
LINE
  5
1A734
  8
0
 10
3409.4632727119601441
 20
163.1435691899775975
 30
0.0
 11
3409.4632397044852041
 21
163.1217404764460071
 31
0.0
  0
LINE
  5
1A735
  8
0
 10
3409.4436249071191014
 20
163.119816139844886
 30
0.0
 11
3409.4435876725601702
 21
163.1415877828918894
 31
0.0
  0
LINE
  5
1A736
  8
0
 10
3409.4731152316471707
 20
163.1010369585866044
 30
0.0
 11
3409.4635207130968411
 21
163.1089369190067089
 31
0.0
  0
LINE
  5
1A737
  8
0
 10
3409.4635207130968411
 20
163.1089369190067089
 30
0.0
 11
3409.4435876724101036
 21
163.1072452522230094
 31
0.0
  0
LINE
  5
1A738
  8
0
 10
3409.4435876724101036
 20
163.1072452522230094
 30
0.0
 11
3409.4337451528767815
 21
163.0972614449576952
 31
0.0
  0
LINE
  5
1A739
  8
0
 10
3409.4337451528767815
 20
163.0972614449576952
 30
0.0
 11
3409.4435876726652168
 21
163.0892042962310029
 31
0.0
  0
LINE
  5
1A73A
  8
0
 10
3409.4435876726652168
 20
163.0892042962310029
 30
0.0
 11
3409.4629887020769274
 21
163.0910435811838965
 31
0.0
  0
LINE
  5
1A73B
  8
0
 10
3409.4629887020769274
 20
163.0910435811838965
 30
0.0
 11
3409.473115231635802
 21
163.1010369586001048
 31
0.0
  0
LINE
  5
1A73C
  8
0
 10
3409.4635207130968411
 20
163.1089369190067089
 30
0.0
 11
3409.4629887020769274
 21
163.0910435811838965
 31
0.0
  0
LINE
  5
1A73D
  8
0
 10
3409.4435876727329742
 20
163.089204296155998
 30
0.0
 11
3409.4435876724101036
 21
163.1072452522230094
 31
0.0
  0
LINE
  5
1A73E
  8
0
 10
3409.5009540813398417
 20
163.1209331790838064
 30
0.0
 11
3409.4911115616891948
 21
163.1295040529176958
 31
0.0
  0
LINE
  5
1A73F
  8
0
 10
3409.4911115616891948
 20
163.1295040529176958
 30
0.0
 11
3409.4714265222210088
 21
163.1265758210944057
 31
0.0
  0
LINE
  5
1A740
  8
0
 10
3409.4714265222210088
 20
163.1265758210944057
 30
0.0
 11
3409.4615840025458056
 21
163.1151411310042931
 31
0.0
  0
LINE
  5
1A741
  8
0
 10
3409.4615840025458056
 20
163.1151411310042931
 30
0.0
 11
3409.4714265222601171
 21
163.1066542941919124
 31
0.0
  0
LINE
  5
1A742
  8
0
 10
3409.4714265222601171
 20
163.1066542941919124
 30
0.0
 11
3409.4911115616118877
 21
163.1095190885552881
 31
0.0
  0
LINE
  5
1A743
  8
0
 10
3409.4911115616118877
 20
163.1095190885552881
 30
0.0
 11
3409.5009540813298372
 21
163.120933179097193
 31
0.0
  0
LINE
  5
1A744
  8
0
 10
3409.4911115616891948
 20
163.1295040529176958
 30
0.0
 11
3409.4911115616118877
 21
163.1095190885552881
 31
0.0
  0
LINE
  5
1A745
  8
0
 10
3409.4714265223278744
 20
163.1066542941169075
 30
0.0
 11
3409.4714265222210088
 21
163.1265758210944057
 31
0.0
  0
LINE
  5
1A746
  8
0
 10
3409.5009540813020976
 20
163.091239475715895
 30
0.0
 11
3409.4911115616209827
 21
163.0980357818085054
 31
0.0
  0
LINE
  5
1A747
  8
0
 10
3409.4911115616209827
 20
163.0980357818085054
 30
0.0
 11
3409.4714265220618472
 21
163.0952037261313023
 31
0.0
  0
LINE
  5
1A748
  8
0
 10
3409.4714265220618472
 20
163.0952037261313023
 30
0.0
 11
3409.4615840025230682
 21
163.0856172043874892
 31
0.0
  0
LINE
  5
1A749
  8
0
 10
3409.4615840025230682
 20
163.0856172043874892
 30
0.0
 11
3409.4714265222601171
 21
163.0788607557919079
 31
0.0
  0
LINE
  5
1A74A
  8
0
 10
3409.4714265222601171
 20
163.0788607557919079
 30
0.0
 11
3409.4910854150562045
 21
163.0816472212910924
 31
0.0
  0
LINE
  5
1A74B
  8
0
 10
3409.4910854150562045
 20
163.0816472212910924
 30
0.0
 11
3409.5009540812930027
 21
163.09123947572931
 31
0.0
  0
LINE
  5
1A74C
  8
0
 10
3409.4911115616209827
 20
163.0980357818085054
 30
0.0
 11
3409.4910854150562045
 21
163.0816472212910924
 31
0.0
  0
LINE
  5
1A74D
  8
0
 10
3409.4714265223278744
 20
163.078860755716903
 30
0.0
 11
3409.4714265220618472
 21
163.0952037261313023
 31
0.0
  0
LINE
  5
1A74E
  8
0
 10
3409.4452763819799657
 20
163.084129638439407
 30
0.0
 11
3409.4354307395688011
 21
163.091771059041406
 31
0.0
  0
LINE
  5
1A74F
  8
0
 10
3409.4354307395688011
 20
163.091771059041406
 30
0.0
 11
3409.4158042444091734
 21
163.090838037916086
 31
0.0
  0
LINE
  5
1A750
  8
0
 10
3409.4158042444091734
 20
163.090838037916086
 30
0.0
 11
3409.4059063032332233
 21
163.0822184096525973
 31
0.0
  0
LINE
  5
1A751
  8
0
 10
3409.4059063032332233
 20
163.0822184096525973
 30
0.0
 11
3409.415748822866135
 21
163.0745564507213885
 31
0.0
  0
LINE
  5
1A752
  8
0
 10
3409.415748822866135
 20
163.0745564507213885
 30
0.0
 11
3409.4354029953929057
 21
163.0754759963841138
 31
0.0
  0
LINE
  5
1A753
  8
0
 10
3409.4354029953929057
 20
163.0754759963841138
 30
0.0
 11
3409.4452763819699612
 21
163.0841296384529073
 31
0.0
  0
LINE
  5
1A754
  8
0
 10
3409.4354307395688011
 20
163.091771059041406
 30
0.0
 11
3409.4354029953929057
 21
163.0754759963841138
 31
0.0
  0
LINE
  5
1A755
  8
0
 10
3409.4157488229338924
 20
163.074556450646412
 30
0.0
 11
3409.4158042444091734
 21
163.090838037916086
 31
0.0
  0
LINE
  5
1A756
  8
0
 10
3409.473115231608972
 20
163.0743333462690998
 30
0.0
 11
3409.4632727119601441
 21
163.0807407566919096
 31
0.0
  0
LINE
  5
1A757
  8
0
 10
3409.4632727119601441
 20
163.0807407566919096
 30
0.0
 11
3409.4435876725601702
 21
163.0788868815918988
 31
0.0
  0
LINE
  5
1A758
  8
0
 10
3409.4435876725601702
 20
163.0788868815918988
 30
0.0
 11
3409.4337451528931524
 21
163.0706467874761074
 31
0.0
  0
LINE
  5
1A759
  8
0
 10
3409.4337451528931524
 20
163.0706467874761074
 30
0.0
 11
3409.4435876724901391
 21
163.0642635474239057
 31
0.0
  0
LINE
  5
1A75A
  8
0
 10
3409.4435876724901391
 20
163.0642635474239057
 30
0.0
 11
3409.4632455721448423
 21
163.0660934180855008
 31
0.0
  0
LINE
  5
1A75B
  8
0
 10
3409.4632455721448423
 20
163.0660934180855008
 30
0.0
 11
3409.4731152315989675
 21
163.0743333462824864
 31
0.0
  0
LINE
  5
1A75C
  8
0
 10
3409.4632727119601441
 20
163.0807407566919096
 30
0.0
 11
3409.4632455721448423
 21
163.0660934180855008
 31
0.0
  0
LINE
  5
1A75D
  8
0
 10
3409.4435876725578964
 20
163.0642635473489008
 30
0.0
 11
3409.4435876725601702
 21
163.0788868815918988
 31
0.0
  0
LINE
  5
1A75E
  8
0
 10
3409.5844706302641498
 20
163.1268696370800058
 30
0.0
 11
3409.5746281105930393
 21
163.1331821137738132
 31
0.0
  0
LINE
  5
1A75F
  8
0
 10
3409.5746281105930393
 20
163.1331821137738132
 30
0.0
 11
3409.5549430711389505
 21
163.1272253686803992
 31
0.0
  0
LINE
  5
1A760
  8
0
 10
3409.5549430711389505
 20
163.1272253686803992
 30
0.0
 11
3409.5451005515360521
 21
163.115072120227893
 31
0.0
  0
LINE
  5
1A761
  8
0
 10
3409.5451005515360521
 20
163.115072120227893
 30
0.0
 11
3409.5549430712308094
 21
163.1088170789618061
 31
0.0
  0
LINE
  5
1A762
  8
0
 10
3409.5549430712308094
 20
163.1088170789618061
 30
0.0
 11
3409.5746281105598428
 21
163.114658968891888
 31
0.0
  0
LINE
  5
1A763
  8
0
 10
3409.5746281105598428
 20
163.114658968891888
 30
0.0
 11
3409.5844706302541454
 21
163.1268696370933924
 31
0.0
  0
LINE
  5
1A764
  8
0
 10
3409.5746281105930393
 20
163.1331821137738132
 30
0.0
 11
3409.5746281105598428
 21
163.114658968891888
 31
0.0
  0
LINE
  5
1A765
  8
0
 10
3409.5549430712990215
 20
163.1088170788868013
 30
0.0
 11
3409.5549430711389505
 21
163.1272253686803992
 31
0.0
  0
LINE
  5
1A766
  8
0
 10
3409.6401483295471735
 20
163.1210698981194867
 30
0.0
 11
3409.6303058098678775
 21
163.1246535670404114
 31
0.0
  0
LINE
  5
1A767
  8
0
 10
3409.6303058098678775
 20
163.1246535670404114
 30
0.0
 11
3409.6108465593019901
 21
163.1167380153991076
 31
0.0
  0
LINE
  5
1A768
  8
0
 10
3409.6108465593019901
 20
163.1167380153991076
 30
0.0
 11
3409.6007782508841046
 21
163.1051696435247038
 31
0.0
  0
LINE
  5
1A769
  8
0
 10
3409.6007782508841046
 20
163.1051696435247038
 30
0.0
 11
3409.610620770623882
 21
163.101570207642709
 31
0.0
  0
LINE
  5
1A76A
  8
0
 10
3409.610620770623882
 20
163.101570207642709
 30
0.0
 11
3409.6303058098601468
 21
163.1094674497919073
 31
0.0
  0
LINE
  5
1A76B
  8
0
 10
3409.6303058098601468
 20
163.1094674497919073
 30
0.0
 11
3409.640148329537169
 21
163.121069898132987
 31
0.0
  0
LINE
  5
1A76C
  8
0
 10
3409.6303058098678775
 20
163.1246535670404114
 30
0.0
 11
3409.6303058098601468
 21
163.1094674497919073
 31
0.0
  0
LINE
  5
1A76D
  8
0
 10
3409.6106207706920941
 20
163.1015702075677041
 30
0.0
 11
3409.6108465593019901
 21
163.1167380153991076
 31
0.0
  0
LINE
  5
1A76E
  8
0
 10
3409.6123094799309001
 20
163.1225408467686862
 30
0.0
 11
3409.60246696023205
 21
163.1274949787004971
 31
0.0
  0
LINE
  5
1A76F
  8
0
 10
3409.60246696023205
 20
163.1274949787004971
 30
0.0
 11
3409.5827587120511453
 21
163.1205093322348887
 31
0.0
  0
LINE
  5
1A770
  8
0
 10
3409.5827587120511453
 20
163.1205093322348887
 30
0.0
 11
3409.572939401145959
 21
163.1087401437100937
 31
0.0
  0
LINE
  5
1A771
  8
0
 10
3409.572939401145959
 20
163.1087401437100937
 30
0.0
 11
3409.5827819208798246
 21
163.1038088737547014
 31
0.0
  0
LINE
  5
1A772
  8
0
 10
3409.5827819208798246
 20
163.1038088737547014
 30
0.0
 11
3409.602162404198225
 21
163.1105413190541924
 31
0.0
  0
LINE
  5
1A773
  8
0
 10
3409.602162404198225
 20
163.1105413190541924
 30
0.0
 11
3409.6123094799199862
 21
163.1225408467821865
 31
0.0
  0
LINE
  5
1A774
  8
0
 10
3409.60246696023205
 20
163.1274949787004971
 30
0.0
 11
3409.602162404198225
 21
163.1105413190541924
 31
0.0
  0
LINE
  5
1A775
  8
0
 10
3409.5827819209480367
 20
163.1038088736796965
 30
0.0
 11
3409.5827587120511453
 21
163.1205093322348887
 31
0.0
  0
LINE
  5
1A776
  8
0
 10
3409.5844706302359555
 20
163.0995239546209916
 30
0.0
 11
3409.5746281104898117
 21
163.1040978056803112
 31
0.0
  0
LINE
  5
1A777
  8
0
 10
3409.5746281104898117
 20
163.1040978056803112
 30
0.0
 11
3409.5549430712230787
 21
163.0983138855424954
 31
0.0
  0
LINE
  5
1A778
  8
0
 10
3409.5549430712230787
 20
163.0983138855424954
 30
0.0
 11
3409.5451005515078577
 21
163.0880271320347106
 31
0.0
  0
LINE
  5
1A779
  8
0
 10
3409.5451005515078577
 20
163.0880271320347106
 30
0.0
 11
3409.5549430711598689
 21
163.0835296009717865
 31
0.0
  0
LINE
  5
1A77A
  8
0
 10
3409.5549430711598689
 20
163.0835296009717865
 30
0.0
 11
3409.5746281105598428
 21
163.0891762083919048
 31
0.0
  0
LINE
  5
1A77B
  8
0
 10
3409.5746281105598428
 20
163.0891762083919048
 30
0.0
 11
3409.584470630225951
 21
163.0995239546344919
 31
0.0
  0
LINE
  5
1A77C
  8
0
 10
3409.5746281104898117
 20
163.1040978056803112
 30
0.0
 11
3409.5746281105598428
 21
163.0891762083919048
 31
0.0
  0
LINE
  5
1A77D
  8
0
 10
3409.554943071228081
 20
163.0835296008966964
 30
0.0
 11
3409.5549430712230787
 21
163.0983138855424954
 31
0.0
  0
LINE
  5
1A77E
  8
0
 10
3409.5566317806210463
 20
163.1039259507263921
 30
0.0
 11
3409.5467892608598959
 21
163.1098176715499051
 31
0.0
  0
LINE
  5
1A77F
  8
0
 10
3409.5467892608598959
 20
163.1098176715499051
 30
0.0
 11
3409.5271042215599664
 21
163.1050025116574886
 31
0.0
  0
LINE
  5
1A780
  8
0
 10
3409.5271042215599664
 20
163.1050025116574886
 30
0.0
 11
3409.5172617018820347
 21
163.0943694472605046
 31
0.0
  0
LINE
  5
1A781
  8
0
 10
3409.5172617018820347
 20
163.0943694472605046
 30
0.0
 11
3409.5271042214321824
 21
163.0885143570122864
 31
0.0
  0
LINE
  5
1A782
  8
0
 10
3409.5271042214321824
 20
163.0885143570122864
 30
0.0
 11
3409.5467892610267882
 21
163.0932562621958084
 31
0.0
  0
LINE
  5
1A783
  8
0
 10
3409.5467892610267882
 20
163.0932562621958084
 30
0.0
 11
3409.5566317806110419
 21
163.1039259507398924
 31
0.0
  0
LINE
  5
1A784
  8
0
 10
3409.5467892608598959
 20
163.1098176715499051
 30
0.0
 11
3409.5467892610267882
 21
163.0932562621958084
 31
0.0
  0
LINE
  5
1A785
  8
0
 10
3409.5271042214999397
 20
163.0885143569373099
 30
0.0
 11
3409.5271042215599664
 21
163.1050025116574886
 31
0.0
  0
LINE
  5
1A786
  8
0
 10
3409.5287929309029096
 20
163.1110603052376007
 30
0.0
 11
3409.5189504112609029
 21
163.1182774546356882
 31
0.0
  0
LINE
  5
1A787
  8
0
 10
3409.5189504112609029
 20
163.1182774546356882
 30
0.0
 11
3409.4992653718600195
 21
163.114409453520409
 31
0.0
  0
LINE
  5
1A788
  8
0
 10
3409.4992653718600195
 20
163.114409453520409
 30
0.0
 11
3409.4894228522362027
 21
163.1033959994954898
 31
0.0
  0
LINE
  5
1A789
  8
0
 10
3409.4894228522362027
 20
163.1033959994954898
 30
0.0
 11
3409.4992653718600195
 21
163.0962398504919122
 31
0.0
  0
LINE
  5
1A78A
  8
0
 10
3409.4992653718600195
 20
163.0962398504919122
 30
0.0
 11
3409.518950411251808
 21
163.1000369920820106
 31
0.0
  0
LINE
  5
1A78B
  8
0
 10
3409.518950411251808
 20
163.1000369920820106
 30
0.0
 11
3409.5287929308929051
 21
163.111060305251101
 31
0.0
  0
LINE
  5
1A78C
  8
0
 10
3409.5189504112609029
 20
163.1182774546356882
 30
0.0
 11
3409.518950411251808
 21
163.1000369920820106
 31
0.0
  0
LINE
  5
1A78D
  8
0
 10
3409.4992653719277769
 20
163.0962398504169073
 30
0.0
 11
3409.4992653718600195
 21
163.114409453520409
 31
0.0
  0
LINE
  5
1A78E
  8
0
 10
3409.5287929309802166
 20
163.0841146585939043
 30
0.0
 11
3409.5189504112381655
 21
163.0896186063847892
 31
0.0
  0
LINE
  5
1A78F
  8
0
 10
3409.5189504112381655
 20
163.0896186063847892
 30
0.0
 11
3409.4992653718600195
 21
163.0858573078922973
 31
0.0
  0
LINE
  5
1A790
  8
0
 10
3409.4992653718600195
 20
163.0858573078922973
 30
0.0
 11
3409.4894228522598496
 21
163.0766361995032128
 31
0.0
  0
LINE
  5
1A791
  8
0
 10
3409.4894228522598496
 20
163.0766361995032128
 30
0.0
 11
3409.49958010151704
 21
163.0712082798557958
 31
0.0
  0
LINE
  5
1A792
  8
0
 10
3409.49958010151704
 20
163.0712082798557958
 30
0.0
 11
3409.5189504112718168
 21
163.0748716111222905
 31
0.0
  0
LINE
  5
1A793
  8
0
 10
3409.5189504112718168
 20
163.0748716111222905
 30
0.0
 11
3409.5287929309702122
 21
163.0841146586074046
 31
0.0
  0
LINE
  5
1A794
  8
0
 10
3409.5189504112381655
 20
163.0896186063847892
 30
0.0
 11
3409.5189504112718168
 21
163.0748716111222905
 31
0.0
  0
LINE
  5
1A795
  8
0
 10
3409.4995801015861616
 20
163.0712082797807909
 30
0.0
 11
3409.4992653718600195
 21
163.0858573078922973
 31
0.0
  0
LINE
  5
1A796
  8
0
 10
3409.5287929309088213
 20
163.1439881405613903
 30
0.0
 11
3409.5187950943000033
 21
163.1512027587342004
 31
0.0
  0
LINE
  5
1A797
  8
0
 10
3409.5187950943000033
 20
163.1512027587342004
 30
0.0
 11
3409.499265371868205
 21
163.1490426537791905
 31
0.0
  0
LINE
  5
1A798
  8
0
 10
3409.499265371868205
 20
163.1490426537791905
 30
0.0
 11
3409.4894228521561672
 21
163.1360387123079931
 31
0.0
  0
LINE
  5
1A799
  8
0
 10
3409.4894228521561672
 20
163.1360387123079931
 30
0.0
 11
3409.4992653719168629
 21
163.1270770067891078
 31
0.0
  0
LINE
  5
1A79A
  8
0
 10
3409.4992653719168629
 20
163.1270770067891078
 30
0.0
 11
3409.5189504112609029
 21
163.1309999603919039
 31
0.0
  0
LINE
  5
1A79B
  8
0
 10
3409.5189504112609029
 20
163.1309999603919039
 30
0.0
 11
3409.5287929308979074
 21
163.1439881405748054
 31
0.0
  0
LINE
  5
1A79C
  8
0
 10
3409.5187950943000033
 20
163.1512027587342004
 30
0.0
 11
3409.5189504112609029
 21
163.1309999603919039
 31
0.0
  0
LINE
  5
1A79D
  8
0
 10
3409.499265371985075
 20
163.1270770067141029
 30
0.0
 11
3409.499265371868205
 21
163.1490426537791905
 31
0.0
  0
LINE
  5
1A79E
  8
0
 10
3409.5566317806437837
 20
163.134016481526487
 30
0.0
 11
3409.5467892608721741
 21
163.1416976019038998
 31
0.0
  0
LINE
  5
1A79F
  8
0
 10
3409.5467892608721741
 20
163.1416976019038998
 30
0.0
 11
3409.5271042215599664
 21
163.1367119064223061
 31
0.0
  0
LINE
  5
1A7A0
  8
0
 10
3409.5271042215599664
 20
163.1367119064223061
 30
0.0
 11
3409.5172617018902201
 21
163.1241592560853917
 31
0.0
  0
LINE
  5
1A7A1
  8
0
 10
3409.5172617018902201
 20
163.1241592560853917
 30
0.0
 11
3409.5271042215599664
 21
163.1165678466915097
 31
0.0
  0
LINE
  5
1A7A2
  8
0
 10
3409.5271042215599664
 20
163.1165678466915097
 30
0.0
 11
3409.5467892608598959
 21
163.1214409767183895
 31
0.0
  0
LINE
  5
1A7A3
  8
0
 10
3409.5467892608598959
 20
163.1214409767183895
 30
0.0
 11
3409.5566317806351435
 21
163.1340164815399021
 31
0.0
  0
LINE
  5
1A7A4
  8
0
 10
3409.5467892608721741
 20
163.1416976019038998
 30
0.0
 11
3409.5467892608598959
 21
163.1214409767183895
 31
0.0
  0
LINE
  5
1A7A5
  8
0
 10
3409.5271042216281785
 20
163.11656784661659
 30
0.0
 11
3409.5271042215599664
 21
163.1367119064223061
 31
0.0
  0
LINE
  5
1A7A6
  8
0
 10
3409.4137058449900906
 20
163.156932154075605
 30
0.0
 11
3409.4059063032677841
 21
163.1471447866267113
 31
0.0
  0
LINE
  5
1A7A7
  8
0
 10
3409.4059063032677841
 20
163.1471447866267113
 30
0.0
 11
3409.415748822959813
 21
163.13581691599191
 31
0.0
  0
LINE
  5
1A7A8
  8
0
 10
3409.415748822959813
 20
163.13581691599191
 30
0.0
 11
3409.4354338622410978
 21
163.1367986516987116
 31
0.0
  0
LINE
  5
1A7A9
  8
0
 10
3409.4354338622410978
 20
163.1367986516987116
 30
0.0
 11
3409.445276381964959
 21
163.1491374894874014
 31
0.0
  0
LINE
  5
1A7AA
  8
0
 10
3409.445276381964959
 20
163.1491374894874014
 30
0.0
 11
3409.4389572399018107
 21
163.1563994941998885
 31
0.0
  0
LINE
  5
1A7AB
  8
0
 10
3409.4354335644939056
 20
163.1565056919268955
 30
0.0
 11
3409.4354338623238618
 21
163.1367986517043107
 31
0.0
  0
LINE
  5
1A7AC
  8
0
 10
3409.4157488229520823
 20
163.1358169159028932
 30
0.0
 11
3409.4157488229520823
 21
163.1569332907783121
 31
0.0
  0
LINE
  5
1A7AD
  8
0
 10
3409.4649273995300973
 20
163.1552867753426881
 30
0.0
 11
3409.4615840025981015
 21
163.1507941360644054
 31
0.0
  0
LINE
  5
1A7AE
  8
0
 10
3409.4615840025981015
 20
163.1507941360644054
 30
0.0
 11
3409.471426522305137
 21
163.1404044544530905
 31
0.0
  0
LINE
  5
1A7AF
  8
0
 10
3409.471426522305137
 20
163.1404044544530905
 30
0.0
 11
3409.4911115616500865
 21
163.1433812981294977
 31
0.0
  0
LINE
  5
1A7B0
  8
0
 10
3409.4911115616500865
 20
163.1433812981294977
 30
0.0
 11
3409.4983257695089378
 21
163.1531622958063963
 31
0.0
  0
LINE
  5
1A7B1
  8
0
 10
3409.49112333089397
 20
163.153722121440012
 30
0.0
 11
3409.4911115615600465
 21
163.1433812981919118
 31
0.0
  0
LINE
  5
1A7B2
  8
0
 10
3409.4714340763948712
 20
163.1549670517399875
 30
0.0
 11
3409.471426522305137
 21
163.1404044544530905
 31
0.0
  0
LINE
  5
1A7B3
  8
0
 10
3409.5451005515078577
 20
163.1481526734841907
 30
0.0
 11
3409.5549430711598689
 21
163.1400781825335002
 31
0.0
  0
LINE
  5
1A7B4
  8
0
 10
3409.5549430711598689
 20
163.1400781825335002
 30
0.0
 11
3409.5697514502057857
 21
163.1445531602724088
 31
0.0
  0
LINE
  5
1A7B5
  8
0
 10
3409.5549430712480898
 20
163.1400781824642934
 30
0.0
 11
3409.5549430712480898
 21
163.1467980983846076
 31
0.0
  0
LINE
  5
1A7B6
  8
0
 10
3409.5762214086021231
 20
163.1434958988918993
 30
0.0
 11
3409.5729394011741533
 21
163.1389864727200063
 31
0.0
  0
LINE
  5
1A7B7
  8
0
 10
3409.5729394011741533
 20
163.1389864727200063
 30
0.0
 11
3409.5827819208598157
 21
163.1322943898165931
 31
0.0
  0
LINE
  5
1A7B8
  8
0
 10
3409.5827819208598157
 20
163.1322943898165931
 30
0.0
 11
3409.6013957651748569
 21
163.1389362012940012
 31
0.0
  0
LINE
  5
1A7B9
  8
0
 10
3409.5827819208598157
 20
163.1322943897918947
 30
0.0
 11
3409.5827819208598157
 21
163.1423761548998925
 31
0.0
  0
LINE
  5
1A7BA
  8
0
 10
3409.6049319608141559
 20
163.1382384831815102
 30
0.0
 11
3409.6007782508409036
 21
163.1326679843612055
 31
0.0
  0
LINE
  5
1A7BB
  8
0
 10
3409.6007782508409036
 20
163.1326679843612055
 30
0.0
 11
3409.6106207705352062
 21
163.1273423904218873
 31
0.0
  0
LINE
  5
1A7BC
  8
0
 10
3409.6106207705352062
 20
163.1273423904218873
 30
0.0
 11
3409.6261990669700026
 21
163.1336643124558066
 31
0.0
  0
LINE
  5
1A7BD
  8
0
 10
3409.6106207704601729
 20
163.1273423903917035
 30
0.0
 11
3409.6106207704601729
 21
163.1371792095386013
 31
0.0
  0
LINE
  5
1A7BE
  8
0
 10
3409.6310849112028336
 20
163.1323726507229992
 30
0.0
 11
3409.6286171005158394
 21
163.1292041851492911
 31
0.0
  0
LINE
  5
1A7BF
  8
0
 10
3409.6286171005158394
 20
163.1292041851492911
 30
0.0
 11
3409.6384596201660315
 21
163.1252519013175117
 31
0.0
  0
LINE
  5
1A7C0
  8
0
 10
3409.6384596201660315
 20
163.1252519013175117
 30
0.0
 11
3409.6449691260791042
 21
163.1281924612443106
 31
0.0
  0
LINE
  5
1A7C1
  8
0
 10
3409.6384596201601198
 20
163.1252519013146127
 30
0.0
 11
3409.6384596201601198
 21
163.1302474026211939
 31
0.0
  0
LINE
  5
1A7C2
  8
0
 10
3409.6567322204268748
 20
163.1240402976013115
 30
0.0
 11
3409.6384596201241948
 21
163.1156102751180015
 31
0.0
  0
LINE
  5
1A7C3
  8
0
 10
3409.6384596201241948
 20
163.1156102751180015
 30
0.0
 11
3409.6286171005122014
 21
163.1044109188979121
 31
0.0
  0
LINE
  5
1A7C4
  8
0
 10
3409.6286171005122014
 20
163.1044109188979121
 30
0.0
 11
3409.6384596201542081
 21
163.1021730178732128
 31
0.0
  0
LINE
  5
1A7C5
  8
0
 10
3409.6384596201542081
 20
163.1021730178732128
 30
0.0
 11
3409.6581446594218505
 21
163.1111937558364957
 31
0.0
  0
LINE
  5
1A7C6
  8
0
 10
3409.6581446594218505
 20
163.1111937558364957
 30
0.0
 11
3409.6661055950048649
 21
163.1203122562556018
 31
0.0
  0
LINE
  5
1A7C7
  8
0
 10
3409.6692246613838506
 20
163.1189862906990129
 30
0.0
 11
3409.6662984698259606
 21
163.1175124238982903
 31
0.0
  0
LINE
  5
1A7C8
  8
0
 10
3409.6662984698259606
 20
163.1175124238982903
 30
0.0
 11
3409.6564559501789518
 21
163.1065623683149965
 31
0.0
  0
LINE
  5
1A7C9
  8
0
 10
3409.6564559501789518
 20
163.1065623683149965
 30
0.0
 11
3409.6662984698391483
 21
163.1057401863762948
 31
0.0
  0
LINE
  5
1A7CA
  8
0
 10
3409.6662984698391483
 20
163.1057401863762948
 30
0.0
 11
3409.6812757377838352
 21
163.1134460741278076
 31
0.0
  0
LINE
  5
1A7CB
  8
0
 10
3409.6884523850890218
 20
163.1098191176857881
 30
0.0
 11
3409.6859835091831883
 21
163.1096261485384105
 31
0.0
  0
LINE
  5
1A7CC
  8
0
 10
3409.6859835091831883
 20
163.1096261485384105
 30
0.0
 11
3409.6662984697600223
 21
163.0993996585918921
 31
0.0
  0
LINE
  5
1A7CD
  8
0
 10
3409.6662984697600223
 20
163.0993996585918921
 30
0.0
 11
3409.6564559499461211
 21
163.0902518686606868
 31
0.0
  0
LINE
  5
1A7CE
  8
0
 10
3409.6564559499461211
 20
163.0902518686606868
 30
0.0
 11
3409.6662984697550201
 21
163.091160335180291
 31
0.0
  0
LINE
  5
1A7CF
  8
0
 10
3409.6662984697550201
 20
163.091160335180291
 30
0.0
 11
3409.6859835089380795
 21
163.101377703087195
 31
0.0
  0
LINE
  5
1A7D0
  8
0
 10
3409.6859835089380795
 20
163.101377703087195
 30
0.0
 11
3409.6926370264231991
 21
163.1075861941276059
 31
0.0
  0
LINE
  5
1A7D1
  8
0
 10
3409.695826028808824
 20
163.1001790013731068
 30
0.0
 11
3409.6859835091481727
 21
163.0972894348556963
 31
0.0
  0
LINE
  5
1A7D2
  8
0
 10
3409.6859835091481727
 20
163.0972894348556963
 30
0.0
 11
3409.6662984695149134
 21
163.0870493222344066
 31
0.0
  0
LINE
  5
1A7D3
  8
0
 10
3409.6662984695149134
 20
163.0870493222344066
 30
0.0
 11
3409.6564559500798168
 21
163.0796230592052041
 31
0.0
  0
LINE
  5
1A7D4
  8
0
 10
3409.6564559500798168
 20
163.0796230592052041
 30
0.0
 11
3409.666298469514004
 21
163.0823246695331079
 31
0.0
  0
LINE
  5
1A7D5
  8
0
 10
3409.666298469514004
 20
163.0823246695331079
 30
0.0
 11
3409.6859835085601844
 21
163.0926376555175068
 31
0.0
  0
LINE
  5
1A7D6
  8
0
 10
3409.6859835085601844
 20
163.0926376555175068
 30
0.0
 11
3409.6958260289679856
 21
163.1001790015019992
 31
0.0
  0
LINE
  5
1A7D7
  8
0
 10
3409.6679871791129699
 20
163.0898380686799953
 30
0.0
 11
3409.6581446595600937
 21
163.0885495858190097
 31
0.0
  0
LINE
  5
1A7D8
  8
0
 10
3409.6679871792089216
 20
163.103307723288907
 30
0.0
 11
3409.6581446595218949
 21
163.103760110011109
 31
0.0
  0
LINE
  5
1A7D9
  8
0
 10
3409.6581446595218949
 20
163.103760110011109
 30
0.0
 11
3409.6384596201801287
 21
163.0947776454196969
 31
0.0
  0
LINE
  5
1A7DA
  8
0
 10
3409.6384596201801287
 20
163.0947776454196969
 30
0.0
 11
3409.6286171005131109
 21
163.0853707407640059
 31
0.0
  0
LINE
  5
1A7DB
  8
0
 10
3409.6286171005131109
 20
163.0853707407640059
 30
0.0
 11
3409.6384596201601198
 21
163.0848182207446939
 31
0.0
  0
LINE
  5
1A7DC
  8
0
 10
3409.6384596201601198
 20
163.0848182207446939
 30
0.0
 11
3409.6581446595600937
 21
163.093770795311201
 31
0.0
  0
LINE
  5
1A7DD
  8
0
 10
3409.6581446595600937
 20
163.093770795311201
 30
0.0
 11
3409.6679871792089216
 21
163.103307723288907
 31
0.0
  0
LINE
  5
1A7DE
  8
0
 10
3409.6679871791129699
 20
163.0898380686799953
 30
0.0
 11
3409.6581446594900626
 21
163.0820420103077879
 31
0.0
  0
LINE
  5
1A7DF
  8
0
 10
3409.6581446594900626
 20
163.0820420103077879
 30
0.0
 11
3409.6384596201601198
 21
163.0730595456876983
 31
0.0
  0
LINE
  5
1A7E0
  8
0
 10
3409.6384596201601198
 20
163.0730595456876983
 30
0.0
 11
3409.6286171004371681
 21
163.0719010861670029
 31
0.0
  0
LINE
  5
1A7E1
  8
0
 10
3409.6286171004371681
 20
163.0719010861670029
 30
0.0
 11
3409.6384596201601198
 21
163.0795970112918951
 31
0.0
  0
LINE
  5
1A7E2
  8
0
 10
3409.6384596201601198
 20
163.0795970112918951
 30
0.0
 11
3409.6581446595600937
 21
163.0885495858190097
 31
0.0
  0
LINE
  5
1A7E3
  8
0
 10
3409.6679871788692253
 20
163.0821375389672028
 30
0.0
 11
3409.6581446595600937
 21
163.0790332374918989
 31
0.0
  0
LINE
  5
1A7E4
  8
0
 10
3409.6581446595600937
 20
163.0790332374918989
 30
0.0
 11
3409.6384596195462109
 21
163.0700124990640063
 31
0.0
  0
LINE
  5
1A7E5
  8
0
 10
3409.6384596195462109
 20
163.0700124990640063
 30
0.0
 11
3409.6286171004530843
 21
163.064001955234005
 31
0.0
  0
LINE
  5
1A7E6
  8
0
 10
3409.6286171004530843
 20
163.064001955234005
 30
0.0
 11
3409.6384596201928616
 21
163.0669528662884034
 31
0.0
  0
LINE
  5
1A7E7
  8
0
 10
3409.6384596201928616
 20
163.0669528662884034
 30
0.0
 11
3409.6581446590730593
 21
163.076066290371898
 31
0.0
  0
LINE
  5
1A7E8
  8
0
 10
3409.6581446590730593
 20
163.076066290371898
 30
0.0
 11
3409.6679871792248377
 21
163.082137539094191
 31
0.0
  0
LINE
  5
1A7E9
  8
0
 10
3409.640148329629028
 20
163.072167964412813
 30
0.0
 11
3409.6303058098969814
 21
163.0706326355102931
 31
0.0
  0
LINE
  5
1A7EA
  8
0
 10
3409.640148329629028
 20
163.072167964412813
 30
0.0
 11
3409.6303058098928886
 21
163.0657971410172138
 31
0.0
  0
LINE
  5
1A7EB
  8
0
 10
3409.6303058098928886
 20
163.0657971410172138
 30
0.0
 11
3409.6241727393598921
 21
163.0632646221918947
 31
0.0
  0
LINE
  5
1A7EC
  8
0
 10
3409.6241727393598921
 20
163.0632646221918947
 30
0.0
 11
3409.6299929132660509
 21
163.0684766699739896
 31
0.0
  0
LINE
  5
1A7ED
  8
0
 10
3409.6299929132660509
 20
163.0684766699739896
 30
0.0
 11
3409.6250596897598371
 21
163.0684766699918953
 31
0.0
  0
LINE
  5
1A7EE
  8
0
 10
3409.6303058098601468
 20
163.0706326354919042
 30
0.0
 11
3409.6109134209841613
 21
163.0629443311487137
 31
0.0
  0
LINE
  5
1A7EF
  8
0
 10
3409.6109134209841613
 20
163.0629443311487137
 30
0.0
 11
3409.6106207703910513
 21
163.0630874414256084
 31
0.0
  0
LINE
  5
1A7F0
  8
0
 10
3409.6106207703910513
 20
163.0630874414256084
 30
0.0
 11
3409.6033743622219845
 21
163.0635166846147968
 31
0.0
  0
LINE
  5
1A7F1
  8
0
 10
3409.6033743622219845
 20
163.0635166846147968
 30
0.0
 11
3409.5818745187739296
 21
163.0729452430475988
 31
0.0
  0
LINE
  5
1A7F2
  8
0
 10
3409.5818745187739296
 20
163.0729452430475988
 30
0.0
 11
3409.5795891489428868
 21
163.0748324177750135
 31
0.0
  0
LINE
  5
1A7F3
  8
0
 10
3409.640148329493968
 20
163.082837304657005
 30
0.0
 11
3409.6303058098728798
 21
163.0830267124059958
 31
0.0
  0
LINE
  5
1A7F4
  8
0
 10
3409.6303058098728798
 20
163.0830267124059958
 30
0.0
 11
3409.6121344991502156
 21
163.0758141963297874
 31
0.0
  0
LINE
  5
1A7F5
  8
0
 10
3409.6121344991502156
 20
163.0758141963297874
 30
0.0
 11
3409.6106207705211091
 21
163.0765570959165132
 31
0.0
  0
LINE
  5
1A7F6
  8
0
 10
3409.6106207705211091
 20
163.0765570959165132
 30
0.0
 11
3409.6007782508390846
 21
163.0771040832746053
 31
0.0
  0
LINE
  5
1A7F7
  8
0
 10
3409.6007782508390846
 20
163.0771040832746053
 30
0.0
 11
3409.6106207704601729
 21
163.068308650838901
 31
0.0
  0
LINE
  5
1A7F8
  8
0
 10
3409.6106207704601729
 20
163.068308650838901
 30
0.0
 11
3409.6121344990469879
 21
163.0675657511806946
 31
0.0
  0
LINE
  5
1A7F9
  8
0
 10
3409.6121344990469879
 20
163.0675657511806946
 30
0.0
 11
3409.6303058098837937
 21
163.0747782673167023
 31
0.0
  0
LINE
  5
1A7FA
  8
0
 10
3409.6303058098837937
 20
163.0747782673167023
 30
0.0
 11
3409.640148329493968
 21
163.082837304657005
 31
0.0
  0
LINE
  5
1A7FB
  8
0
 10
3409.5818745187739296
 20
163.0729452430475135
 30
0.0
 11
3409.5818745187598324
 21
163.0684766699918953
 31
0.0
  0
LINE
  5
1A7FC
  8
0
 10
3409.5818745187598324
 20
163.0684766699918953
 30
0.0
 11
3409.5580303084198022
 21
163.0684766699918953
 31
0.0
  0
ARC
  5
1A7FD
  8
0
 10
3409.397705751587182
 20
163.6291234510541983
 30
0.0
 40
0.6070065626058183
 50
270.0044405847369831
 51
274.3708693450972191
  0
ARC
  5
1A7FE
  8
0
 10
3409.3978453982958854
 20
163.6271203998803969
 30
0.0
 40
0.6049986944284387
 50
274.3721399081542245
 51
285.0110243845034006
  0
ARC
  5
1A7FF
  8
0
 10
3409.3990235898959327
 20
163.6227267107340992
 30
0.0
 40
0.600449778100362
 50
285.0110243845034006
 51
292.6226665105493225
  0
ARC
  5
1A800
  8
0
 10
3409.5900181880037962
 20
163.1981824065400133
 30
0.0
 40
0.1402558603474966
 50
286.6930161929323049
 51
290.9417864274457202
  0
LINE
  5
1A801
  8
0
 10
3409.6303058098601468
 20
163.0638372767919009
 30
0.0
 11
3409.6106207704369808
 21
163.0559400345090069
 31
0.0
  0
LINE
  5
1A802
  8
0
 10
3409.6106207704601729
 20
163.055940034491897
 30
0.0
 11
3409.6007782502470036
 21
163.0512910250799905
 31
0.0
  0
LINE
  5
1A803
  8
0
 10
3409.6007782502470036
 20
163.0512910250799905
 30
0.0
 11
3409.6106207704601729
 21
163.0545238407918873
 31
0.0
  0
LINE
  5
1A804
  8
0
 10
3409.6106207704601729
 20
163.0545238407918873
 30
0.0
 11
3409.6303058098528709
 21
163.062526503600111
 31
0.0
  0
LINE
  5
1A805
  8
0
 10
3409.6303058098528709
 20
163.062526503600111
 30
0.0
 11
3409.6401483295649086
 21
163.0671912799232075
 31
0.0
  0
LINE
  5
1A806
  8
0
 10
3409.6123094796821533
 20
163.0574815911573978
 30
0.0
 11
3409.6024669601729329
 21
163.0524762319294894
 31
0.0
  0
LINE
  5
1A807
  8
0
 10
3409.6024669601729329
 20
163.0524762319294894
 30
0.0
 11
3409.582781920601974
 21
163.0456868699021982
 31
0.0
  0
LINE
  5
1A808
  8
0
 10
3409.582781920601974
 20
163.0456868699021982
 30
0.0
 11
3409.5729394011627846
 21
163.0439659307025977
 31
0.0
  0
LINE
  5
1A809
  8
0
 10
3409.5729394011627846
 20
163.0439659307025977
 30
0.0
 11
3409.5827819208598157
 21
163.0471397317913897
 31
0.0
  0
LINE
  5
1A80A
  8
0
 10
3409.5827819208598157
 20
163.0471397317913897
 30
0.0
 11
3409.6024669602597896
 21
163.0538954113918919
 31
0.0
  0
LINE
  5
1A80B
  8
0
 10
3409.6024669602597896
 20
163.0538954113918919
 30
0.0
 11
3409.6123094796821533
 21
163.0574815911573978
 31
0.0
  0
LINE
  5
1A80C
  8
0
 10
3409.5844706297871198
 20
163.0456453362197067
 30
0.0
 11
3409.5746281105930393
 21
163.043546035350289
 31
0.0
  0
LINE
  5
1A80D
  8
0
 10
3409.5746281105930393
 20
163.043546035350289
 30
0.0
 11
3409.5549430711598689
 21
163.0378329690919088
 31
0.0
  0
LINE
  5
1A80E
  8
0
 10
3409.5549430711598689
 20
163.0378329690919088
 30
0.0
 11
3409.5451005514760254
 21
163.0341485137361985
 31
0.0
  0
LINE
  5
1A80F
  8
0
 10
3409.5451005514760254
 20
163.0341485137361985
 30
0.0
 11
3409.554943071220805
 21
163.0361868220780934
 31
0.0
  0
LINE
  5
1A810
  8
0
 10
3409.554943071220805
 20
163.0361868220780934
 30
0.0
 11
3409.5746281105598428
 21
163.0419707421918929
 31
0.0
  0
LINE
  5
1A811
  8
0
 10
3409.5746281105598428
 20
163.0419707421918929
 30
0.0
 11
3409.5844706302491431
 21
163.0456453363358094
 31
0.0
  0
LINE
  5
1A812
  8
0
 10
3409.5566317805978542
 20
163.039247815416104
 30
0.0
 11
3409.5467892601218409
 21
163.0352162931914108
 31
0.0
  0
LINE
  5
1A813
  8
0
 10
3409.5467892601218409
 20
163.0352162931914108
 30
0.0
 11
3409.5271042215731541
 21
163.0305102313267867
 31
0.0
  0
LINE
  5
1A814
  8
0
 10
3409.5271042215731541
 20
163.0305102313267867
 30
0.0
 11
3409.5172617018529309
 21
163.0298771459686122
 31
0.0
  0
LINE
  5
1A815
  8
0
 10
3409.5172617018529309
 20
163.0298771459686122
 30
0.0
 11
3409.5271042215599664
 21
163.0320419387969082
 31
0.0
  0
LINE
  5
1A816
  8
0
 10
3409.5271042215599664
 20
163.0320419387969082
 30
0.0
 11
3409.5467892608598959
 21
163.0367241371114062
 31
0.0
  0
LINE
  5
1A817
  8
0
 10
3409.5467892608598959
 20
163.0367241371114062
 30
0.0
 11
3409.5566317805710241
 21
163.0392478154568892
 31
0.0
  0
LINE
  5
1A818
  8
0
 10
3409.52879293074011
 20
163.0302360403142927
 30
0.0
 11
3409.5189504112381655
 21
163.0292414380639912
 31
0.0
  0
LINE
  5
1A819
  8
0
 10
3409.5189504112381655
 20
163.0292414380639912
 30
0.0
 11
3409.4992653718409201
 21
163.0255240200706908
 31
0.0
  0
LINE
  5
1A81A
  8
0
 10
3409.4992653718409201
 20
163.0255240200706908
 30
0.0
 11
3409.4894228522380217
 21
163.0227575813501062
 31
0.0
  0
LINE
  5
1A81B
  8
0
 10
3409.4894228522380217
 20
163.0227575813501062
 30
0.0
 11
3409.4992653718600195
 21
163.0237302445324019
 31
0.0
  0
LINE
  5
1A81C
  8
0
 10
3409.4992653718600195
 20
163.0237302445324019
 30
0.0
 11
3409.5189504112768191
 21
163.0274915429044995
 31
0.0
  0
LINE
  5
1A81D
  8
0
 10
3409.5189504112768191
 20
163.0274915429044995
 30
0.0
 11
3409.52879293074011
 21
163.0302360403142927
 31
0.0
  0
LINE
  5
1A81E
  8
0
 10
3409.5009540812939122
 20
163.0268066698992868
 30
0.0
 11
3409.4910095955160614
 21
163.0252478497770028
 31
0.0
  0
LINE
  5
1A81F
  8
0
 10
3409.4910095955160614
 20
163.0252478497770028
 30
0.0
 11
3409.4714265222601171
 21
163.0225070509856096
 31
0.0
  0
LINE
  5
1A820
  8
0
 10
3409.4714265222601171
 20
163.0225070509856096
 30
0.0
 11
3409.4615840025599027
 21
163.0212896250918959
 31
0.0
  0
LINE
  5
1A821
  8
0
 10
3409.4615840025599027
 20
163.0212896250918959
 30
0.0
 11
3409.4714265227471515
 21
163.0209277312488041
 31
0.0
  0
LINE
  5
1A822
  8
0
 10
3409.4714265227471515
 20
163.0209277312488041
 30
0.0
 11
3409.4911115615600465
 21
163.0236980485919105
 31
0.0
  0
LINE
  5
1A823
  8
0
 10
3409.4911115615600465
 20
163.0236980485919105
 30
0.0
 11
3409.5009540812939122
 21
163.0268066698992868
 31
0.0
  0
LINE
  5
1A824
  8
0
 10
3409.4731152316307998
 20
163.0204547280117993
 30
0.0
 11
3409.4632727119601441
 21
163.0204662227959886
 31
0.0
  0
LINE
  5
1A825
  8
0
 10
3409.4632727119601441
 20
163.0204662227959886
 30
0.0
 11
3409.4435876727220602
 21
163.0186333743046134
 31
0.0
  0
LINE
  5
1A826
  8
0
 10
3409.4435876727220602
 20
163.0186333743046134
 30
0.0
 11
3409.4337451531769148
 21
163.0167681692007022
 31
0.0
  0
LINE
  5
1A827
  8
0
 10
3409.4337451531769148
 20
163.0167681692007022
 30
0.0
 11
3409.4435876725601702
 21
163.0167681692007022
 31
0.0
  0
LINE
  5
1A828
  8
0
 10
3409.4435876725601702
 20
163.0167681692007022
 30
0.0
 11
3409.4632727119269475
 21
163.018613693313398
 31
0.0
  0
LINE
  5
1A829
  8
0
 10
3409.4632727119269475
 20
163.018613693313398
 30
0.0
 11
3409.4731152316830958
 21
163.0204547280227985
 31
0.0
  0
LINE
  5
1A82A
  8
0
 10
3409.4452767019602106
 20
163.0197756401919094
 30
0.0
 11
3409.4354338622601972
 21
163.0191649273706105
 31
0.0
  0
LINE
  5
1A82B
  8
0
 10
3409.4354338622601972
 20
163.0191649273706105
 30
0.0
 11
3409.415748822959813
 21
163.0182543973234885
 31
0.0
  0
LINE
  5
1A82C
  8
0
 10
3409.415748822959813
 20
163.0182543973234885
 30
0.0
 11
3409.4059063032141239
 21
163.0179534401173953
 31
0.0
  0
LINE
  5
1A82D
  8
0
 10
3409.4059063032141239
 20
163.0179534401173953
 30
0.0
 11
3409.4157488229411683
 21
163.0166543471482896
 31
0.0
  0
LINE
  5
1A82E
  8
0
 10
3409.4157488229411683
 20
163.0166543471482896
 30
0.0
 11
3409.4354338619341434
 21
163.017569269234798
 31
0.0
  0
LINE
  5
1A82F
  8
0
 10
3409.4354338619341434
 20
163.017569269234798
 30
0.0
 11
3409.4452767019602106
 21
163.0197756401919094
 31
0.0
  0
LINE
  5
1A830
  8
0
 10
3409.4174375322500055
 20
163.0160076785037973
 30
0.0
 11
3409.4075950126621137
 21
163.0169629564597074
 31
0.0
  0
LINE
  5
1A831
  8
0
 10
3409.4075950126621137
 20
163.0169629564597074
 30
0.0
 11
3409.3879099733148905
 21
163.016962956467097
 31
0.0
  0
LINE
  5
1A832
  8
0
 10
3409.3879102756282009
 20
163.0150703579751053
 30
0.0
 11
3409.4075953169917739
 21
163.0150703579751053
 31
0.0
  0
LINE
  5
1A833
  8
0
 10
3409.40759501265984
 20
163.0150703579751053
 30
0.0
 11
3409.4174375322500055
 21
163.0160076785037973
 31
0.0
  0
LINE
  5
1A834
  8
0
 10
3409.4354338622488285
 20
163.0662266781014011
 30
0.0
 11
3409.4157488229870978
 21
163.0653117559922123
 31
0.0
  0
LINE
  5
1A835
  8
0
 10
3409.4157488229870978
 20
163.0653117559922123
 30
0.0
 11
3409.4059063032600534
 21
163.0583624037919037
 31
0.0
  0
LINE
  5
1A836
  8
0
 10
3409.4059063032600534
 20
163.0583624037919037
 30
0.0
 11
3409.4452763819358552
 21
163.0601845848273967
 31
0.0
  0
LINE
  5
1A837
  8
0
 10
3409.4452763819358552
 20
163.0601845848273967
 30
0.0
 11
3409.4354338622702016
 21
163.0662266780873892
 31
0.0
  0
LINE
  5
1A838
  8
0
 10
3409.5009540813448439
 20
163.067215633606196
 30
0.0
 11
3409.4615840025599027
 21
163.0616985887918986
 31
0.0
  0
LINE
  5
1A839
  8
0
 10
3409.4615840025599027
 20
163.0616985887918986
 30
0.0
 11
3409.4714265222251015
 21
163.0695851400396066
 31
0.0
  0
LINE
  5
1A83A
  8
0
 10
3409.4714265222251015
 20
163.0695851400396066
 30
0.0
 11
3409.4911115616628194
 21
163.072355457553499
 31
0.0
  0
LINE
  5
1A83B
  8
0
 10
3409.4911115616628194
 20
163.072355457553499
 30
0.0
 11
3409.5009540814080538
 21
163.0672156336148078
 31
0.0
  0
LINE
  5
1A83C
  8
0
 10
3409.5172617018351957
 20
163.0702861096372089
 30
0.0
 11
3409.5271042214981208
 21
163.0791676401989889
 31
0.0
  0
LINE
  5
1A83D
  8
0
 10
3409.5271042214981208
 20
163.0791676401989889
 30
0.0
 11
3409.5467892608671718
 21
163.0838737023086082
 31
0.0
  0
LINE
  5
1A83E
  8
0
 10
3409.5467892608671718
 20
163.0838737023086082
 30
0.0
 11
3409.5566317805801191
 21
163.0796567791338987
 31
0.0
  0
LINE
  5
1A83F
  8
0
 10
3409.5566317805801191
 20
163.0796567791338987
 30
0.0
 11
3409.5172617018351957
 21
163.0702861096372089
 31
0.0
  0
LINE
  5
1A840
  8
0
 10
3409.5729394010950273
 20
163.0843748943931928
 30
0.0
 11
3409.6123061576599866
 21
163.0978870356919117
 31
0.0
  0
LINE
  5
1A841
  8
0
 10
3409.6123061576599866
 20
163.0978870356919117
 30
0.0
 11
3409.6024636872598421
 21
163.1011347958919089
 31
0.0
  0
LINE
  5
1A842
  8
0
 10
3409.6024636872598421
 20
163.1011347958919089
 30
0.0
 11
3409.5827819206851927
 21
163.0943442787877018
 31
0.0
  0
LINE
  5
1A843
  8
0
 10
3409.5827819206851927
 20
163.0943442787877018
 30
0.0
 11
3409.5729394010950273
 21
163.0843748943931928
 31
0.0
  0
LINE
  5
1A844
  8
0
 10
3409.6061579717302266
 20
163.0838973018894933
 30
0.0
 11
3409.6115691611771581
 21
163.0790132371988079
 31
0.0
  0
LINE
  5
1A845
  8
0
 10
3409.6115691611771581
 20
163.0790132371988079
 30
0.0
 11
3409.612303786413122
 21
163.0789192152716112
 31
0.0
  0
LINE
  5
1A846
  8
0
 10
3409.612303786413122
 20
163.0789192152716112
 30
0.0
 11
3409.6117045783530557
 21
163.0783830034201003
 31
0.0
  0
LINE
  5
1A847
  8
0
 10
3409.6117045783530557
 20
163.0783830034201003
 30
0.0
 11
3409.6121344990451689
 21
163.0758141963812022
 31
0.0
  0
LINE
  5
1A848
  8
0
 10
3409.6109134209868898
 20
163.0816351950282126
 30
0.0
 11
3409.6115691611771581
 21
163.0790132371988079
 31
0.0
  0
LINE
  5
1A849
  8
0
 10
3409.6117045783530557
 20
163.0783830034201003
 30
0.0
 11
3409.6024669603912116
 21
163.0789326345991128
 31
0.0
  0
LINE
  5
1A84A
  8
0
 10
3409.6024669603912116
 20
163.0789326345991128
 30
0.0
 11
3409.5980226415408652
 21
163.0809738200512982
 31
0.0
  0
LINE
  5
1A84B
  8
0
 10
3409.6024669601902133
 20
163.0789326346084067
 30
0.0
 11
3409.6024669602597896
 21
163.0825547549937085
 31
0.0
  0
LINE
  5
1A84C
  8
0
 10
3409.5914026309160363
 20
163.0786923438014071
 30
0.0
 11
3409.6024669602597896
 21
163.0737114251919024
 31
0.0
  0
LINE
  5
1A84D
  8
0
 10
3409.6024669602597896
 20
163.0737114251919024
 30
0.0
 11
3409.6117017250930985
 21
163.0654228781405095
 31
0.0
  0
LINE
  5
1A84E
  8
0
 10
3409.6117017250930985
 20
163.0654228781405095
 30
0.0
 11
3409.6123094799918363
 21
163.065448842275913
 31
0.0
  0
LINE
  5
1A84F
  8
0
 10
3409.6123094799918363
 20
163.065448842275913
 30
0.0
 11
3409.6115691612258161
 21
163.0649231644300983
 31
0.0
  0
LINE
  5
1A850
  8
0
 10
3409.6115691612258161
 20
163.0649231644300983
 30
0.0
 11
3409.6109134210109914
 21
163.0629443312161868
 31
0.0
  0
LINE
  5
1A851
  8
0
 10
3409.6121344989951467
 20
163.06756575116421
 30
0.0
 11
3409.6117017243800547
 21
163.0654228787803106
 31
0.0
  0
LINE
  5
1A852
  8
0
 10
3409.6115691612772025
 20
163.0649231644235044
 30
0.0
 11
3409.6024669602597896
 21
163.0654629799477959
 31
0.0
  0
LINE
  5
1A853
  8
0
 10
3409.6024669602597896
 20
163.0654629799477959
 30
0.0
 11
3409.6024669602597896
 21
163.0737114252434878
 31
0.0
  0
LINE
  5
1A854
  8
0
 10
3409.6024669602597896
 20
163.0654629799477959
 30
0.0
 11
3409.5827819208598157
 21
163.0740951502918961
 31
0.0
  0
LINE
  5
1A855
  8
0
 10
3409.5827819208598157
 20
163.0740951502918961
 30
0.0
 11
3409.5812556644359574
 21
163.07536061860921
 31
0.0
  0
LINE
  5
1A856
  8
0
 10
3409.5827819208770961
 20
163.0740951502843927
 30
0.0
 11
3409.5827821274160669
 21
163.0758491094402984
 31
0.0
  0
LINE
  5
1A857
  8
0
 10
3409.5746281105598428
 20
163.0684766699918953
 30
0.0
 11
3409.5746281105598428
 21
163.0732928753502051
 31
0.0
  0
LINE
  5
1A858
  8
0
 10
3409.6106207704829103
 20
163.0683086507777944
 30
0.0
 11
3409.6106207704601729
 21
163.0765570959198953
 31
0.0
  0
LINE
  5
1A859
  8
0
 10
3409.6106207704760891
 20
163.0817783053840913
 30
0.0
 11
3409.6106207704760891
 21
163.0855576985019013
 31
0.0
  0
LINE
  5
1A85A
  8
0
 10
3409.6303058051580592
 20
163.0625265016911101
 30
0.0
 11
3409.6303058051580592
 21
163.0638372753815872
 31
0.0
  0
LINE
  5
1A85B
  8
0
 10
3409.6303058051580592
 20
163.0657971390614875
 30
0.0
 11
3409.6303058051580592
 21
163.0706326336274117
 31
0.0
  0
LINE
  5
1A85C
  8
0
 10
3409.6303058051580592
 20
163.0747782654403011
 30
0.0
 11
3409.6303058051580592
 21
163.0830267105341989
 31
0.0
  0
LINE
  5
1A85D
  8
0
 10
3409.6303058051580592
 20
163.0893234975650046
 30
0.0
 11
3409.6303058051580592
 21
163.1009848934151023
 31
0.0
  0
LINE
  5
1A85E
  8
0
 10
3409.6384596201241948
 20
163.1156102751180015
 30
0.0
 11
3409.6384596201542081
 21
163.1021730178732128
 31
0.0
  0
LINE
  5
1A85F
  8
0
 10
3409.6384596201801287
 20
163.0947776454196969
 30
0.0
 11
3409.6384596201601198
 21
163.0848182207446939
 31
0.0
  0
LINE
  5
1A860
  8
0
 10
3409.6384596201601198
 20
163.0795970112918951
 30
0.0
 11
3409.6384596201601198
 21
163.0730595456876983
 31
0.0
  0
LINE
  5
1A861
  8
0
 10
3409.6384596195462109
 20
163.0700124990640063
 30
0.0
 11
3409.6384596201928616
 21
163.0669528662884034
 31
0.0
  0
LINE
  5
1A862
  8
0
 10
3409.6581446590730593
 20
163.076066290371898
 30
0.0
 11
3409.6581446595600937
 21
163.0790332374918989
 31
0.0
  0
LINE
  5
1A863
  8
0
 10
3409.6581446594900626
 20
163.0820420103077879
 30
0.0
 11
3409.6581446595600937
 21
163.0885495858190097
 31
0.0
  0
LINE
  5
1A864
  8
0
 10
3409.6581446595600937
 20
163.093770795311201
 30
0.0
 11
3409.6586028254478151
 21
163.1037390515639061
 31
0.0
  0
LINE
  5
1A865
  8
0
 10
3409.6662984698391483
 20
163.1057401863762948
 30
0.0
 11
3409.6662984698259606
 21
163.1175124238982903
 31
0.0
  0
LINE
  5
1A866
  8
0
 10
3409.6662984697600223
 20
163.0993996585918921
 30
0.0
 11
3409.6662984697550201
 21
163.091160335180291
 31
0.0
  0
LINE
  5
1A867
  8
0
 10
3409.6662984695149134
 20
163.0870493222344066
 30
0.0
 11
3409.666298469514004
 21
163.0823246695331079
 31
0.0
  0
LINE
  5
1A868
  8
0
 10
3409.6859835085601844
 20
163.0926376555175068
 30
0.0
 11
3409.6859835091481727
 21
163.0972894348556963
 31
0.0
  0
LINE
  5
1A869
  8
0
 10
3409.6859835089380795
 20
163.101377703087195
 30
0.0
 11
3409.6859835091831883
 21
163.1096261485384105
 31
0.0
  0
ARC
  5
1A86A
  8
0
 10
3409.3984749131041099
 20
161.8212592584380047
 30
0.0
 40
1.3802431982561369
 50
83.4637520694982129
 51
90.0299760553429564
  0
ARC
  5
1A86B
  8
0
 10
3409.4653415526690878
 20
162.4048573930394923
 30
0.0
 40
0.7928268806438992
 50
75.7263810755387539
 51
83.4637520960123851
  0
ARC
  5
1A86C
  8
0
 10
3409.586269198744958
 20
162.8801897521277908
 30
0.0
 40
0.3023532858582498
 50
63.408511752603097
 51
75.7263810755387539
  0
ARC
  5
1A86D
  8
0
 10
3409.6863483718070711
 20
163.08011742149111
 30
0.0
 40
0.0787757515267583
 50
40.54915259307149
 51
63.408511752603097
  0
ARC
  5
1A86E
  8
0
 10
3409.7276938655668346
 20
163.1154911965624876
 30
0.0
 40
0.0243629422162967
 50
12.99191255162137
 51
40.5491525930727121
  0
ARC
  5
1A86F
  8
0
 10
3409.7239035353068175
 20
163.1146166933847041
 30
0.0
 40
0.0282528470077515
 50
4.650438130764738
 51
12.99191255162137
  0
LINE
  5
1A870
  8
0
 10
3408.5123790996599382
 20
163.6070344633317006
 30
0.0
 11
3408.5123790996599382
 21
163.8049490672966897
 31
0.0
  0
ARC
  5
1A871
  8
0
 10
3410.2514640996269009
 20
163.800386960029698
 30
0.0
 40
0.0319893728334751
 50
8.1990900128309452
 51
89.1017230600033088
  0
ARC
  5
1A872
  8
0
 10
3409.6456055680810096
 20
163.7903360591782871
 30
0.0
 40
0.6633493835818715
 50
290.5065443150850797
 51
343.9588671527225756
  0
LINE
  5
1A873
  8
0
 10
3410.2831264929600366
 20
163.6070344633317006
 30
0.0
 11
3410.2831264929600366
 21
163.8049490672966897
 31
0.0
  0
ARC
  5
1A874
  8
0
 10
3411.0526353310378909
 20
193.8730800831243073
 30
0.0
 40
0.0158605807137526
 50
112.9966161537301019
 51
215.760581503819509
  0
ARC
  5
1A875
  8
0
 10
3411.0815326711831403
 20
193.9021489727523999
 30
0.0
 40
0.0566950177214783
 50
222.5482772202661863
 51
293.5268025488704211
  0
ARC
  5
1A876
  8
0
 10
3411.0997061195998867
 20
193.865518813047089
 30
0.0
 40
0.0159861554976066
 50
286.1923909850556811
 51
27.5553969136943095
  0
ARC
  5
1A877
  8
0
 10
3411.0710741340108143
 20
193.838804971547205
 30
0.0
 40
0.0547327900958636
 50
38.5497365312722096
 51
116.7500232293591012
  0
ARC
  5
1A878
  8
0
 10
3411.0099297757369641
 20
193.8866290277221083
 30
0.0
 40
0.0486730783452054
 50
118.7114519875741934
 51
220.8421640180652048
  0
ARC
  5
1A879
  8
0
 10
3411.0890168834048382
 20
193.9614213006126988
 30
0.0
 40
0.1574910575545338
 50
222.6106065000012109
 51
297.4344456290330072
  0
ARC
  5
1A87A
  8
0
 10
3411.1379460270209165
 20
193.8686772741866093
 30
0.0
 40
0.0526384696859408
 50
296.6765967294072084
 51
29.4459166379615489
  0
ARC
  5
1A87B
  8
0
 10
3411.0636105828339169
 20
193.7896368078760929
 30
0.0
 40
0.1595290558649843
 50
41.1224901072995621
 51
118.885935083561904
  0
LINE
  5
1A87C
  8
0
 10
3410.9612570032181793
 20
193.8868015701667105
 30
0.0
 11
3410.9571257402149058
 21
193.9299199471030022
 31
0.0
  0
ARC
  5
1A87D
  8
0
 10
3410.9961038004757938
 20
193.9149303605464922
 30
0.0
 40
0.0417609493044361
 50
150.9454358107973917
 51
211.9808292229307085
  0
ARC
  5
1A87E
  8
0
 10
3411.0520663324118686
 20
193.8497917373518931
 30
0.0
 40
0.1258843011852876
 50
88.1936762112714234
 51
137.2691183767273913
  0
ARC
  5
1A87F
  8
0
 10
3411.0674433551221227
 20
193.8125337171543947
 30
0.0
 40
0.1634783664592842
 50
43.5085049808335782
 51
94.0018760574370731
  0
ARC
  5
1A880
  8
0
 10
3411.1505814666070364
 20
193.8931248661610027
 30
0.0
 40
0.0477120670867652
 50
326.9211588268256037
 51
42.051616435691507
  0
LINE
  5
1A881
  8
0
 10
3411.1905668014519506
 20
193.8673125071069876
 30
0.0
 11
3411.1941506216408015
 21
193.912571461628886
 31
0.0
  0
LINE
  5
1A882
  8
0
 10
3408.9056268589320098
 20
166.5489078346099063
 30
0.0
 11
3409.889878733687965
 21
166.5489078346099063
 31
0.0
  0
LINE
  5
1A883
  8
0
 10
3408.9239651705229335
 20
166.5174117716098863
 30
0.0
 11
3409.8715404216550269
 21
166.5174117716098863
 31
0.0
  0
LINE
  5
1A884
  8
0
 10
3409.0827976806390325
 20
166.5489078346099063
 30
0.0
 11
3409.0827976806390325
 21
166.5174117716098863
 31
0.0
  0
ARC
  5
1A885
  8
0
 10
3408.9254119337138036
 20
166.4976796110414909
 30
0.0
 40
0.0197851278597034
 50
94.1934263318289169
 51
179.8635416144394128
  0
LINE
  5
1A886
  8
0
 10
3408.9056268647600518
 20
166.450617970409894
 30
0.0
 11
3408.9253173656388753
 21
166.371742480309905
 31
0.0
  0
LINE
  5
1A887
  8
0
 10
3408.9253173656388753
 20
166.371742480309905
 30
0.0
 11
3408.9253173656388753
 21
165.8993015354099043
 31
0.0
  0
LINE
  5
1A888
  8
0
 10
3408.9253173656388753
 20
165.8993015354099043
 30
0.0
 11
3409.870188226539085
 21
165.8993015354099043
 31
0.0
  0
LINE
  5
1A889
  8
0
 10
3409.0335850821388703
 20
165.8993015354099043
 30
0.0
 11
3409.0335850821388703
 21
165.8402464173097997
 31
0.0
  0
LINE
  5
1A88A
  8
0
 10
3408.6300417751390341
 20
165.8402464173097997
 30
0.0
 11
3410.1654638170389262
 21
165.8402464173097997
 31
0.0
  0
LINE
  5
1A88B
  8
0
 10
3408.6103567357390602
 20
165.820561377909911
 30
0.0
 11
3408.6103567357390602
 21
165.2615062598098916
 31
0.0
  0
LINE
  5
1A88C
  8
0
 10
3408.6103567357390602
 20
165.237884212609913
 30
0.0
 11
3408.6103567357390602
 21
165.2083566535098953
 31
0.0
  0
LINE
  5
1A88D
  8
0
 10
3408.6103567357390602
 20
165.1906401181099113
 30
0.0
 11
3408.6103567357390602
 21
164.6197739763098866
 31
0.0
  0
ARC
  5
1A88E
  8
0
 10
3408.6300417751390341
 20
165.820561377909911
 30
0.0
 40
0.0196850394000015
 50
90.0
 51
179.9999999999951115
  0
LINE
  5
1A88F
  8
0
 10
3408.6103567357390602
 20
165.237884212609913
 30
0.0
 11
3410.1851488564389001
 21
165.237884212609913
 31
0.0
  0
LINE
  5
1A890
  8
0
 10
3408.6300417751390341
 20
165.2418212204098893
 30
0.0
 11
3410.1654638170389262
 21
165.2418212204098893
 31
0.0
  0
LINE
  5
1A891
  8
0
 10
3408.6103567357390602
 20
165.2083566535098953
 30
0.0
 11
3410.1851488564389001
 21
165.2083566535098953
 31
0.0
  0
LINE
  5
1A892
  8
0
 10
3408.6201992554388198
 20
165.2004826378098983
 30
0.0
 11
3410.1753063367391405
 21
165.2004826378098983
 31
0.0
  0
LINE
  5
1A893
  8
0
 10
3408.6812228774388132
 20
165.2418212204098893
 30
0.0
 11
3408.6812228774388132
 21
165.237884212609913
 31
0.0
  0
LINE
  5
1A894
  8
0
 10
3408.767837050639173
 20
165.2083566535098953
 30
0.0
 11
3408.767837050639173
 21
165.2004826378098983
 31
0.0
  0
ARC
  5
1A895
  8
0
 10
3408.6201992554388198
 20
165.1906401181099113
 30
0.0
 40
0.0098425197000003
 50
90.0
 51
180.0
  0
ARC
  5
1A896
  8
0
 10
3408.6300417751390341
 20
165.2615062598098916
 30
0.0
 40
0.0196850394000006
 50
180.0000000000048885
 51
270.0
  0
ARC
  5
1A897
  8
0
 10
3409.279648074339093
 20
165.1906401181099113
 30
0.0
 40
0.0098425197000004
 50
90.7961474360585044
 51
180.0
  0
LINE
  5
1A898
  8
0
 10
3409.2698055546388787
 20
165.1906401181099113
 30
0.0
 11
3409.2698055546388787
 21
164.6197739763098866
 31
0.0
  0
ARC
  5
1A899
  8
0
 10
3409.2796480742390486
 20
164.6197739763098866
 30
0.0
 40
0.0098425196000012
 50
180.0
 51
270.0000005821231071
  0
LINE
  5
1A89A
  8
0
 10
3408.6103567357390602
 20
164.5685928740099087
 30
0.0
 11
3408.6103567357390602
 21
164.5981204331098979
 31
0.0
  0
LINE
  5
1A89B
  8
0
 10
3408.6103567357390602
 20
164.5685928740099087
 30
0.0
 11
3410.1851488564389001
 21
164.5685928740099087
 31
0.0
  0
LINE
  5
1A89C
  8
0
 10
3408.6103567357390602
 20
164.5981204331098979
 30
0.0
 11
3409.3583882317388998
 21
164.5981204331098979
 31
0.0
  0
LINE
  5
1A89D
  8
0
 10
3408.6201992554388198
 20
164.6099314566098997
 30
0.0
 11
3410.1753063367391405
 21
164.6099314566098997
 31
0.0
  0
LINE
  5
1A89E
  8
0
 10
3408.767837050639173
 20
164.5981204331098979
 30
0.0
 11
3408.767837050639173
 21
164.6099314566098997
 31
0.0
  0
ARC
  5
1A89F
  8
0
 10
3408.6201992554388198
 20
164.6197739763098866
 30
0.0
 40
0.0098425197000003
 50
180.0
 51
270.0
  0
LINE
  5
1A8A0
  8
0
 10
3409.3583882317388998
 20
164.5685928740099087
 30
0.0
 11
3409.3583882317388998
 21
164.6099314566098997
 31
0.0
  0
ARC
  5
1A8A1
  8
0
 10
3407.764973779409047
 20
164.6008089377222916
 30
0.0
 40
0.8459965825078304
 50
294.7256403088831007
 51
357.8176142401900961
  0
LINE
  5
1A8A2
  8
0
 10
3409.8898787274179085
 20
166.450617970409894
 30
0.0
 11
3409.8898787302109668
 21
166.4977267322099124
 31
0.0
  0
LINE
  5
1A8A3
  8
0
 10
3409.7127079115389279
 20
166.5489078346099063
 30
0.0
 11
3409.7127079115389279
 21
166.5174117716098863
 31
0.0
  0
ARC
  5
1A8A4
  8
0
 10
3409.8700936584641568
 20
166.4976796110414909
 30
0.0
 40
0.0197851278597034
 50
0.1364583855605776
 51
85.8065736681710973
  0
LINE
  5
1A8A5
  8
0
 10
3409.8898787274179085
 20
166.450617970409894
 30
0.0
 11
3409.870188226539085
 21
166.371742480309905
 31
0.0
  0
LINE
  5
1A8A6
  8
0
 10
3409.870188226539085
 20
166.371742480309905
 30
0.0
 11
3409.870188226539085
 21
165.8993015354099043
 31
0.0
  0
LINE
  5
1A8A7
  8
0
 10
3409.76192051003909
 20
165.8993015354099043
 30
0.0
 11
3409.76192051003909
 21
165.8402464173097997
 31
0.0
  0
LINE
  5
1A8A8
  8
0
 10
3410.1851488564389001
 20
165.820561377909911
 30
0.0
 11
3410.1851488564389001
 21
165.2615062598098916
 31
0.0
  0
LINE
  5
1A8A9
  8
0
 10
3410.1851488564389001
 20
165.237884212609913
 30
0.0
 11
3410.1851488564389001
 21
165.2083566535098953
 31
0.0
  0
LINE
  5
1A8AA
  8
0
 10
3410.1851488564389001
 20
165.1906401181099113
 30
0.0
 11
3410.1851488564389001
 21
164.6197739763098866
 31
0.0
  0
ARC
  5
1A8AB
  8
0
 10
3410.1654638170389262
 20
165.820561377909911
 30
0.0
 40
0.0196850394000015
 50
0.0000000000048853
 51
90.0
  0
LINE
  5
1A8AC
  8
0
 10
3410.1142827147391472
 20
165.2418212204098893
 30
0.0
 11
3410.1142827147391472
 21
165.237884212609913
 31
0.0
  0
LINE
  5
1A8AD
  8
0
 10
3410.0276685415387874
 20
165.2083566535098953
 30
0.0
 11
3410.0276685415387874
 21
165.2004826378098983
 31
0.0
  0
ARC
  5
1A8AE
  8
0
 10
3410.1753063367391405
 20
165.1906401181099113
 30
0.0
 40
0.0098425197000003
 50
0.0
 51
90.0
  0
ARC
  5
1A8AF
  8
0
 10
3410.1654638170389262
 20
165.2615062598098916
 30
0.0
 40
0.0196850394000006
 50
270.0
 51
359.9999999999951115
  0
ARC
  5
1A8B0
  8
0
 10
3409.5158575178388674
 20
165.1906401181099113
 30
0.0
 40
0.0098425197000004
 50
0.0
 51
89.2038525639414956
  0
LINE
  5
1A8B1
  8
0
 10
3409.5257000375381722
 20
165.1906401181099113
 30
0.0
 11
3409.5257000375381722
 21
164.6197739763098866
 31
0.0
  0
ARC
  5
1A8B2
  8
0
 10
3409.5158575179389118
 20
164.6197739763098866
 30
0.0
 40
0.0098425196000012
 50
269.9999994178768929
 51
0.0
  0
LINE
  5
1A8B3
  8
0
 10
3410.1851488564389001
 20
164.5685928740099087
 30
0.0
 11
3410.1851488564389001
 21
164.5981204331098979
 31
0.0
  0
LINE
  5
1A8B4
  8
0
 10
3410.1851488564389001
 20
164.5981204331098979
 30
0.0
 11
3409.4371173604390606
 21
164.5981204331098979
 31
0.0
  0
LINE
  5
1A8B5
  8
0
 10
3410.0276685415387874
 20
164.5981204331098979
 30
0.0
 11
3410.0276685415387874
 21
164.6099314566098997
 31
0.0
  0
ARC
  5
1A8B6
  8
0
 10
3410.1753063367391405
 20
164.6197739763098866
 30
0.0
 40
0.0098425197000003
 50
270.0
 51
0.0
  0
LINE
  5
1A8B7
  8
0
 10
3409.4371173604390606
 20
164.5685928740099087
 30
0.0
 11
3409.4371173604390606
 21
164.6099314566098997
 31
0.0
  0
ARC
  5
1A8B8
  8
0
 10
3411.0305318127689134
 20
164.6008089377222916
 30
0.0
 40
0.8459965825078304
 50
182.1823857598099039
 51
245.274359691117013
  0
LINE
  5
1A8B9
  8
0
 10
3408.9253122101890767
 20
161.733947204609791
 30
0.0
 11
3409.8701933819888836
 21
161.733947204609791
 31
0.0
  0
LINE
  5
1A8BA
  8
0
 10
3408.9253122101890767
 20
161.8656401067331103
 30
0.0
 11
3408.9253122101890767
 21
161.733947204609791
 31
0.0
  0
LINE
  5
1A8BB
  8
0
 10
3409.0198523585509065
 20
160.3166243700098903
 30
0.0
 11
3409.7756532336270539
 21
160.3166243700098903
 31
0.0
  0
ARC
  5
1A8BC
  8
0
 10
3409.023522612477791
 20
160.3365749225268075
 30
0.0
 40
0.0202853471654985
 50
183.0660700888682015
 51
259.5759907922767979
  0
LINE
  5
1A8BD
  8
0
 10
3409.0032663033789504
 20
160.3354899103968023
 30
0.0
 11
3408.9453389918871835
 21
161.7257453893099068
 31
0.0
  0
ARC
  5
1A8BE
  8
0
 10
3408.953460067575179
 20
161.7259346041091135
 30
0.0
 40
0.0081232796689529
 50
99.4688930229403212
 51
181.334705984776889
  0
LINE
  5
1A8BF
  8
0
 10
3409.8701933819888836
 20
161.8665713072485914
 30
0.0
 11
3409.8701933819888836
 21
161.733947204609791
 31
0.0
  0
ARC
  5
1A8C0
  8
0
 10
3409.7719829797001694
 20
160.3365749225268075
 30
0.0
 40
0.0202853471654985
 50
280.4240092077232021
 51
356.9339299111318269
  0
LINE
  5
1A8C1
  8
0
 10
3409.79223928879901
 20
160.3354899103968023
 30
0.0
 11
3409.8501666002907768
 21
161.7257453893099068
 31
0.0
  0
ARC
  5
1A8C2
  8
0
 10
3409.8420455246027814
 20
161.7259346041091135
 30
0.0
 40
0.0081232796689529
 50
358.665294015221491
 51
80.5311069770596646
  0
ARC
  5
1A8C3
  8
0
 10
3409.3985991628169359
 20
161.0073046515063027
 30
0.0
 40
0.9801736036168062
 50
60.9138667675927579
 51
119.0861332324072066
  0
LINE
  5
1A8C4
  8
0
 10
3409.1123253846658372
 20
160.3166243700098903
 30
0.0
 11
3409.1123245215389943
 21
156.9144131885099114
 31
0.0
  0
LINE
  5
1A8C5
  8
0
 10
3409.6831802075121232
 20
160.3166243700098903
 30
0.0
 11
3409.683181070638966
 21
156.9144131885099114
 31
0.0
  0
ARC
  5
1A8C6
  8
0
 10
3409.3977527960892075
 20
156.9144741830801877
 30
0.0
 40
0.2854282810671138
 50
180.012243816433795
 51
359.9877561835644997
  0
LINE
  5
1A8C7
  8
0
 10
3410.1162567333308289
 20
208.575317283273904
 30
0.0
 11
3410.1162567333308289
 21
209.1816164960098945
 31
0.0
  0
LINE
  5
1A8C8
  8
0
 10
3410.1162567333308289
 20
209.1816164960098945
 30
0.0
 11
3410.0867291741601548
 21
209.1816164960098945
 31
0.0
  0
ARC
  5
1A8C9
  8
0
 10
3414.3906911056201352
 20
208.3713551518220015
 30
0.0
 40
0.0072131159621418
 50
9.6266147692738802
 51
80.3825784617100254
  0
LINE
  5
1A8CA
  8
0
 10
3414.3978026498298277
 20
208.3725613776823877
 30
0.0
 11
3414.3978026498298277
 21
208.2897782878872022
 31
0.0
  0
ARC
  5
1A8CB
  8
0
 10
3414.3918982206619148
 20
208.2898840769317133
 30
0.0
 40
0.0059053767983744
 50
269.980301799652409
 51
358.9735472916935919
  0
ENDSEC
  0
EOF
