  0
SECTION
  2
HEADER
  9
$ACADVER
  1
AC1009
  9
$INSBASE
 10
4330.2974444238079741
 20
454.5881697265747903
 30
0.0
  9
$EXTMIN
 10
4314.2375757793479352
 20
445.3247877903497169
 30
-0.0000000000112498
  9
$EXTMAX
 10
4346.4021937092647931
 20
454.668487519055077
 30
0.0000000000002956
  9
$LIMMIN
 10
0.0
 20
0.0
  9
$LIMMAX
 10
11.6929133858000007
 20
8.2677165353999982
  9
$ORTHOMODE
 70
     0
  9
$REGENMODE
 70
     1
  9
$FILLMODE
 70
     1
  9
$QTEXTMODE
 70
     0
  9
$MIRRTEXT
 70
     0
  9
$DRAGMODE
 70
     2
  9
$LTSCALE
 40
0.6431102362
  9
$OSMODE
 70
     3
  9
$ATTMODE
 70
     1
  9
$TEXTSIZE
 40
0.2
  9
$TRACEWID
 40
0.05
  9
$TEXTSTYLE
  7
STANDARD
  9
$CLAYER
  8
0
  9
$CELTYPE
  6
BYLAYER
  9
$CECOLOR
 62
   256
  9
$DIMSCALE
 40
1.0
  9
$DIMASZ
 40
0.1875
  9
$DIMEXO
 40
0.0625
  9
$DIMDLI
 40
0.4443307087
  9
$DIMRND
 40
0.0
  9
$DIMDLE
 40
0.0
  9
$DIMEXE
 40
0.125
  9
$DIMTP
 40
0.01
  9
$DIMTM
 40
0.01
  9
$DIMTXT
 40
2.0
  9
$DIMCEN
 40
0.1052362205
  9
$DIMTSZ
 40
0.0
  9
$DIMTOL
 70
     1
  9
$DIMLIM
 70
     0
  9
$DIMTIH
 70
     1
  9
$DIMTOH
 70
     1
  9
$DIMSE1
 70
     0
  9
$DIMSE2
 70
     0
  9
$DIMTAD
 70
     0
  9
$DIMZIN
 70
     0
  9
$DIMBLK
  1

  9
$DIMASO
 70
     1
  9
$DIMSHO
 70
     1
  9
$DIMPOST
  1
\X
  9
$DIMAPOST
  1

  9
$DIMALT
 70
     1
  9
$DIMALTD
 70
     2
  9
$DIMALTF
 40
25.3999999999999986
  9
$DIMLFAC
 40
1.0
  9
$DIMTOFL
 70
     0
  9
$DIMTVP
 40
0.0
  9
$DIMTIX
 70
     0
  9
$DIMSOXD
 70
     0
  9
$DIMSAH
 70
     0
  9
$DIMBLK1
  1

  9
$DIMBLK2
  1

  9
$DIMSTYLE
  2
STANDARD
  9
$DIMCLRD
 70
     0
  9
$DIMCLRE
 70
     0
  9
$DIMCLRT
 70
     0
  9
$DIMTFAC
 40
1.0
  9
$DIMGAP
 40
0.09
  9
$LUNITS
 70
     2
  9
$LUPREC
 70
     4
  9
$SKETCHINC
 40
0.1
  9
$FILLETRAD
 40
0.0
  9
$AUNITS
 70
     0
  9
$AUPREC
 70
     0
  9
$MENU
  1
.
  9
$ELEVATION
 40
0.0
  9
$PELEVATION
 40
0.0
  9
$THICKNESS
 40
0.0
  9
$LIMCHECK
 70
     0
  9
$BLIPMODE
 70
     0
  9
$CHAMFERA
 40
0.0
  9
$CHAMFERB
 40
0.0
  9
$SKPOLY
 70
     0
  9
$TDCREATE
 40
2458060.468368056230247
  9
$TDUPDATE
 40
2459146.412789351772517
  9
$TDINDWG
 40
1.1289538193999999
  9
$TDUSRTIMER
 40
1.1289538193999999
  9
$USRTIMER
 70
     1
  9
$ANGBASE
 50
0.0
  9
$ANGDIR
 70
     0
  9
$PDMODE
 70
     0
  9
$PDSIZE
 40
0.3125
  9
$PLINEWID
 40
0.0
  9
$COORDS
 70
     1
  9
$SPLFRAME
 70
     0
  9
$SPLINETYPE
 70
     6
  9
$SPLINESEGS
 70
     8
  9
$ATTDIA
 70
     1
  9
$ATTREQ
 70
     1
  9
$HANDLING
 70
     1
  9
$HANDSEED
  5
16C8E
  9
$SURFTAB1
 70
     6
  9
$SURFTAB2
 70
     6
  9
$SURFTYPE
 70
     6
  9
$SURFU
 70
     6
  9
$SURFV
 70
     6
  9
$UCSNAME
  2

  9
$UCSORG
 10
0.0
 20
0.0
 30
0.0
  9
$UCSXDIR
 10
1.0
 20
0.0
 30
0.0
  9
$UCSYDIR
 10
0.0
 20
1.0
 30
0.0
  9
$PUCSNAME
  2

  9
$PUCSORG
 10
0.0
 20
0.0
 30
0.0
  9
$PUCSXDIR
 10
1.0
 20
0.0
 30
0.0
  9
$PUCSYDIR
 10
0.0
 20
1.0
 30
0.0
  9
$USERI1
 70
     0
  9
$USERI2
 70
     0
  9
$USERI3
 70
     0
  9
$USERI4
 70
     0
  9
$USERI5
 70
     0
  9
$USERR1
 40
0.0
  9
$USERR2
 40
0.0
  9
$USERR3
 40
0.0
  9
$USERR4
 40
0.0
  9
$USERR5
 40
0.0
  9
$WORLDVIEW
 70
     1
  9
$SHADEDGE
 70
     3
  9
$SHADEDIF
 70
    70
  9
$TILEMODE
 70
     1
  9
$MAXACTVP
 70
    64
  9
$PLIMCHECK
 70
     0
  9
$PEXTMIN
 10
1.0000000000000000E+20
 20
1.0000000000000000E+20
 30
1.0000000000000000E+20
  9
$PEXTMAX
 10
-1.0000000000000000E+20
 20
-1.0000000000000000E+20
 30
-1.0000000000000000E+20
  9
$PLIMMIN
 10
0.0
 20
0.0
  9
$PLIMMAX
 10
12.0
 20
9.0
  9
$UNITMODE
 70
     0
  9
$VISRETAIN
 70
     1
  9
$PLINEGEN
 70
     0
  9
$PSLTSCALE
 70
     1
  0
ENDSEC
  0
SECTION
  2
TABLES
  0
TABLE
  2
VPORT
 70
     1
  0
VPORT
  2
*ACTIVE
 70
     0
 10
0.0
 20
0.0
 11
1.0
 21
1.0
 12
418.9545282989947168
 22
317.4170325521633913
 13
0.0
 23
0.0
 14
1.0
 24
1.0
 15
0.0
 25
0.0
 16
0.0
 26
0.0
 36
60.4960186965801583
 17
3911.3653564453120453
 27
132.5796051025390057
 37
0.0
 40
19.1256340546279091
 41
1.6877510040160639
 42
50.0
 43
0.0
 44
0.0
 50
0.0
 51
0.0
 71
     0
 72
   100
 73
     1
 74
     1
 75
     0
 76
     0
 77
     0
 78
     0
  0
ENDTAB
  0
TABLE
  2
LTYPE
 70
     2
  0
LTYPE
  2
CONTINUOUS
 70
     0
  3
Solid line
 72
    65
 73
     0
 40
0.0
  0
LTYPE
  2
PHANTOM2
 70
     0
  3
___ _ _ ___ _ _ ___ _ _ ___ _ _
 72
    65
 73
     6
 40
1.25
 49
0.625
 49
-0.125
 49
0.125
 49
-0.125
 49
0.125
 49
-0.125
  0
ENDTAB
  0
TABLE
  2
LAYER
 70
     2
  0
LAYER
  2
0
 70
     0
 62
   255
  6
CONTINUOUS
  0
LAYER
  2
DEFPOINTS
 70
     0
 62
     7
  6
CONTINUOUS
  0
ENDTAB
  0
TABLE
  2
STYLE
 70
     1
  0
STYLE
  2
STANDARD
 70
     0
 40
0.0
 41
0.8
 50
0.0
 71
     0
 42
0.2
  3
txt
  4

  0
ENDTAB
  0
TABLE
  2
VIEW
 70
     0
  0
ENDTAB
  0
TABLE
  2
UCS
 70
     0
  0
ENDTAB
  0
TABLE
  2
APPID
 70
    10
  0
APPID
  2
ACAD
 70
     0
  0
APPID
  2
ACAD_MLEADERVER
 70
     0
  0
APPID
  2
ACAD_EXEMPT_FROM_CAD_STANDARDS
 70
     0
  0
APPID
  2
ACAD_NAV_VCDISPLAY
 70
     0
  0
APPID
  2
ACAECLAYERSTANDARD
 70
     0
  0
APPID
  2
ACCMTRANSPARENCY
 70
     0
  0
APPID
  2
ACAD_DSTYLE_DIMJAG
 70
     0
  0
APPID
  2
ACAD_DSTYLE_DIMTALN
 70
     0
  0
APPID
  2
ACDBATTR
 70
     0
  0
APPID
  2
ACADANNOTATIVE
 70
     0
  0
ENDTAB
  0
TABLE
  2
DIMSTYLE
 70
     1
  0
DIMSTYLE
  2
STANDARD
 70
     0
  3

  4

  5

  6

  7

 40
1.0
 41
0.1875
 42
0.0625
 43
0.38
 44
0.125
 45
0.0
 46
0.0
 47
0.01
 48
0.01
140
0.15625
141
0.09
142
0.0
143
25.3999999999999986
144
1.0
145
0.0
146
1.0
147
0.09
 71
     1
 72
     0
 73
     1
 74
     1
 75
     0
 76
     0
 77
     0
 78
     4
170
     0
171
     2
172
     0
173
     0
174
     0
175
     0
176
     0
177
     0
178
     0
  0
ENDTAB
  0
ENDSEC
  0
SECTION
  2
BLOCKS
  0
BLOCK
  8
0
  2
$MODEL_SPACE
 70
     0
 10
0.0
 20
0.0
 30
0.0
  3
$MODEL_SPACE
  1

  0
ENDBLK
  5
21
  8
0
  0
BLOCK
 67
     1
  8
0
  2
$PAPER_SPACE
 70
     0
 10
0.0
 20
0.0
 30
0.0
  3
$PAPER_SPACE
  1

  0
ENDBLK
  5
1D
 67
     1
  8
0
  0
ENDSEC
  0
SECTION
  2
ENTITIES
  0
ATTDEF
  5
159BF
  8
0
 10
4330.2976021804543052
 20
454.5866184392780838
 30
0.0
 40
0.001
  1
K-97827T-F
  3

  2
MODELNUMBER
 70
     0
1001
ACDBATTR
1070
     0
1070
     1
  0
ATTDEF
  5
159C0
  8
0
 10
4330.2974763707970851
 20
454.5849515988988969
 30
0.0
 40
0.001
  1
STRIVE
  3

  2
TRADENAME
 70
     0
1001
ACDBATTR
1070
     0
1070
     1
  0
ATTDEF
  5
159C1
  8
0
 10
4330.2976021804543052
 20
454.5832851059448103
 30
0.0
 40
0.001
  1
KITCHEN SINK
  3

  2
PRODUCT
 70
     0
1001
ACDBATTR
1070
     0
1070
     1
  0
LINE
  5
16BE2
  8
0
 10
4314.2974444238070646
 20
454.6481697265747925
 30
0.0
 11
4314.2974444238070646
 21
454.5881697265747903
 31
0.0
  0
LINE
  5
16BE3
  8
0
 10
4314.2974444238070646
 20
454.5881697265747903
 30
0.0
 11
4346.2974444238070646
 21
454.5881697265747903
 31
0.0
  0
LINE
  5
16BE4
  8
0
 10
4346.2974444238070646
 20
454.5881697265747903
 30
0.0
 11
4346.2974444238070646
 21
454.6481697265747925
 31
0.0
  0
LINE
  5
16BE5
  8
0
 10
4346.2974444238070646
 20
454.6481697265747925
 30
0.0
 11
4314.2974444238070646
 21
454.6481697265747925
 31
0.0
  0
LINE
  5
16BE6
  8
0
 10
4315.1124444238075739
 20
454.5231697265747925
 30
0.0
 11
4315.1124444238075739
 21
446.2864268566748933
 31
0.0
  0
LINE
  5
16BE7
  8
0
 10
4345.4824444238083743
 20
454.5231697265747925
 30
0.0
 11
4345.4824444238083743
 21
446.2775462317749202
 31
0.0
  0
LINE
  5
16BE8
  8
0
 10
4332.7329444238093856
 20
450.1831697265748744
 30
0.0
 11
4332.7329444238093856
 21
446.2864243897748224
 31
0.0
  0
LINE
  5
16BE9
  8
0
 10
4332.797944423808076
 20
450.2481697265748153
 30
0.0
 11
4333.672944423808076
 21
450.2481697265748153
 31
0.0
  0
LINE
  5
16BEA
  8
0
 10
4333.7379444238067663
 20
450.1831697265748744
 30
0.0
 11
4333.7379444238067663
 21
446.2775058740747909
 31
0.0
  0
LINE
  5
16BEB
  8
0
 10
4337.3409163794076449
 20
445.4780966124748147
 30
0.0
 11
4337.7406913573067868
 21
445.3482018480747797
 31
0.0
  0
LINE
  5
16BEC
  8
0
 10
4337.7406913573067868
 20
445.3482018480747797
 30
0.0
 11
4341.4796974902083093
 21
445.3482018480747797
 31
0.0
  0
LINE
  5
16BED
  8
0
 10
4341.4796974902083093
 20
445.3482018480747797
 30
0.0
 11
4341.8794724681083608
 21
445.4780966124748147
 31
0.0
  0
LINE
  5
16BEE
  8
0
 10
4337.2433700981082438
 20
445.5830421454747921
 30
0.0
 11
4337.2959416613093708
 21
445.5107562460748909
 31
0.0
  0
LINE
  5
16BEF
  8
0
 10
4337.2288477661077195
 20
445.5911867813748017
 30
0.0
 11
4334.1532631697082252
 21
445.8288442461748105
 31
0.0
  0
LINE
  5
16BF0
  8
0
 10
4341.9915186017078668
 20
445.5911849744747997
 30
0.0
 11
4345.0671139725081957
 21
445.828843341674883
 31
0.0
  0
LINE
  5
16BF1
  8
0
 10
4341.9770219973070198
 20
445.5830466113749253
 30
0.0
 11
4341.9244471862084538
 21
445.5107562460748909
 31
0.0
  0
LINE
  5
16BF2
  8
0
 10
4321.556922711806692
 20
445.5815948015747949
 30
0.0
 11
4321.6084416613075518
 21
445.5107562460748909
 31
0.0
  0
LINE
  5
16BF3
  8
0
 10
4321.6534163794067354
 20
445.4780966124748147
 30
0.0
 11
4322.0531913573076963
 21
445.3482018480747797
 31
0.0
  0
LINE
  5
16BF4
  8
0
 10
4322.0531913573076963
 20
445.3482018480747797
 30
0.0
 11
4325.7921974902083093
 21
445.3482018480747797
 31
0.0
  0
LINE
  5
16BF5
  8
0
 10
4325.7921974902083093
 20
445.3482018480747797
 30
0.0
 11
4326.1919724681083608
 21
445.4780966124748147
 31
0.0
  0
LINE
  5
16BF6
  8
0
 10
4326.2369471862093633
 20
445.5107562460748909
 30
0.0
 11
4326.2884728031067425
 21
445.5816039693748962
 31
0.0
  0
LINE
  5
16BF7
  8
0
 10
4326.3038148278092194
 20
445.5898122541747739
 30
0.0
 11
4332.3014642223070041
 21
445.8368032121748001
 31
0.0
  0
LINE
  5
16BF8
  8
0
 10
4321.5416629965084212
 20
445.5898084101748964
 30
0.0
 11
4315.543924888109359
 21
445.8368032013748916
 31
0.0
  0
ARC
  5
16BF9
  8
0
 10
4315.5625725475301806
 20
446.2865449122488144
 30
0.0
 40
0.4501281392023352
 50
180.0150270237004975
 51
267.6257026856060861
  0
ARC
  5
16BFA
  8
0
 10
4321.5407500089768291
 20
445.5698302158839965
 30
0.0
 40
0.0199990448111192
 50
36.0334438323904465
 51
87.3834490822473384
  0
ARC
  5
16BFB
  8
0
 10
4321.6812279085315822
 20
445.5636916985702101
 30
0.0
 40
0.0899999995329069
 50
216.0273733688572975
 51
252.0000001505470095
  0
ARC
  5
16BFC
  8
0
 10
4326.3046387425856665
 20
445.5698303267089955
 30
0.0
 40
0.0199989064903241
 50
92.3611392694347018
 51
143.9341744562252927
  0
ARC
  5
16BFD
  8
0
 10
4326.1641609389826044
 20
445.5636916985702101
 30
0.0
 40
0.0899999995329026
 50
287.9999998494529905
 51
323.9726266311425888
  0
ARC
  5
16BFE
  8
0
 10
4332.2828244522561363
 20
446.2865370895545993
 30
0.0
 40
0.4501199856600141
 50
272.3733352469249098
 51
359.9856544432503256
  0
ARC
  5
16BFF
  8
0
 10
4332.797944423808076
 20
450.1831697265748744
 30
0.0
 40
0.0649999999999995
 50
90.0
 51
180.0
  0
ARC
  5
16C00
  8
0
 10
4333.672944423808076
 20
450.1831697265748744
 30
0.0
 40
0.0650000000000013
 50
0.0
 51
90.0
  0
ARC
  5
16C01
  8
0
 10
4334.1880857104451934
 20
446.2776366098398171
 30
0.0
 40
0.450141305622396
 50
180.0166405694799892
 51
265.5632154206629139
  0
ARC
  5
16C02
  8
0
 10
4337.2272041680780603
 20
445.5712367813267747
 30
0.0
 40
0.0200175901746401
 50
36.1392352218155821
 51
85.2902740170664515
  0
ARC
  5
16C03
  8
0
 10
4337.3687279085315822
 20
445.5636916985702101
 30
0.0
 40
0.0899999995329122
 50
216.0273733688572975
 51
252.0000001505459863
  0
ARC
  5
16C04
  8
0
 10
4341.9931673635956031
 20
445.5712677388594898
 30
0.0
 40
0.0199853619011132
 50
94.7321927306738019
 51
143.8873317102392093
  0
ARC
  5
16C05
  8
0
 10
4341.8516609389826044
 20
445.5636916985702101
 30
0.0
 40
0.0899999995328956
 50
287.9999998494529905
 51
323.9726266311425888
  0
ARC
  5
16C06
  8
0
 10
4345.0323033118693274
 20
446.2776364417790091
 30
0.0
 40
0.4501411209778891
 50
274.4352697124618885
 51
359.9885177063289916
  0
ARC
  5
16C07
  8
0
 10
4345.5474444238070646
 20
454.5231697265747925
 30
0.0
 40
0.0649999999999977
 50
90.0
 51
180.0
  0
ARC
  5
16C09
  8
0
 10
4315.0474444238070646
 20
454.5231697265747925
 30
0.0
 40
0.0649999999999995
 50
359.9999999999968168
 51
90.0
  0
LINE
  5
16C0A
  8
0
 10
4332.3014642223070041
 20
445.8368032121748001
 30
0.0
 11
4315.543924888109359
 21
445.8368032013748916
 31
0.0
  0
LINE
  5
16C0B
  8
0
 10
4334.1532631697082252
 20
445.8288442461748105
 30
0.0
 11
4345.0671139725081957
 21
445.828843341674883
 31
0.0
  0
ENDSEC
  0
EOF
