  0
SECTION
  2
HEADER
  9
$ACADVER
  1
AC1009
  9
$INSBASE
 10
4329.2309262217913783
 20
482.651647780812084
 30
0.0
  9
$EXTMIN
 10
4316.9916793477514148
 20
473.399279109315728
 30
-0.0000000349181948
  9
$EXTMAX
 10
4341.4944496161970164
 20
482.7290401162592275
 30
0.0000000814935746
  9
$LIMMIN
 10
0.0
 20
0.0
  9
$LIMMAX
 10
11.6929133858000007
 20
8.2677165353999982
  9
$ORTHOMODE
 70
     0
  9
$REGENMODE
 70
     1
  9
$FILLMODE
 70
     1
  9
$QTEXTMODE
 70
     0
  9
$MIRRTEXT
 70
     0
  9
$DRAGMODE
 70
     2
  9
$LTSCALE
 40
0.6431102362
  9
$OSMODE
 70
     3
  9
$ATTMODE
 70
     1
  9
$TEXTSIZE
 40
0.2
  9
$TRACEWID
 40
0.05
  9
$TEXTSTYLE
  7
STANDARD
  9
$CLAYER
  8
0
  9
$CELTYPE
  6
BYLAYER
  9
$CECOLOR
 62
   256
  9
$DIMSCALE
 40
1.0
  9
$DIMASZ
 40
0.1875
  9
$DIMEXO
 40
0.0625
  9
$DIMDLI
 40
0.4443307087
  9
$DIMRND
 40
0.0
  9
$DIMDLE
 40
0.0
  9
$DIMEXE
 40
0.125
  9
$DIMTP
 40
0.01
  9
$DIMTM
 40
0.01
  9
$DIMTXT
 40
2.0
  9
$DIMCEN
 40
0.1052362205
  9
$DIMTSZ
 40
0.0
  9
$DIMTOL
 70
     1
  9
$DIMLIM
 70
     0
  9
$DIMTIH
 70
     1
  9
$DIMTOH
 70
     1
  9
$DIMSE1
 70
     0
  9
$DIMSE2
 70
     0
  9
$DIMTAD
 70
     0
  9
$DIMZIN
 70
     0
  9
$DIMBLK
  1

  9
$DIMASO
 70
     1
  9
$DIMSHO
 70
     1
  9
$DIMPOST
  1
\X
  9
$DIMAPOST
  1

  9
$DIMALT
 70
     1
  9
$DIMALTD
 70
     2
  9
$DIMALTF
 40
25.3999999999999986
  9
$DIMLFAC
 40
1.0
  9
$DIMTOFL
 70
     0
  9
$DIMTVP
 40
0.0
  9
$DIMTIX
 70
     0
  9
$DIMSOXD
 70
     0
  9
$DIMSAH
 70
     0
  9
$DIMBLK1
  1

  9
$DIMBLK2
  1

  9
$DIMSTYLE
  2
STANDARD
  9
$DIMCLRD
 70
     0
  9
$DIMCLRE
 70
     0
  9
$DIMCLRT
 70
     0
  9
$DIMTFAC
 40
1.0
  9
$DIMGAP
 40
0.09
  9
$LUNITS
 70
     2
  9
$LUPREC
 70
     4
  9
$SKETCHINC
 40
0.1
  9
$FILLETRAD
 40
0.0
  9
$AUNITS
 70
     0
  9
$AUPREC
 70
     0
  9
$MENU
  1
.
  9
$ELEVATION
 40
0.0
  9
$PELEVATION
 40
0.0
  9
$THICKNESS
 40
0.0
  9
$LIMCHECK
 70
     0
  9
$BLIPMODE
 70
     0
  9
$CHAMFERA
 40
0.0
  9
$CHAMFERB
 40
0.0
  9
$SKPOLY
 70
     0
  9
$TDCREATE
 40
2458060.468368056230247
  9
$TDUPDATE
 40
2459146.6055092588067055
  9
$TDINDWG
 40
1.1321829860999999
  9
$TDUSRTIMER
 40
1.1321829860999999
  9
$USRTIMER
 70
     1
  9
$ANGBASE
 50
0.0
  9
$ANGDIR
 70
     0
  9
$PDMODE
 70
     0
  9
$PDSIZE
 40
0.3125
  9
$PLINEWID
 40
0.0
  9
$COORDS
 70
     1
  9
$SPLFRAME
 70
     0
  9
$SPLINETYPE
 70
     6
  9
$SPLINESEGS
 70
     8
  9
$ATTDIA
 70
     1
  9
$ATTREQ
 70
     1
  9
$HANDLING
 70
     1
  9
$HANDSEED
  5
16F77
  9
$SURFTAB1
 70
     6
  9
$SURFTAB2
 70
     6
  9
$SURFTYPE
 70
     6
  9
$SURFU
 70
     6
  9
$SURFV
 70
     6
  9
$UCSNAME
  2

  9
$UCSORG
 10
0.0
 20
0.0
 30
0.0
  9
$UCSXDIR
 10
1.0
 20
0.0
 30
0.0
  9
$UCSYDIR
 10
0.0
 20
1.0
 30
0.0
  9
$PUCSNAME
  2

  9
$PUCSORG
 10
0.0
 20
0.0
 30
0.0
  9
$PUCSXDIR
 10
1.0
 20
0.0
 30
0.0
  9
$PUCSYDIR
 10
0.0
 20
1.0
 30
0.0
  9
$USERI1
 70
     0
  9
$USERI2
 70
     0
  9
$USERI3
 70
     0
  9
$USERI4
 70
     0
  9
$USERI5
 70
     0
  9
$USERR1
 40
0.0
  9
$USERR2
 40
0.0
  9
$USERR3
 40
0.0
  9
$USERR4
 40
0.0
  9
$USERR5
 40
0.0
  9
$WORLDVIEW
 70
     1
  9
$SHADEDGE
 70
     3
  9
$SHADEDIF
 70
    70
  9
$TILEMODE
 70
     1
  9
$MAXACTVP
 70
    64
  9
$PLIMCHECK
 70
     0
  9
$PEXTMIN
 10
1.0000000000000000E+20
 20
1.0000000000000000E+20
 30
1.0000000000000000E+20
  9
$PEXTMAX
 10
-1.0000000000000000E+20
 20
-1.0000000000000000E+20
 30
-1.0000000000000000E+20
  9
$PLIMMIN
 10
0.0
 20
0.0
  9
$PLIMMAX
 10
12.0
 20
9.0
  9
$UNITMODE
 70
     0
  9
$VISRETAIN
 70
     1
  9
$PLINEGEN
 70
     0
  9
$PSLTSCALE
 70
     1
  0
ENDSEC
  0
SECTION
  2
TABLES
  0
TABLE
  2
VPORT
 70
     1
  0
VPORT
  2
*ACTIVE
 70
     0
 10
0.0
 20
0.0
 11
1.0
 21
1.0
 12
417.8777080366617156
 22
345.4845545102484721
 13
0.0
 23
0.0
 14
1.0
 24
1.0
 15
0.0
 25
0.0
 16
0.0
 26
0.0
 36
60.4960186965801583
 17
3911.3653564453120453
 27
132.5796051025390057
 37
0.0
 40
12.7571585552902
 41
1.9267068273092369
 42
50.0
 43
0.0
 44
0.0
 50
0.0
 51
0.0
 71
     0
 72
   100
 73
     1
 74
     1
 75
     0
 76
     0
 77
     0
 78
     0
  0
ENDTAB
  0
TABLE
  2
LTYPE
 70
     2
  0
LTYPE
  2
CONTINUOUS
 70
     0
  3
Solid line
 72
    65
 73
     0
 40
0.0
  0
LTYPE
  2
PHANTOM2
 70
     0
  3
___ _ _ ___ _ _ ___ _ _ ___ _ _
 72
    65
 73
     6
 40
1.25
 49
0.625
 49
-0.125
 49
0.125
 49
-0.125
 49
0.125
 49
-0.125
  0
ENDTAB
  0
TABLE
  2
LAYER
 70
     2
  0
LAYER
  2
0
 70
     0
 62
   255
  6
CONTINUOUS
  0
LAYER
  2
DEFPOINTS
 70
     0
 62
     7
  6
CONTINUOUS
  0
ENDTAB
  0
TABLE
  2
STYLE
 70
     1
  0
STYLE
  2
STANDARD
 70
     0
 40
0.0
 41
0.8
 50
0.0
 71
     0
 42
0.2
  3
txt
  4

  0
ENDTAB
  0
TABLE
  2
VIEW
 70
     0
  0
ENDTAB
  0
TABLE
  2
UCS
 70
     0
  0
ENDTAB
  0
TABLE
  2
APPID
 70
    10
  0
APPID
  2
ACAD
 70
     0
  0
APPID
  2
ACAD_MLEADERVER
 70
     0
  0
APPID
  2
ACAD_EXEMPT_FROM_CAD_STANDARDS
 70
     0
  0
APPID
  2
ACAD_NAV_VCDISPLAY
 70
     0
  0
APPID
  2
ACAECLAYERSTANDARD
 70
     0
  0
APPID
  2
ACCMTRANSPARENCY
 70
     0
  0
APPID
  2
ACAD_DSTYLE_DIMJAG
 70
     0
  0
APPID
  2
ACAD_DSTYLE_DIMTALN
 70
     0
  0
APPID
  2
ACDBATTR
 70
     0
  0
APPID
  2
ACADANNOTATIVE
 70
     0
  0
ENDTAB
  0
TABLE
  2
DIMSTYLE
 70
     1
  0
DIMSTYLE
  2
STANDARD
 70
     0
  3

  4

  5

  6

  7

 40
1.0
 41
0.1875
 42
0.0625
 43
0.38
 44
0.125
 45
0.0
 46
0.0
 47
0.01
 48
0.01
140
0.15625
141
0.09
142
0.0
143
25.3999999999999986
144
1.0
145
0.0
146
1.0
147
0.09
 71
     1
 72
     0
 73
     1
 74
     1
 75
     0
 76
     0
 77
     0
 78
     4
170
     0
171
     2
172
     0
173
     0
174
     0
175
     0
176
     0
177
     0
178
     0
  0
ENDTAB
  0
ENDSEC
  0
SECTION
  2
BLOCKS
  0
BLOCK
  8
0
  2
$MODEL_SPACE
 70
     0
 10
0.0
 20
0.0
 30
0.0
  3
$MODEL_SPACE
  1

  0
ENDBLK
  5
21
  8
0
  0
BLOCK
 67
     1
  8
0
  2
$PAPER_SPACE
 70
     0
 10
0.0
 20
0.0
 30
0.0
  3
$PAPER_SPACE
  1

  0
ENDBLK
  5
1D
 67
     1
  8
0
  0
ENDSEC
  0
SECTION
  2
ENTITIES
  0
ATTDEF
  5
159BF
  8
0
 10
4329.2307388343133425
 20
482.6492584513454176
 30
0.0
 40
0.001
  1
K-97830T-F
  3

  2
MODELNUMBER
 70
     0
1001
ACDBATTR
1070
     0
1070
     1
  0
ATTDEF
  5
159C0
  8
0
 10
4329.2306130246570319
 20
482.6475916109662876
 30
0.0
 40
0.001
  1
STRIVE
  3

  2
TRADENAME
 70
     0
1001
ACDBATTR
1070
     0
1070
     1
  0
ATTDEF
  5
159C1
  8
0
 10
4329.2307388343133425
 20
482.6459251180120873
 30
0.0
 40
0.001
  1
KITCHEN SINK
  3

  2
PRODUCT
 70
     0
1001
ACDBATTR
1070
     0
1070
     1
  0
LINE
  5
16EDE
  8
0
 10
4317.2309262217922878
 20
482.6996477808120858
 30
0.0
 11
4341.2309262217922878
 21
482.6996477808120858
 31
0.0
  0
LINE
  5
16EDF
  8
0
 10
4341.2309262217922878
 20
482.6996477808120858
 30
0.0
 11
4341.2309262217922878
 21
482.651647780812084
 31
0.0
  0
LINE
  5
16EE0
  8
0
 10
4341.2309262217922878
 20
482.651647780812084
 30
0.0
 11
4317.2309262217922878
 21
482.651647780812084
 31
0.0
  0
LINE
  5
16EE1
  8
0
 10
4317.2309262217922878
 20
482.651647780812084
 30
0.0
 11
4317.2309262217922878
 21
482.6996477808120858
 31
0.0
  0
LINE
  5
16EE2
  8
0
 10
4318.0579262217916039
 20
482.5746477808120858
 30
0.0
 11
4318.0579262217916039
 21
474.3103588219120752
 31
0.0
  0
LINE
  5
16EE3
  8
0
 10
4318.4825114037912499
 20
473.8718134436120977
 30
0.0
 11
4326.8502499982878362
 21
473.6524891698406918
 31
0.0
  0
LINE
  5
16EE4
  8
0
 10
4326.8752863259906007
 20
473.6395438145120806
 30
0.0
 11
4326.9263782922907922
 21
473.569292360812085
 31
0.0
  0
LINE
  5
16EE5
  8
0
 10
4326.9653563812908033
 20
473.5409873449120823
 30
0.0
 11
4327.3633237685917265
 21
473.4116799023120734
 31
0.0
  0
LINE
  5
16EE6
  8
0
 10
4327.3633237685917265
 20
473.4116799023120734
 30
0.0
 11
4331.0985286748918952
 21
473.4116799023120734
 31
0.0
  0
LINE
  5
16EE7
  8
0
 10
4331.0985286748918952
 20
473.4116799023120734
 30
0.0
 11
4331.496496062191909
 21
473.5409873449120823
 31
0.0
  0
LINE
  5
16EE8
  8
0
 10
4331.5354741511910106
 20
473.569292360812085
 30
0.0
 11
4331.586566117493021
 21
473.6395438145120806
 31
0.0
  0
LINE
  5
16EE9
  8
0
 10
4331.6116024451948761
 20
473.6524891698406918
 30
0.0
 11
4339.9793417469918495
 21
473.8718134436120977
 31
0.0
  0
LINE
  5
16EEA
  8
0
 10
4340.4039262217911528
 20
474.3076677480120793
 30
0.0
 11
4340.4039262217911528
 21
482.5746477808120858
 31
0.0
  0
LINE
  5
16EEB
  8
0
 10
4339.9793417469918495
 20
473.8718134436120977
 30
0.0
 11
4318.4825114037912499
 21
473.8718134436120977
 31
0.0
  0
ARC
  5
16EEC
  8
0
 10
4318.494060207001894
 20
474.3078019934295071
 30
0.0
 40
0.4361414798290444
 50
179.6641082609764055
 51
268.4826597245153721
  0
ARC
  5
16EED
  8
0
 10
4326.9894597072216129
 20
473.6151697535822791
 30
0.0
 40
0.078000000493739
 50
216.0273734406235064
 51
251.9999998326462958
  0
ARC
  5
16EEE
  8
0
 10
4331.4723927362610993
 20
473.6151697535823928
 30
0.0
 40
0.0780000004937515
 50
288.0000001673536758
 51
323.972626559376522
  0
ARC
  5
16EEF
  8
0
 10
4331.6126038524207615
 20
473.6198696307487808
 30
0.0
 40
0.0326349068789861
 50
91.7584059812716362
 51
142.925205843700212
  0
ARC
  5
16EF0
  8
0
 10
4326.8492485910619507
 20
473.6198696307487808
 30
0.0
 40
0.0326349068789861
 50
37.0747941562998307
 51
88.2415940187283638
  0
ARC
  5
16EF1
  8
0
 10
4339.9677975435179178
 20
474.3077893261562963
 30
0.0
 40
0.4361286952197231
 50
271.5167802692885743
 51
359.984027846112383
  0
ARC
  5
16EF2
  8
0
 10
4340.4809262217922878
 20
482.5746477808120858
 30
0.0
 40
0.0770000000000124
 50
90.0
 51
179.9999999999934914
  0
ARC
  5
16EF3
  8
0
 10
4317.9809262217922878
 20
482.5746477808120858
 30
0.0
 40
0.0770000000000009
 50
0.0
 51
90.0
  0
ENDSEC
  0
EOF
