  0
SECTION
  2
HEADER
  9
$ACADVER
  1
AC1009
  9
$INSBASE
 10
4329.8156511556026089
 20
500.9879646802319826
 30
0.0
  9
$EXTMIN
 10
4320.6382319432323129
 20
491.7360173313692826
 30
-0.0000000349181948
  9
$EXTMAX
 10
4339.1752034657947661
 20
501.0445446241980108
 30
0.0000000814935746
  9
$LIMMIN
 10
0.0
 20
0.0
  9
$LIMMAX
 10
11.6929133858000007
 20
8.2677165353999982
  9
$ORTHOMODE
 70
     0
  9
$REGENMODE
 70
     1
  9
$FILLMODE
 70
     1
  9
$QTEXTMODE
 70
     0
  9
$MIRRTEXT
 70
     0
  9
$DRAGMODE
 70
     2
  9
$LTSCALE
 40
0.6431102362
  9
$OSMODE
 70
     3
  9
$ATTMODE
 70
     1
  9
$TEXTSIZE
 40
0.2
  9
$TRACEWID
 40
0.05
  9
$TEXTSTYLE
  7
STANDARD
  9
$CLAYER
  8
0
  9
$CELTYPE
  6
BYLAYER
  9
$CECOLOR
 62
   256
  9
$DIMSCALE
 40
1.0
  9
$DIMASZ
 40
0.1875
  9
$DIMEXO
 40
0.0625
  9
$DIMDLI
 40
0.4443307087
  9
$DIMRND
 40
0.0
  9
$DIMDLE
 40
0.0
  9
$DIMEXE
 40
0.125
  9
$DIMTP
 40
0.01
  9
$DIMTM
 40
0.01
  9
$DIMTXT
 40
2.0
  9
$DIMCEN
 40
0.1052362205
  9
$DIMTSZ
 40
0.0
  9
$DIMTOL
 70
     1
  9
$DIMLIM
 70
     0
  9
$DIMTIH
 70
     1
  9
$DIMTOH
 70
     1
  9
$DIMSE1
 70
     0
  9
$DIMSE2
 70
     0
  9
$DIMTAD
 70
     0
  9
$DIMZIN
 70
     0
  9
$DIMBLK
  1

  9
$DIMASO
 70
     1
  9
$DIMSHO
 70
     1
  9
$DIMPOST
  1
\X
  9
$DIMAPOST
  1

  9
$DIMALT
 70
     1
  9
$DIMALTD
 70
     2
  9
$DIMALTF
 40
25.3999999999999986
  9
$DIMLFAC
 40
1.0
  9
$DIMTOFL
 70
     0
  9
$DIMTVP
 40
0.0
  9
$DIMTIX
 70
     0
  9
$DIMSOXD
 70
     0
  9
$DIMSAH
 70
     0
  9
$DIMBLK1
  1

  9
$DIMBLK2
  1

  9
$DIMSTYLE
  2
STANDARD
  9
$DIMCLRD
 70
     0
  9
$DIMCLRE
 70
     0
  9
$DIMCLRT
 70
     0
  9
$DIMTFAC
 40
1.0
  9
$DIMGAP
 40
0.09
  9
$LUNITS
 70
     2
  9
$LUPREC
 70
     4
  9
$SKETCHINC
 40
0.1
  9
$FILLETRAD
 40
0.0
  9
$AUNITS
 70
     0
  9
$AUPREC
 70
     0
  9
$MENU
  1
.
  9
$ELEVATION
 40
0.0
  9
$PELEVATION
 40
0.0
  9
$THICKNESS
 40
0.0
  9
$LIMCHECK
 70
     0
  9
$BLIPMODE
 70
     0
  9
$CHAMFERA
 40
0.0
  9
$CHAMFERB
 40
0.0
  9
$SKPOLY
 70
     0
  9
$TDCREATE
 40
2458060.468368056230247
  9
$TDUPDATE
 40
2459146.6068750000558794
  9
$TDINDWG
 40
1.1340927083000001
  9
$TDUSRTIMER
 40
1.1340927083000001
  9
$USRTIMER
 70
     1
  9
$ANGBASE
 50
0.0
  9
$ANGDIR
 70
     0
  9
$PDMODE
 70
     0
  9
$PDSIZE
 40
0.3125
  9
$PLINEWID
 40
0.0
  9
$COORDS
 70
     1
  9
$SPLFRAME
 70
     0
  9
$SPLINETYPE
 70
     6
  9
$SPLINESEGS
 70
     8
  9
$ATTDIA
 70
     1
  9
$ATTREQ
 70
     1
  9
$HANDLING
 70
     1
  9
$HANDSEED
  5
1700B
  9
$SURFTAB1
 70
     6
  9
$SURFTAB2
 70
     6
  9
$SURFTYPE
 70
     6
  9
$SURFU
 70
     6
  9
$SURFV
 70
     6
  9
$UCSNAME
  2

  9
$UCSORG
 10
0.0
 20
0.0
 30
0.0
  9
$UCSXDIR
 10
1.0
 20
0.0
 30
0.0
  9
$UCSYDIR
 10
0.0
 20
1.0
 30
0.0
  9
$PUCSNAME
  2

  9
$PUCSORG
 10
0.0
 20
0.0
 30
0.0
  9
$PUCSXDIR
 10
1.0
 20
0.0
 30
0.0
  9
$PUCSYDIR
 10
0.0
 20
1.0
 30
0.0
  9
$USERI1
 70
     0
  9
$USERI2
 70
     0
  9
$USERI3
 70
     0
  9
$USERI4
 70
     0
  9
$USERI5
 70
     0
  9
$USERR1
 40
0.0
  9
$USERR2
 40
0.0
  9
$USERR3
 40
0.0
  9
$USERR4
 40
0.0
  9
$USERR5
 40
0.0
  9
$WORLDVIEW
 70
     1
  9
$SHADEDGE
 70
     3
  9
$SHADEDIF
 70
    70
  9
$TILEMODE
 70
     1
  9
$MAXACTVP
 70
    64
  9
$PLIMCHECK
 70
     0
  9
$PEXTMIN
 10
1.0000000000000000E+20
 20
1.0000000000000000E+20
 30
1.0000000000000000E+20
  9
$PEXTMAX
 10
-1.0000000000000000E+20
 20
-1.0000000000000000E+20
 30
-1.0000000000000000E+20
  9
$PLIMMIN
 10
0.0
 20
0.0
  9
$PLIMMAX
 10
12.0
 20
9.0
  9
$UNITMODE
 70
     0
  9
$VISRETAIN
 70
     1
  9
$PLINEGEN
 70
     0
  9
$PSLTSCALE
 70
     1
  0
ENDSEC
  0
SECTION
  2
TABLES
  0
TABLE
  2
VPORT
 70
     1
  0
VPORT
  2
*ACTIVE
 70
     0
 10
0.0
 20
0.0
 11
1.0
 21
1.0
 12
418.5413612592009827
 22
363.8106758752447263
 13
0.0
 23
0.0
 14
1.0
 24
1.0
 15
0.0
 25
0.0
 16
0.0
 26
0.0
 36
60.4960186965801583
 17
3911.3653564453120453
 27
132.5796051025390057
 37
0.0
 40
9.6511162720553063
 41
1.9267068273092369
 42
50.0
 43
0.0
 44
0.0
 50
0.0
 51
0.0
 71
     0
 72
   100
 73
     1
 74
     1
 75
     0
 76
     0
 77
     0
 78
     0
  0
ENDTAB
  0
TABLE
  2
LTYPE
 70
     2
  0
LTYPE
  2
CONTINUOUS
 70
     0
  3
Solid line
 72
    65
 73
     0
 40
0.0
  0
LTYPE
  2
PHANTOM2
 70
     0
  3
___ _ _ ___ _ _ ___ _ _ ___ _ _
 72
    65
 73
     6
 40
1.25
 49
0.625
 49
-0.125
 49
0.125
 49
-0.125
 49
0.125
 49
-0.125
  0
ENDTAB
  0
TABLE
  2
LAYER
 70
     2
  0
LAYER
  2
0
 70
     0
 62
   255
  6
CONTINUOUS
  0
LAYER
  2
DEFPOINTS
 70
     0
 62
     7
  6
CONTINUOUS
  0
ENDTAB
  0
TABLE
  2
STYLE
 70
     1
  0
STYLE
  2
STANDARD
 70
     0
 40
0.0
 41
0.8
 50
0.0
 71
     0
 42
0.2
  3
txt
  4

  0
ENDTAB
  0
TABLE
  2
VIEW
 70
     0
  0
ENDTAB
  0
TABLE
  2
UCS
 70
     0
  0
ENDTAB
  0
TABLE
  2
APPID
 70
    10
  0
APPID
  2
ACAD
 70
     0
  0
APPID
  2
ACAD_MLEADERVER
 70
     0
  0
APPID
  2
ACAD_EXEMPT_FROM_CAD_STANDARDS
 70
     0
  0
APPID
  2
ACAD_NAV_VCDISPLAY
 70
     0
  0
APPID
  2
ACAECLAYERSTANDARD
 70
     0
  0
APPID
  2
ACCMTRANSPARENCY
 70
     0
  0
APPID
  2
ACAD_DSTYLE_DIMJAG
 70
     0
  0
APPID
  2
ACAD_DSTYLE_DIMTALN
 70
     0
  0
APPID
  2
ACDBATTR
 70
     0
  0
APPID
  2
ACADANNOTATIVE
 70
     0
  0
ENDTAB
  0
TABLE
  2
DIMSTYLE
 70
     1
  0
DIMSTYLE
  2
STANDARD
 70
     0
  3

  4

  5

  6

  7

 40
1.0
 41
0.1875
 42
0.0625
 43
0.38
 44
0.125
 45
0.0
 46
0.0
 47
0.01
 48
0.01
140
0.15625
141
0.09
142
0.0
143
25.3999999999999986
144
1.0
145
0.0
146
1.0
147
0.09
 71
     1
 72
     0
 73
     1
 74
     1
 75
     0
 76
     0
 77
     0
 78
     4
170
     0
171
     2
172
     0
173
     0
174
     0
175
     0
176
     0
177
     0
178
     0
  0
ENDTAB
  0
ENDSEC
  0
SECTION
  2
BLOCKS
  0
BLOCK
  8
0
  2
$MODEL_SPACE
 70
     0
 10
0.0
 20
0.0
 30
0.0
  3
$MODEL_SPACE
  1

  0
ENDBLK
  5
21
  8
0
  0
BLOCK
 67
     1
  8
0
  2
$PAPER_SPACE
 70
     0
 10
0.0
 20
0.0
 30
0.0
  3
$PAPER_SPACE
  1

  0
ENDBLK
  5
1D
 67
     1
  8
0
  0
ENDSEC
  0
SECTION
  2
ENTITIES
  0
ATTDEF
  5
159BF
  8
0
 10
4329.815766056170105
 20
500.9866306109499874
 30
0.0
 40
0.001
  1
K-97830T-F
  3

  2
MODELNUMBER
 70
     0
1001
ACDBATTR
1070
     0
1070
     1
  0
ATTDEF
  5
159C0
  8
0
 10
4329.8156402465137944
 20
500.9849637705706868
 30
0.0
 40
0.001
  1
STRIVE
  3

  2
TRADENAME
 70
     0
1001
ACDBATTR
1070
     0
1070
     1
  0
ATTDEF
  5
159C1
  8
0
 10
4329.815766056170105
 20
500.9832972776166002
 30
0.0
 40
0.001
  1
KITCHEN SINK
  3

  2
PRODUCT
 70
     0
1001
ACDBATTR
1070
     0
1070
     1
  0
LINE
  5
16F72
  8
0
 10
4320.6656511556029727
 20
501.0359646802320981
 30
0.0
 11
4320.6656511556029727
 21
500.9879646802319826
 31
0.0
  0
LINE
  5
16F73
  8
0
 10
4320.6656511556029727
 20
500.9879646802319826
 30
0.0
 11
4338.9656511556031546
 21
500.9879646802319826
 31
0.0
  0
LINE
  5
16F74
  8
0
 10
4338.9656511556031546
 20
500.9879646802319826
 30
0.0
 11
4338.9656511556031546
 21
501.0359646802320981
 31
0.0
  0
LINE
  5
16F75
  8
0
 10
4338.9656511556031546
 20
501.0359646802320981
 30
0.0
 11
4320.6656511556029727
 21
501.0359646802320981
 31
0.0
  0
LINE
  5
16F76
  8
0
 10
4321.4926511556031983
 20
500.9109646802320981
 30
0.0
 11
4321.4926511556031983
 21
492.6466759008320082
 31
0.0
  0
LINE
  5
16F77
  8
0
 10
4321.9172621169027479
 20
492.20813034303211
 30
0.0
 11
4330.3049736555285563
 21
491.9888286272699816
 31
0.0
  0
LINE
  5
16F78
  8
0
 10
4330.3300283262024095
 20
491.9758372477319881
 30
0.0
 11
4330.3811032261028231
 21
491.9056092602319836
 31
0.0
  0
LINE
  5
16F79
  8
0
 10
4330.4200813152019691
 20
491.877304244331981
 30
0.0
 11
4330.8180487025028924
 21
491.747996801731972
 31
0.0
  0
LINE
  5
16F7A
  8
0
 10
4330.8180487025028924
 20
491.747996801731972
 30
0.0
 11
4334.5532536087021072
 21
491.747996801731972
 31
0.0
  0
LINE
  5
16F7B
  8
0
 10
4334.5532536087021072
 20
491.747996801731972
 30
0.0
 11
4334.9512209961030749
 21
491.877304244331981
 31
0.0
  0
LINE
  5
16F7C
  8
0
 10
4335.0428302886020901
 20
491.9779763098321155
 30
0.0
 11
4334.990199085103086
 21
491.9056092602319836
 31
0.0
  0
LINE
  5
16F7D
  8
0
 10
4335.0659634741032278
 20
491.9909008812321076
 30
0.0
 11
4337.7358256068018818
 21
492.1946523923319887
 31
0.0
  0
LINE
  5
16F7E
  8
0
 10
4338.1386511556029291
 20
492.629410259131987
 30
0.0
 11
4338.1386511556029291
 21
500.9109646802320981
 31
0.0
  0
LINE
  5
16F7F
  8
0
 10
4337.7358256068018818
 20
492.1946523923319887
 30
0.0
 11
4321.9172621169027479
 21
492.20813034303211
 31
0.0
  0
ARC
  5
16F80
  8
0
 10
4321.4156511556029727
 20
500.9109646802320981
 30
0.0
 40
0.0770000000000053
 50
0.0000000000032569
 51
90.0
  0
ARC
  5
16F81
  8
0
 10
4338.2156511556031546
 20
500.9109646802320981
 30
0.0
 40
0.0769999999999982
 50
90.0
 51
179.9999999999967031
  0
ARC
  5
16F82
  8
0
 10
4335.0686050986450937
 20
491.9590078623904219
 30
0.0
 40
0.0320022316574277
 50
94.734868106090147
 51
143.6495455585406944
  0
ARC
  5
16F83
  8
0
 10
4334.9271176701722652
 20
491.9514866530021777
 30
0.0
 40
0.0780000004937005
 50
288.0000001673527095
 51
323.9726265593844232
  0
ARC
  5
16F84
  8
0
 10
4330.3040308941463081
 20
491.9563550314383065
 30
0.0
 40
0.0324872778986981
 50
36.8475237896643506
 51
88.3370772756453562
  0
ARC
  5
16F85
  8
0
 10
4330.4441846408071797
 20
491.9514866527758272
 30
0.0
 40
0.0780000001775677
 50
216.0273734038916018
 51
252.0000000091856123
  0
ARC
  5
16F86
  8
0
 10
4321.928816353169168
 20
492.6441497926159059
 30
0.0
 40
0.4361725126496302
 50
179.6681676531422056
 51
268.4820537669011742
  0
ARC
  5
16F87
  8
0
 10
4337.7026511482972637
 20
492.629388475660221
 30
0.0
 40
0.4360000078493247
 50
274.3637506079512036
 51
0.0028626169216963
  0
ENDSEC
  0
EOF
