  0
SECTION
  2
HEADER
  9
$ACADVER
  1
AC1009
  9
$INSBASE
 10
3788.9988079782988279
 20
159.2169493173834951
 30
0.0
  9
$EXTMIN
 10
3785.9999889157879807
 20
147.137400566668191
 30
0.0
  9
$EXTMAX
 10
3804.2303649890632187
 20
160.1027760890335117
 30
0.0
  9
$LIMMIN
 10
0.0
 20
0.0
  9
$LIMMAX
 10
11.6929133858000007
 20
8.2677165353999982
  9
$ORTHOMODE
 70
     0
  9
$REGENMODE
 70
     1
  9
$FILLMODE
 70
     1
  9
$QTEXTMODE
 70
     0
  9
$MIRRTEXT
 70
     0
  9
$DRAGMODE
 70
     2
  9
$LTSCALE
 40
0.6431102362
  9
$OSMODE
 70
  4095
  9
$ATTMODE
 70
     1
  9
$TEXTSIZE
 40
0.2
  9
$TRACEWID
 40
0.05
  9
$TEXTSTYLE
  7
STANDARD
  9
$CLAYER
  8
0
  9
$CELTYPE
  6
BYLAYER
  9
$CECOLOR
 62
   256
  9
$DIMSCALE
 40
1.0
  9
$DIMASZ
 40
0.1875
  9
$DIMEXO
 40
0.0625
  9
$DIMDLI
 40
0.4443307087
  9
$DIMRND
 40
0.0
  9
$DIMDLE
 40
0.0
  9
$DIMEXE
 40
0.125
  9
$DIMTP
 40
0.01
  9
$DIMTM
 40
0.01
  9
$DIMTXT
 40
2.0
  9
$DIMCEN
 40
0.1052362205
  9
$DIMTSZ
 40
0.0
  9
$DIMTOL
 70
     1
  9
$DIMLIM
 70
     0
  9
$DIMTIH
 70
     1
  9
$DIMTOH
 70
     1
  9
$DIMSE1
 70
     0
  9
$DIMSE2
 70
     0
  9
$DIMTAD
 70
     0
  9
$DIMZIN
 70
     0
  9
$DIMBLK
  1

  9
$DIMASO
 70
     1
  9
$DIMSHO
 70
     1
  9
$DIMPOST
  1
\X
  9
$DIMAPOST
  1

  9
$DIMALT
 70
     1
  9
$DIMALTD
 70
     2
  9
$DIMALTF
 40
25.3999999999999986
  9
$DIMLFAC
 40
1.0
  9
$DIMTOFL
 70
     0
  9
$DIMTVP
 40
0.0
  9
$DIMTIX
 70
     0
  9
$DIMSOXD
 70
     0
  9
$DIMSAH
 70
     0
  9
$DIMBLK1
  1

  9
$DIMBLK2
  1

  9
$DIMSTYLE
  2
STANDARD
  9
$DIMCLRD
 70
     0
  9
$DIMCLRE
 70
     0
  9
$DIMCLRT
 70
     0
  9
$DIMTFAC
 40
1.0
  9
$DIMGAP
 40
0.09
  9
$LUNITS
 70
     2
  9
$LUPREC
 70
     4
  9
$SKETCHINC
 40
0.1
  9
$FILLETRAD
 40
0.0
  9
$AUNITS
 70
     0
  9
$AUPREC
 70
     0
  9
$MENU
  1
.
  9
$ELEVATION
 40
0.0
  9
$PELEVATION
 40
0.0
  9
$THICKNESS
 40
0.0
  9
$LIMCHECK
 70
     0
  9
$BLIPMODE
 70
     0
  9
$CHAMFERA
 40
0.0
  9
$CHAMFERB
 40
0.0
  9
$SKPOLY
 70
     0
  9
$TDCREATE
 40
2458060.468368056230247
  9
$TDUPDATE
 40
2459034.7534606480039656
  9
$TDINDWG
 40
0.3341621528
  9
$TDUSRTIMER
 40
0.3341621528
  9
$USRTIMER
 70
     1
  9
$ANGBASE
 50
0.0
  9
$ANGDIR
 70
     0
  9
$PDMODE
 70
     0
  9
$PDSIZE
 40
0.3125
  9
$PLINEWID
 40
0.0
  9
$COORDS
 70
     1
  9
$SPLFRAME
 70
     0
  9
$SPLINETYPE
 70
     6
  9
$SPLINESEGS
 70
     8
  9
$ATTDIA
 70
     1
  9
$ATTREQ
 70
     1
  9
$HANDLING
 70
     1
  9
$HANDSEED
  5
6671
  9
$SURFTAB1
 70
     6
  9
$SURFTAB2
 70
     6
  9
$SURFTYPE
 70
     6
  9
$SURFU
 70
     6
  9
$SURFV
 70
     6
  9
$UCSNAME
  2

  9
$UCSORG
 10
0.0
 20
0.0
 30
0.0
  9
$UCSXDIR
 10
1.0
 20
0.0
 30
0.0
  9
$UCSYDIR
 10
0.0
 20
1.0
 30
0.0
  9
$PUCSNAME
  2

  9
$PUCSORG
 10
0.0
 20
0.0
 30
0.0
  9
$PUCSXDIR
 10
1.0
 20
0.0
 30
0.0
  9
$PUCSYDIR
 10
0.0
 20
1.0
 30
0.0
  9
$USERI1
 70
     0
  9
$USERI2
 70
     0
  9
$USERI3
 70
     0
  9
$USERI4
 70
     0
  9
$USERI5
 70
     0
  9
$USERR1
 40
0.0
  9
$USERR2
 40
0.0
  9
$USERR3
 40
0.0
  9
$USERR4
 40
0.0
  9
$USERR5
 40
0.0
  9
$WORLDVIEW
 70
     1
  9
$SHADEDGE
 70
     3
  9
$SHADEDIF
 70
    70
  9
$TILEMODE
 70
     1
  9
$MAXACTVP
 70
    64
  9
$PLIMCHECK
 70
     0
  9
$PEXTMIN
 10
1.0000000000000000E+20
 20
1.0000000000000000E+20
 30
1.0000000000000000E+20
  9
$PEXTMAX
 10
-1.0000000000000000E+20
 20
-1.0000000000000000E+20
 30
-1.0000000000000000E+20
  9
$PLIMMIN
 10
0.0
 20
0.0
  9
$PLIMMAX
 10
12.0
 20
9.0
  9
$UNITMODE
 70
     0
  9
$VISRETAIN
 70
     1
  9
$PLINEGEN
 70
     0
  9
$PSLTSCALE
 70
     1
  0
ENDSEC
  0
SECTION
  2
TABLES
  0
TABLE
  2
VPORT
 70
     1
  0
VPORT
  2
*ACTIVE
 70
     0
 10
0.0
 20
0.0
 11
1.0
 21
1.0
 12
55.8682121746277787
 22
20.4187048116355889
 13
0.0
 23
0.0
 14
1.0
 24
1.0
 15
0.0
 25
0.0
 16
0.0
 26
0.0
 36
57.9818139787255973
 17
3750.841064453125
 27
131.5351943969725994
 37
0.0
 40
26.3188842841711583
 41
2.005224660397074
 42
50.0
 43
0.0
 44
0.0
 50
0.0
 51
0.0
 71
     0
 72
   100
 73
     1
 74
     1
 75
     0
 76
     0
 77
     0
 78
     0
  0
ENDTAB
  0
TABLE
  2
LTYPE
 70
     2
  0
LTYPE
  2
CONTINUOUS
 70
     0
  3
Solid line
 72
    65
 73
     0
 40
0.0
  0
LTYPE
  2
PHANTOM2
 70
     0
  3
___ _ _ ___ _ _ ___ _ _ ___ _ _
 72
    65
 73
     6
 40
1.25
 49
0.625
 49
-0.125
 49
0.125
 49
-0.125
 49
0.125
 49
-0.125
  0
ENDTAB
  0
TABLE
  2
LAYER
 70
     2
  0
LAYER
  2
0
 70
     0
 62
   255
  6
CONTINUOUS
  0
LAYER
  2
DEFPOINTS
 70
     0
 62
     7
  6
CONTINUOUS
  0
ENDTAB
  0
TABLE
  2
STYLE
 70
     1
  0
STYLE
  2
STANDARD
 70
     0
 40
0.0
 41
0.8
 50
0.0
 71
     0
 42
0.2
  3
txt
  4

  0
ENDTAB
  0
TABLE
  2
VIEW
 70
     0
  0
ENDTAB
  0
TABLE
  2
UCS
 70
     0
  0
ENDTAB
  0
TABLE
  2
APPID
 70
     9
  0
APPID
  2
ACAD
 70
     0
  0
APPID
  2
ACAD_MLEADERVER
 70
     0
  0
APPID
  2
ACAD_EXEMPT_FROM_CAD_STANDARDS
 70
     0
  0
APPID
  2
ACAD_NAV_VCDISPLAY
 70
     0
  0
APPID
  2
ACAECLAYERSTANDARD
 70
     0
  0
APPID
  2
ACCMTRANSPARENCY
 70
     0
  0
APPID
  2
ACAD_DSTYLE_DIMJAG
 70
     0
  0
APPID
  2
ACAD_DSTYLE_DIMTALN
 70
     0
  0
APPID
  2
ACDBATTR
 70
     0
  0
ENDTAB
  0
TABLE
  2
DIMSTYLE
 70
     1
  0
DIMSTYLE
  2
STANDARD
 70
     0
  3

  4

  5

  6

  7

 40
1.0
 41
0.1875
 42
0.0625
 43
0.38
 44
0.125
 45
0.0
 46
0.0
 47
0.01
 48
0.01
140
0.15625
141
0.09
142
0.0
143
25.3999999999999986
144
1.0
145
0.0
146
1.0
147
0.09
 71
     1
 72
     0
 73
     1
 74
     1
 75
     0
 76
     0
 77
     0
 78
     4
170
     0
171
     2
172
     0
173
     0
174
     0
175
     0
176
     0
177
     0
178
     0
  0
ENDTAB
  0
ENDSEC
  0
SECTION
  2
BLOCKS
  0
BLOCK
  8
0
  2
$MODEL_SPACE
 70
     0
 10
0.0
 20
0.0
 30
0.0
  3
$MODEL_SPACE
  1

  0
ENDBLK
  5
21
  8
0
  0
BLOCK
 67
     1
  8
0
  2
$PAPER_SPACE
 70
     0
 10
0.0
 20
0.0
 30
0.0
  3
$PAPER_SPACE
  1

  0
ENDBLK
  5
1D
 67
     1
  8
0
  0
BLOCK
  8
0
  2
_FILLED
 70
     0
 10
0.0
 20
0.0
 30
0.0
  3
_FILLED
  1

  0
SOLID
  5
6346
  8
0
  6
BYBLOCK
 62
     0
 10
0.0
 20
0.0
 30
0.0
 11
-1.0
 21
0.1666666667
 31
0.0
 12
-1.0
 22
-0.1666666667
 32
0.0
 13
-1.0
 23
-0.1666666667
 33
0.0
  0
ENDBLK
  5
6347
  8
0
  6
BYBLOCK
 62
     0
  0
BLOCK
  8
0
  2
A$CB2769ECF
 70
     0
 10
0.0
 20
0.0
 30
0.0
  3
A$CB2769ECF
  1

  0
ARC
  5
6349
  8
0
 10
0.6199626015492044
 20
12.0795486119896793
 30
0.0
 40
0.6199628259135492
 50
129.4581567899853098
 51
230.5420115983509959
  0
ARC
  5
634A
  8
0
 10
0.263838552836404
 20
12.5116705636546897
 30
0.0
 40
0.0600052138662588
 50
90.325517856135491
 51
129.1338437079944867
  0
ARC
  5
634B
  8
0
 10
0.2634976434437704
 20
11.6464779584124205
 30
0.0
 40
0.0590551175079894
 50
230.5417908876351873
 51
270.0000000998936116
  0
LINE
  5
634C
  8
0
 10
0.263497643546728
 20
12.5716748094044206
 30
0.0
 11
2.7232282869467208
 21
12.5716748094044206
 31
0.0
  0
LINE
  5
634D
  8
0
 10
0.263497643546728
 20
11.5874228409044306
 30
0.0
 11
2.723228286946735
 21
11.5874228409044306
 31
0.0
  0
LINE
  5
634E
  8
0
 10
2.7232282869467208
 20
12.9063134516044205
 30
0.0
 11
2.7232282869467208
 21
11.2527771716044196
 31
0.0
  0
LINE
  5
634F
  8
0
 10
2.782283405046726
 20
12.9653755968044209
 30
0.0
 11
2.9988188381467178
 21
12.9653682602044196
 31
0.0
  0
LINE
  5
6350
  8
0
 10
2.9988188381467178
 20
12.9653682602044196
 30
0.0
 11
2.9988188381467178
 21
11.1937220535044197
 31
0.0
  0
LINE
  5
6351
  8
0
 10
2.9988188381467178
 20
11.1937220535044197
 30
0.0
 11
2.782283405046726
 21
11.1937220535044197
 31
0.0
  0
ARC
  5
6352
  8
0
 10
2.782283403702948
 20
12.9063204796300006
 30
0.0
 40
0.0590551171744185
 50
89.9999928557971742
 51
180.0068186505075118
  0
ARC
  5
6353
  8
0
 10
2.7822834050467402
 20
11.2527771716044303
 30
0.0
 40
0.0590551181000088
 50
180.0000000000032969
 51
269.999999999992724
  0
LINE
  5
6354
  8
0
 10
0.225967216446719
 20
12.5582150324044193
 30
0.0
 11
0.225967216446719
 21
11.6008821915770799
 31
0.0
  0
LINE
  5
6355
  8
0
 10
2.9988188381467178
 20
12.0795451568544205
 30
0.0
 11
18.2303758489118692
 21
0.0000000744390718
 31
0.0
  0
ENDBLK
  5
6357
  8
0
  0
BLOCK
  8
0
  2
A$C64DBDF04
 70
     0
 10
0.0
 20
0.0
 30
0.0
  3
A$C64DBDF04
  1

  0
ARC
  5
640A
  8
0
 10
0.6199625746589135
 20
12.0795484913377607
 30
0.0
 40
0.6199628259135492
 50
129.4581567899853098
 51
230.5420115983509959
  0
ARC
  5
640B
  8
0
 10
0.2638385259461131
 20
12.5116704430027692
 30
0.0
 40
0.0600052138662588
 50
90.325517856135491
 51
129.1338437079944867
  0
ARC
  5
640C
  8
0
 10
0.2634976165534795
 20
11.6464778377605001
 30
0.0
 40
0.0590551175079894
 50
230.5417908876351873
 51
270.0000000998936116
  0
LINE
  5
640D
  8
0
 10
0.2634976166564371
 20
12.5716746887525002
 30
0.0
 11
2.7232282600564299
 21
12.5716746887525002
 31
0.0
  0
LINE
  5
640E
  8
0
 10
0.2634976166564371
 20
11.5874227202525102
 30
0.0
 11
2.7232282600564441
 21
11.5874227202525102
 31
0.0
  0
LINE
  5
640F
  8
0
 10
2.7232282600564299
 20
12.9063133309525
 30
0.0
 11
2.7232282600564299
 21
11.2527770509524991
 31
0.0
  0
LINE
  5
6410
  8
0
 10
2.7822833781564351
 20
12.9653754761525004
 30
0.0
 11
2.9988188112564269
 21
12.9653681395524991
 31
0.0
  0
LINE
  5
6411
  8
0
 10
2.9988188112564269
 20
12.9653681395524991
 30
0.0
 11
2.9988188112564269
 21
11.1937219328524993
 31
0.0
  0
LINE
  5
6412
  8
0
 10
2.9988188112564269
 20
11.1937219328524993
 30
0.0
 11
2.7822833781564351
 21
11.1937219328524993
 31
0.0
  0
ARC
  5
6413
  8
0
 10
2.7822833768126571
 20
12.9063203589780802
 30
0.0
 40
0.0590551171744185
 50
89.9999928557971742
 51
180.0068186505075118
  0
ARC
  5
6414
  8
0
 10
2.7822833781564489
 20
11.2527770509525098
 30
0.0
 40
0.0590551181000088
 50
180.0000000000032969
 51
269.999999999992724
  0
LINE
  5
6415
  8
0
 10
0.2259671895564281
 20
12.5582149117525006
 30
0.0
 11
0.2259671895564281
 21
11.6008820709251594
 31
0.0
  0
LINE
  5
6416
  8
0
 10
2.9988188112564269
 20
12.0795450362025001
 30
0.0
 11
18.2303758220215784
 21
-0.0000000462128469
 31
0.0
  0
ENDBLK
  5
6418
  8
0
  0
BLOCK
  8
0
  2
A$C17D42986
 70
     2
 10
0.0
 20
0.0
 30
0.0
  3
A$C17D42986
  1

  0
LINE
  5
6522
  8
0
 10
-0.0000000171007741
 20
2.9988188752769811
 30
0.0
 11
1.7716535261993149
 21
2.9988188752769811
 31
0.0
  0
LINE
  5
6523
  8
0
 10
-0.0000000171007741
 20
2.9988188752769811
 30
0.0
 11
-0.0000000171007741
 21
2.7822834422769769
 31
0.0
  0
ARC
  5
6524
  8
0
 10
0.0590551009991032
 20
2.7822834422769769
 30
0.0
 40
0.0590551180999999
 50
179.9999999999984084
 51
270.0
  0
LINE
  5
6525
  8
0
 10
0.0590551009991032
 20
2.7232283241769721
 30
0.0
 11
1.7125984080989829
 21
2.7232283241769721
 31
0.0
  0
LINE
  5
6526
  8
0
 10
0.3937007702993469
 20
2.7232283241769721
 30
0.0
 11
0.3937007702993469
 21
0.2634976806769771
 31
0.0
  0
LINE
  5
6527
  8
0
 10
1.3779527387991941
 20
2.7232283241769721
 30
0.0
 11
1.377952738899239
 21
0.9188976276769693
 31
0.0
  0
ARC
  5
6528
  8
0
 10
0.4527558882764425
 20
0.2634976806539839
 30
0.0
 40
0.0590551179771151
 50
179.9999999776952109
 51
219.4582088382142047
  0
ARC
  5
6529
  8
0
 10
0.8858267380905999
 20
0.6199635079980226
 30
0.0
 40
0.6199635303210429
 50
219.4582072629355025
 51
270.0000045947393801
  0
ARC
  5
652A
  8
0
 10
1.8247358460680509
 20
0.9326101021081569
 30
0.0
 40
0.4469939916581301
 50
181.7600554109492919
 51
268.2409703483942849
  0
LINE
  5
652B
  8
0
 10
1.8110236046991299
 20
0.4858267494769706
 30
0.0
 11
23.9763779360992011
 21
0.4858267493769688
 31
0.0
  0
LINE
  5
652C
  8
0
 10
0.8858259377152535
 20
-0.0000000223225101
 30
0.0
 11
24.9015747859989496
 21
-0.0000000223230217
 31
0.0
  0
LINE
  5
652D
  8
0
 10
1.7716535261993149
 20
2.9988188752769811
 30
0.0
 11
1.7716535261993149
 21
2.7822834422769769
 31
0.0
  0
ARC
  5
652E
  8
0
 10
1.711490461243556
 20
2.7832739766523948
 30
0.0
 40
0.0601712185616685
 50
266.2978419188905264
 51
359.056758294719998
  0
LINE
  5
652F
  8
0
 10
2.1259842347990339
 20
0.4858267494755495
 30
0.0
 11
2.1259842347990339
 21
-0.0000000223225385
 31
0.0
  0
LINE
  5
6530
  8
0
 10
23.6614173056991604
 20
0.4858267494755495
 30
0.0
 11
23.6614173056991604
 21
-0.0000000223225385
 31
0.0
  0
LINE
  5
6531
  8
0
 10
25.7874007408154284
 20
2.9988188752764842
 30
0.0
 11
24.0157471975153385
 21
2.9988188752765552
 31
0.0
  0
LINE
  5
6532
  8
0
 10
25.7874007408154284
 20
2.9988188752764842
 30
0.0
 11
25.7874007408154284
 21
2.7822834422764791
 31
0.0
  0
ARC
  5
6533
  8
0
 10
25.7283456227155511
 20
2.7822834422764791
 30
0.0
 40
0.0590551180999999
 50
270.0
 51
359.9999999999992042
  0
LINE
  5
6534
  8
0
 10
25.7283456227155511
 20
2.7232283241764881
 30
0.0
 11
24.0748023156152193
 21
2.7232283241765449
 31
0.0
  0
LINE
  5
6535
  8
0
 10
25.3936999534153109
 20
2.7232283241765032
 30
0.0
 11
25.3936999534153109
 21
0.2634976806764939
 31
0.0
  0
LINE
  5
6536
  8
0
 10
24.4094479849154595
 20
2.7232283241765449
 30
0.0
 11
24.4094479848154187
 21
0.9188976276765288
 31
0.0
  0
ARC
  5
6537
  8
0
 10
25.3346448354382083
 20
0.263497680653515
 30
0.0
 40
0.0590551179771151
 50
320.5417911617844879
 51
0.0000000223023548
  0
ARC
  5
6538
  8
0
 10
24.9015739856235996
 20
0.6199635079975679
 30
0.0
 40
0.6199635303210429
 50
269.9999954052344719
 51
320.5417927370631901
  0
ARC
  5
6539
  8
0
 10
23.9626648776461515
 20
0.9326101021077307
 30
0.0
 40
0.4469939916581301
 50
271.759029651579624
 51
358.239944589048207
  0
LINE
  5
653A
  8
0
 10
23.9763771190155204
 20
0.4858267494765585
 30
0.0
 11
1.8110227876154561
 21
0.4858267493773952
 31
0.0
  0
LINE
  5
653B
  8
0
 10
24.9015747859989496
 20
-0.0000000223229648
 30
0.0
 11
0.8858259377152535
 21
-0.0000000223225669
 31
0.0
  0
LINE
  5
653C
  8
0
 10
24.0157471975153385
 20
2.9988188752765552
 30
0.0
 11
24.0157471975153385
 21
2.7822834422765501
 31
0.0
  0
ARC
  5
653D
  8
0
 10
24.0759102624711012
 20
2.7832739766519832
 30
0.0
 40
0.0601712185616685
 50
180.9432417052775008
 51
273.7021580810833825
  0
ATTDEF
  5
653E
  8
DEFPOINTS
 10
12.8960322140160297
 20
2.9971522086103159
 30
0.0
 40
0.001
  1
TOWEL BAR
  3

  2
PRODUCT
 70
     0
1001
ACDBATTR
1070
     0
1070
     1
  0
ATTDEF
  5
653F
  8
DEFPOINTS
 10
12.8960322140160297
 20
2.9988188752769811
 30
0.0
 40
0.001
  1
KUMIN
  3

  2
TRADENAME
 70
     0
1001
ACDBATTR
1070
     0
1070
     1
  0
ATTDEF
  5
6540
  8
DEFPOINTS
 10
12.8960322140160297
 20
3.0004855419436458
 30
0.0
 40
0.001
  1
K-97882T
  3

  2
MODELNUMBER
 70
     0
1001
ACDBATTR
1070
     0
1070
     1
  0
ENDBLK
  5
6544
  8
0
  0
ENDSEC
  0
SECTION
  2
ENTITIES
  0
ATTDEF
  5
658B
  8
DEFPOINTS
 10
3788.9988198092919447
 20
159.2152826507168868
 30
0.0
 40
0.001
  1
TOWEL BAR
  3

  2
PRODUCT
 70
     0
1001
ACDBATTR
1070
     0
1070
     1
  0
ATTDEF
  5
658C
  8
DEFPOINTS
 10
3788.9988198092919447
 20
159.2169493173834951
 30
0.0
 40
0.001
  1
KUMIN
  3

  2
TRADENAME
 70
     0
1001
ACDBATTR
1070
     0
1070
     1
  0
ATTDEF
  5
658D
  8
DEFPOINTS
 10
3788.9988198092919447
 20
159.2186159840501887
 30
0.0
 40
0.001
  1
K-97882T
  3

  2
MODELNUMBER
 70
     0
1001
ACDBATTR
1070
     0
1070
     1
  0
ARC
  5
65E2
  8
0
 10
3786.6199517417021525
 20
159.2169491042187985
 30
0.0
 40
0.6199628259135492
 50
129.4581567899778065
 51
230.5420115983436062
  0
ARC
  5
65E3
  8
0
 10
3786.2638276929887979
 20
159.6490710558838089
 30
0.0
 40
0.0600052138662588
 50
90.3255178561460639
 51
129.133843707987495
  0
ARC
  5
65E4
  8
0
 10
3786.2634867835959085
 20
158.7838784506415095
 30
0.0
 40
0.0590551175079894
 50
230.5417908876326862
 51
270.0000000998953169
  0
LINE
  5
65E5
  8
0
 10
3786.2634867836991361
 20
159.7090753016335043
 30
0.0
 11
3788.7232174270989162
 21
159.7090753016335043
 31
0.0
  0
LINE
  5
65E6
  8
0
 10
3786.2634867836991361
 20
158.7248233331334859
 30
0.0
 11
3788.7232174270989162
 21
158.7248233331334859
 31
0.0
  0
LINE
  5
65E7
  8
0
 10
3788.7232174270989162
 20
160.0437139438334953
 30
0.0
 11
3788.7232174270989162
 21
158.3901776638334979
 31
0.0
  0
LINE
  5
65E8
  8
0
 10
3788.7822725451987935
 20
160.1027760890335117
 30
0.0
 11
3788.9988079782988279
 21
160.1027687524334908
 31
0.0
  0
LINE
  5
65E9
  8
0
 10
3788.9988079782988279
 20
160.1027687524334908
 30
0.0
 11
3788.9988079782988279
 21
158.331122545733507
 31
0.0
  0
LINE
  5
65EA
  8
0
 10
3788.9988079782988279
 20
158.331122545733507
 30
0.0
 11
3788.7822725451987935
 21
158.331122545733507
 31
0.0
  0
ARC
  5
65EB
  8
0
 10
3788.7822725438550151
 20
160.0437209718591021
 30
0.0
 40
0.0590551171744185
 50
89.9999928557947158
 51
180.0068186505073982
  0
ARC
  5
65EC
  8
0
 10
3788.7822725451987935
 20
158.3901776638334979
 30
0.0
 40
0.0590551181000088
 50
180.0000000000032117
 51
270.0
  0
LINE
  5
65ED
  8
0
 10
3786.2259563565989993
 20
159.6956155246334959
 30
0.0
 11
3786.2259563565989993
 21
158.7382826838062044
 31
0.0
  0
ENDSEC
  0
EOF
