  0
SECTION
  2
HEADER
  9
$ACADVER
  1
AC1009
  9
$INSBASE
 10
304.2919636706450888
 20
-7.1922197703583031
 30
0.0
  9
$EXTMIN
 10
291.3806151176934236
 20
-11.1290182861696394
 30
-0.0000000000000058
  9
$EXTMAX
 10
317.2018458783251162
 20
-6.3044235858700262
 30
0.0000000000000104
  9
$LIMMIN
 10
0.0
 20
0.0
  9
$LIMMAX
 10
22.0
 20
17.0
  9
$ORTHOMODE
 70
     0
  9
$REGENMODE
 70
     1
  9
$FILLMODE
 70
     1
  9
$QTEXTMODE
 70
     0
  9
$MIRRTEXT
 70
     0
  9
$DRAGMODE
 70
     2
  9
$LTSCALE
 40
1.2099999999999991
  9
$OSMODE
 70
  4095
  9
$ATTMODE
 70
     1
  9
$TEXTSIZE
 40
0.2
  9
$TRACEWID
 40
0.05
  9
$TEXTSTYLE
  7
STANDARD
  9
$CLAYER
  8
0
  9
$CELTYPE
  6
BYLAYER
  9
$CECOLOR
 62
   256
  9
$DIMSCALE
 40
1.0
  9
$DIMASZ
 40
0.1875
  9
$DIMEXO
 40
0.0625
  9
$DIMDLI
 40
0.38
  9
$DIMRND
 40
0.0
  9
$DIMDLE
 40
0.0
  9
$DIMEXE
 40
0.125
  9
$DIMTP
 40
1.5
  9
$DIMTM
 40
1.5
  9
$DIMTXT
 40
1.5
  9
$DIMCEN
 40
0.09
  9
$DIMTSZ
 40
0.0
  9
$DIMTOL
 70
     0
  9
$DIMLIM
 70
     0
  9
$DIMTIH
 70
     1
  9
$DIMTOH
 70
     1
  9
$DIMSE1
 70
     0
  9
$DIMSE2
 70
     0
  9
$DIMTAD
 70
     0
  9
$DIMZIN
 70
     4
  9
$DIMBLK
  1

  9
$DIMASO
 70
     1
  9
$DIMSHO
 70
     1
  9
$DIMPOST
  1

  9
$DIMAPOST
  1

  9
$DIMALT
 70
     0
  9
$DIMALTD
 70
     2
  9
$DIMALTF
 40
25.3999999999999986
  9
$DIMLFAC
 40
1.0
  9
$DIMTOFL
 70
     0
  9
$DIMTVP
 40
0.0
  9
$DIMTIX
 70
     0
  9
$DIMSOXD
 70
     0
  9
$DIMSAH
 70
     0
  9
$DIMBLK1
  1

  9
$DIMBLK2
  1

  9
$DIMSTYLE
  2
STANDARD
  9
$DIMCLRD
 70
     0
  9
$DIMCLRE
 70
     0
  9
$DIMCLRT
 70
     0
  9
$DIMTFAC
 40
1.0
  9
$DIMGAP
 40
0.09
  9
$LUNITS
 70
     2
  9
$LUPREC
 70
     4
  9
$SKETCHINC
 40
0.1
  9
$FILLETRAD
 40
0.0
  9
$AUNITS
 70
     0
  9
$AUPREC
 70
     0
  9
$MENU
  1
.
  9
$ELEVATION
 40
0.0
  9
$PELEVATION
 40
0.0
  9
$THICKNESS
 40
0.0
  9
$LIMCHECK
 70
     0
  9
$BLIPMODE
 70
     0
  9
$CHAMFERA
 40
0.0
  9
$CHAMFERB
 40
0.0
  9
$SKPOLY
 70
     0
  9
$TDCREATE
 40
2457827.4934837957844138
  9
$TDUPDATE
 40
2459984.6532754627987742
  9
$TDINDWG
 40
0.3994579861
  9
$TDUSRTIMER
 40
0.3994579861
  9
$USRTIMER
 70
     1
  9
$ANGBASE
 50
0.0
  9
$ANGDIR
 70
     0
  9
$PDMODE
 70
     0
  9
$PDSIZE
 40
0.3125
  9
$PLINEWID
 40
0.0
  9
$COORDS
 70
     1
  9
$SPLFRAME
 70
     0
  9
$SPLINETYPE
 70
     6
  9
$SPLINESEGS
 70
     8
  9
$ATTDIA
 70
     1
  9
$ATTREQ
 70
     1
  9
$HANDLING
 70
     1
  9
$HANDSEED
  5
5FF0
  9
$SURFTAB1
 70
     6
  9
$SURFTAB2
 70
     6
  9
$SURFTYPE
 70
     6
  9
$SURFU
 70
     6
  9
$SURFV
 70
     6
  9
$UCSNAME
  2

  9
$UCSORG
 10
0.0
 20
0.0
 30
0.0
  9
$UCSXDIR
 10
1.0
 20
0.0
 30
0.0
  9
$UCSYDIR
 10
0.0
 20
1.0
 30
0.0
  9
$PUCSNAME
  2

  9
$PUCSORG
 10
0.0
 20
0.0
 30
0.0
  9
$PUCSXDIR
 10
1.0
 20
0.0
 30
0.0
  9
$PUCSYDIR
 10
0.0
 20
1.0
 30
0.0
  9
$USERI1
 70
     0
  9
$USERI2
 70
     0
  9
$USERI3
 70
     0
  9
$USERI4
 70
     0
  9
$USERI5
 70
     0
  9
$USERR1
 40
0.0
  9
$USERR2
 40
0.0
  9
$USERR3
 40
0.0
  9
$USERR4
 40
0.0
  9
$USERR5
 40
0.0
  9
$WORLDVIEW
 70
     1
  9
$SHADEDGE
 70
     3
  9
$SHADEDIF
 70
    70
  9
$TILEMODE
 70
     1
  9
$MAXACTVP
 70
    48
  9
$PLIMCHECK
 70
     0
  9
$PEXTMIN
 10
1.0000000000000000E+20
 20
1.0000000000000000E+20
 30
1.0000000000000000E+20
  9
$PEXTMAX
 10
-1.0000000000000000E+20
 20
-1.0000000000000000E+20
 30
-1.0000000000000000E+20
  9
$PLIMMIN
 10
0.0
 20
0.0
  9
$PLIMMAX
 10
12.0
 20
9.0
  9
$UNITMODE
 70
     0
  9
$VISRETAIN
 70
     1
  9
$PLINEGEN
 70
     0
  9
$PSLTSCALE
 70
     1
  0
ENDSEC
  0
SECTION
  2
TABLES
  0
TABLE
  2
VPORT
 70
     1
  0
VPORT
  2
*ACTIVE
 70
     0
 10
0.0
 20
0.0
 11
1.0
 21
1.0
 12
93.3123028857045682
 22
-15.9191701215803896
 13
0.0
 23
0.0
 14
1.0
 24
1.0
 15
0.0
 25
0.0
 16
-0.0000000000000284
 26
0.0
 36
157.2215818301446859
 17
210.9789276123046875
 27
7.2024491855605604
 37
0.0
 40
12.7425561075290492
 41
2.0314625850340131
 42
50.0
 43
0.0
 44
0.0
 50
0.0
 51
0.0
 71
     0
 72
   100
 73
     1
 74
     1
 75
     0
 76
     0
 77
     0
 78
     0
  0
ENDTAB
  0
TABLE
  2
LTYPE
 70
     2
  0
LTYPE
  2
CONTINUOUS
 70
     0
  3
Solid line
 72
    65
 73
     0
 40
0.0
  0
LTYPE
  2
PHANTOM2
 70
     0
  3
___ _ _ ___ _ _ ___ _ _ ___ _ _
 72
    65
 73
     6
 40
1.25
 49
0.625
 49
-0.125
 49
0.125
 49
-0.125
 49
0.125
 49
-0.125
  0
ENDTAB
  0
TABLE
  2
LAYER
 70
     2
  0
LAYER
  2
0
 70
     0
 62
     7
  6
CONTINUOUS
  0
LAYER
  2
DEFPOINTS
 70
     0
 62
     7
  6
CONTINUOUS
  0
ENDTAB
  0
TABLE
  2
STYLE
 70
     1
  0
STYLE
  2
STANDARD
 70
     0
 40
0.0
 41
0.8
 50
0.0
 71
     0
 42
0.2
  3
txt
  4

  0
ENDTAB
  0
TABLE
  2
VIEW
 70
     0
  0
ENDTAB
  0
TABLE
  2
UCS
 70
     0
  0
ENDTAB
  0
TABLE
  2
APPID
 70
     9
  0
APPID
  2
ACAD
 70
     0
  0
APPID
  2
ACAD_MLEADERVER
 70
     0
  0
APPID
  2
ACAD_EXEMPT_FROM_CAD_STANDARDS
 70
     0
  0
APPID
  2
ACAD_NAV_VCDISPLAY
 70
     0
  0
APPID
  2
ACADANNOMONITORALERTICONDI
 70
     0
  0
APPID
  2
ACAD_DSTYLE_DIMJAG
 70
     0
  0
APPID
  2
ACAD_DSTYLE_DIMTALN
 70
     0
  0
APPID
  2
ACDBATTR
 70
     0
  0
APPID
  2
DCO15
 70
     0
  0
ENDTAB
  0
TABLE
  2
DIMSTYLE
 70
     1
  0
DIMSTYLE
  2
STANDARD
 70
     0
  3

  4

  5

  6

  7

 40
1.0
 41
0.1875
 42
0.0625
 43
0.38
 44
0.125
 45
0.0
 46
0.0
 47
1.5
 48
1.5
140
1.5
141
0.09
142
0.0
143
25.3999999999999986
144
1.0
145
0.0
146
1.0
147
0.09
 71
     0
 72
     0
 73
     1
 74
     1
 75
     0
 76
     0
 77
     0
 78
     4
170
     0
171
     2
172
     0
173
     0
174
     0
175
     0
176
     0
177
     0
178
     0
  0
ENDTAB
  0
ENDSEC
  0
SECTION
  2
BLOCKS
  0
BLOCK
  8
0
  2
$MODEL_SPACE
 70
     0
 10
0.0
 20
0.0
 30
0.0
  3
$MODEL_SPACE
  1

  0
ENDBLK
  5
21
  8
0
  0
BLOCK
 67
     1
  8
0
  2
$PAPER_SPACE
 70
     0
 10
0.0
 20
0.0
 30
0.0
  3
$PAPER_SPACE
  1

  0
ENDBLK
  5
1D
 67
     1
  8
0
  0
BLOCK
  8
0
  2
_FILLED
 70
     0
 10
0.0
 20
0.0
 30
0.0
  3
_FILLED
  1

  0
SOLID
  5
5D53
  8
0
  6
BYBLOCK
 62
     0
 10
0.0
 20
0.0
 30
0.0
 11
-1.0
 21
0.1666666667
 31
0.0
 12
-1.0
 22
-0.1666666667
 32
0.0
 13
-1.0
 23
-0.1666666667
 33
0.0
  0
ENDBLK
  5
5D54
  8
0
  6
BYBLOCK
 62
     0
  0
ENDSEC
  0
SECTION
  2
ENTITIES
  0
ATTDEF
  5
4EF9
  8
DEFPOINTS
 10
304.2936540157787135
 20
-7.1873603636303791
 30
0.0
 40
0.001
  1
K-97896T
  3

  2
MODELNUMBER
 70
     0
1001
ACDBATTR
1070
     0
1070
     1
  0
ATTDEF
  5
4EFA
  8
DEFPOINTS
 10
304.2936540157787135
 20
-7.1890270302970576
 30
0.0
 40
0.001
  1
KUMIN
  3

  2
TRADENAME
 70
     0
1001
ACDBATTR
1070
     0
1070
     1
  0
ATTDEF
  5
4EFB
  8
DEFPOINTS
 10
304.2936540157787135
 20
-7.1906936969637369
 30
0.0
 40
0.001
  1
TOWEL SHELF
  3

  2
PRODUCT
 70
     0
1001
ACDBATTR
1070
     0
1070
     1
  0
LINE
  5
5D7C
  8
0
 10
293.5242458839769029
 20
-6.7176659216583241
 30
0.0
 11
293.5242458839769029
 21
-7.6663216370582754
 31
0.0
  0
LINE
  5
5D7D
  8
0
 10
292.6840778106769108
 20
-6.7176659285582616
 30
0.0
 11
315.8998520332469866
 21
-6.7176659216583214
 31
0.0
  0
LINE
  5
5D7E
  8
0
 10
315.8998486326967168
 20
-7.6663216370582763
 30
0.0
 11
292.6840787085773741
 21
-7.6663216370582754
 31
0.0
  0
ARC
  5
5D7F
  8
0
 10
292.2860366873736098
 20
-7.1919937793582571
 30
0.0
 40
0.4921298408275927
 50
90.2268278025550643
 51
269.7731721974449783
  0
ARC
  5
5D80
  8
0
 10
292.2840880264947145
 20
-7.1920132094249709
 30
0.0
 40
0.4921454143667983
 50
84.8859379816197759
 51
89.9999560999377337
  0
ARC
  5
5D81
  8
0
 10
292.7903770272567954
 20
-0.9272165132803706
 30
0.0
 40
5.7930956646141931
 50
265.421632979123217
 51
267.0583216815189758
  0
ARC
  5
5D82
  8
0
 10
292.6953580707893821
 20
-2.6258722085337922
 30
0.0
 40
4.0918092687099454
 50
267.1664176219023261
 51
269.8420473505900077
  0
ARC
  5
5D83
  8
0
 10
292.2840880264947145
 20
-7.19197434929157
 30
0.0
 40
0.4921454143667983
 50
270.0000439000622805
 51
275.1140620183801957
  0
ARC
  5
5D84
  8
0
 10
292.7903770272567954
 20
-13.4567710454362501
 30
0.0
 40
5.7930956646141931
 50
92.9416783184810384
 51
94.5783670208768683
  0
ARC
  5
5D85
  8
0
 10
292.6953574211946147
 20
-11.7580981645680502
 30
0.0
 40
4.0917920719946066
 50
90.1579316442004171
 51
92.8335851894675983
  0
ARC
  5
5D86
  8
0
 10
293.071489978376917
 20
-10.1053796061582606
 30
0.0
 40
0.5511811024000021
 50
180.0
 51
270.0
  0
ARC
  5
5D87
  8
0
 10
293.071489978376917
 20
-10.1053796061582606
 30
0.0
 40
1.0236220471999991
 50
180.0
 51
270.0
  0
LINE
  5
5D88
  8
0
 10
292.5203088760770811
 20
-10.1053796061582606
 30
0.0
 11
292.5203088760770811
 21
-7.6700521316459751
 31
0.0
  0
LINE
  5
5D89
  8
0
 10
292.0478679311771089
 20
-10.1053796061582606
 30
0.0
 11
292.0478679311771089
 21
-7.622653069058658
 31
0.0
  0
LINE
  5
5D8A
  8
0
 10
293.071489978376917
 20
-10.6565607085582599
 30
0.0
 11
315.5124373629130901
 21
-10.6565607085582599
 31
0.0
  0
LINE
  5
5D8B
  8
0
 10
315.5124373629130901
 20
-11.1290016533582694
 30
0.0
 11
293.071489978376917
 21
-11.1290016533582694
 31
0.0
  0
ARC
  5
5D8C
  8
0
 10
292.2840884035771865
 20
-7.1919937792583122
 30
0.0
 40
0.8858267716999996
 50
32.3753462608665927
 51
254.5339900501556087
  0
ARC
  5
5D8D
  8
0
 10
292.2840884035771865
 20
-7.1919937792583122
 30
0.0
 40
0.8858267716999996
 50
285.4660099565454061
 51
327.6246532033118797
  0
LINE
  5
5D8E
  8
0
 10
315.0596814573129905
 20
-6.7176659216583241
 30
0.0
 11
315.0596814573129905
 21
-7.6663216370582754
 31
0.0
  0
ARC
  5
5D8F
  8
0
 10
316.2978906539163972
 20
-7.1919937793582571
 30
0.0
 40
0.4921298408275927
 50
270.2268278025550217
 51
89.7731721974449499
  0
ARC
  5
5D90
  8
0
 10
316.2998393147952925
 20
-7.1920132094249709
 30
0.0
 40
0.4921454143667983
 50
90.0000439000622663
 51
95.1140620183801957
  0
ARC
  5
5D91
  8
0
 10
315.7935503140332116
 20
-0.9272165132803706
 30
0.0
 40
5.7930956646141931
 50
272.9416783184810242
 51
274.578367020876783
  0
ARC
  5
5D92
  8
0
 10
315.888569270500625
 20
-2.6258722085337922
 30
0.0
 40
4.0918092687099454
 50
270.1579526494099923
 51
272.8335823780976739
  0
ARC
  5
5D93
  8
0
 10
316.2998393147952925
 20
-7.19197434929157
 30
0.0
 40
0.4921454143667983
 50
264.8859379816198043
 51
269.9999560999377195
  0
ARC
  5
5D94
  8
0
 10
315.7935503140332116
 20
-13.4567710454362501
 30
0.0
 40
5.7930956646141931
 50
85.4216329791231459
 51
87.0583216815189758
  0
ARC
  5
5D95
  8
0
 10
315.8885699200952786
 20
-11.7580981645680502
 30
0.0
 40
4.0917920719946066
 50
87.1664148105324017
 51
89.8420683557995687
  0
ARC
  5
5D96
  8
0
 10
315.5124373629130901
 20
-10.1053796061582606
 30
0.0
 40
0.5511811024000021
 50
270.0
 51
0.0
  0
ARC
  5
5D97
  8
0
 10
315.5124373629130901
 20
-10.1053796061582606
 30
0.0
 40
1.0236220471999991
 50
270.0
 51
0.0
  0
LINE
  5
5D98
  8
0
 10
316.0636184652129259
 20
-10.1053796061582606
 30
0.0
 11
316.0636184652129259
 21
-7.6700521316459751
 31
0.0
  0
LINE
  5
5D99
  8
0
 10
316.5360594101127845
 20
-10.1053796061582606
 30
0.0
 11
316.5360594101127845
 21
-7.622653069058658
 31
0.0
  0
ARC
  5
5D9A
  8
0
 10
316.2998389377128206
 20
-7.1919937792583122
 30
0.0
 40
0.8858267716999996
 50
285.4660099498444197
 51
147.6246537391334073
  0
ARC
  5
5D9B
  8
0
 10
316.2998389377128206
 20
-7.1919937792583122
 30
0.0
 40
0.8858267716999996
 50
212.3753467966880919
 51
254.5339900434545939
  0
ENDSEC
  0
EOF
