  0
SECTION
  2
HEADER
  9
$ACADVER
  1
AC1009
  9
$INSBASE
 10
325.2053340662932897
 20
-14.6267124567541504
 30
0.0
  9
$EXTMIN
 10
312.2938992785371966
 20
-21.1700277201260292
 30
-0.0000000000000058
  9
$EXTMAX
 10
338.1150371392570264
 20
-14.6208202328717594
 30
0.0000000000000104
  9
$LIMMIN
 10
0.0
 20
0.0
  9
$LIMMAX
 10
22.0
 20
17.0
  9
$ORTHOMODE
 70
     0
  9
$REGENMODE
 70
     1
  9
$FILLMODE
 70
     1
  9
$QTEXTMODE
 70
     0
  9
$MIRRTEXT
 70
     0
  9
$DRAGMODE
 70
     2
  9
$LTSCALE
 40
1.2099999999999991
  9
$OSMODE
 70
  4095
  9
$ATTMODE
 70
     1
  9
$TEXTSIZE
 40
0.2
  9
$TRACEWID
 40
0.05
  9
$TEXTSTYLE
  7
STANDARD
  9
$CLAYER
  8
0
  9
$CELTYPE
  6
BYLAYER
  9
$CECOLOR
 62
   256
  9
$DIMSCALE
 40
1.0
  9
$DIMASZ
 40
0.1875
  9
$DIMEXO
 40
0.0625
  9
$DIMDLI
 40
0.38
  9
$DIMRND
 40
0.0
  9
$DIMDLE
 40
0.0
  9
$DIMEXE
 40
0.125
  9
$DIMTP
 40
1.5
  9
$DIMTM
 40
1.5
  9
$DIMTXT
 40
1.5
  9
$DIMCEN
 40
0.09
  9
$DIMTSZ
 40
0.0
  9
$DIMTOL
 70
     0
  9
$DIMLIM
 70
     0
  9
$DIMTIH
 70
     1
  9
$DIMTOH
 70
     1
  9
$DIMSE1
 70
     0
  9
$DIMSE2
 70
     0
  9
$DIMTAD
 70
     0
  9
$DIMZIN
 70
     4
  9
$DIMBLK
  1

  9
$DIMASO
 70
     1
  9
$DIMSHO
 70
     1
  9
$DIMPOST
  1

  9
$DIMAPOST
  1

  9
$DIMALT
 70
     0
  9
$DIMALTD
 70
     2
  9
$DIMALTF
 40
25.3999999999999986
  9
$DIMLFAC
 40
1.0
  9
$DIMTOFL
 70
     0
  9
$DIMTVP
 40
0.0
  9
$DIMTIX
 70
     0
  9
$DIMSOXD
 70
     0
  9
$DIMSAH
 70
     0
  9
$DIMBLK1
  1

  9
$DIMBLK2
  1

  9
$DIMSTYLE
  2
STANDARD
  9
$DIMCLRD
 70
     0
  9
$DIMCLRE
 70
     0
  9
$DIMCLRT
 70
     0
  9
$DIMTFAC
 40
1.0
  9
$DIMGAP
 40
0.09
  9
$LUNITS
 70
     2
  9
$LUPREC
 70
     4
  9
$SKETCHINC
 40
0.1
  9
$FILLETRAD
 40
0.0
  9
$AUNITS
 70
     0
  9
$AUPREC
 70
     0
  9
$MENU
  1
.
  9
$ELEVATION
 40
0.0
  9
$PELEVATION
 40
0.0
  9
$THICKNESS
 40
0.0
  9
$LIMCHECK
 70
     0
  9
$BLIPMODE
 70
     0
  9
$CHAMFERA
 40
0.0
  9
$CHAMFERB
 40
0.0
  9
$SKPOLY
 70
     0
  9
$TDCREATE
 40
2457827.4934837957844138
  9
$TDUPDATE
 40
2459984.6535069439560175
  9
$TDINDWG
 40
0.3984163194
  9
$TDUSRTIMER
 40
0.3984163194
  9
$USRTIMER
 70
     1
  9
$ANGBASE
 50
0.0
  9
$ANGDIR
 70
     0
  9
$PDMODE
 70
     0
  9
$PDSIZE
 40
0.3125
  9
$PLINEWID
 40
0.0
  9
$COORDS
 70
     1
  9
$SPLFRAME
 70
     0
  9
$SPLINETYPE
 70
     6
  9
$SPLINESEGS
 70
     8
  9
$ATTDIA
 70
     1
  9
$ATTREQ
 70
     1
  9
$HANDLING
 70
     1
  9
$HANDSEED
  5
60AA
  9
$SURFTAB1
 70
     6
  9
$SURFTAB2
 70
     6
  9
$SURFTYPE
 70
     6
  9
$SURFU
 70
     6
  9
$SURFV
 70
     6
  9
$UCSNAME
  2

  9
$UCSORG
 10
0.0
 20
0.0
 30
0.0
  9
$UCSXDIR
 10
1.0
 20
0.0
 30
0.0
  9
$UCSYDIR
 10
0.0
 20
1.0
 30
0.0
  9
$PUCSNAME
  2

  9
$PUCSORG
 10
0.0
 20
0.0
 30
0.0
  9
$PUCSXDIR
 10
1.0
 20
0.0
 30
0.0
  9
$PUCSYDIR
 10
0.0
 20
1.0
 30
0.0
  9
$USERI1
 70
     0
  9
$USERI2
 70
     0
  9
$USERI3
 70
     0
  9
$USERI4
 70
     0
  9
$USERI5
 70
     0
  9
$USERR1
 40
0.0
  9
$USERR2
 40
0.0
  9
$USERR3
 40
0.0
  9
$USERR4
 40
0.0
  9
$USERR5
 40
0.0
  9
$WORLDVIEW
 70
     1
  9
$SHADEDGE
 70
     3
  9
$SHADEDIF
 70
    70
  9
$TILEMODE
 70
     1
  9
$MAXACTVP
 70
    48
  9
$PLIMCHECK
 70
     0
  9
$PEXTMIN
 10
1.0000000000000000E+20
 20
1.0000000000000000E+20
 30
1.0000000000000000E+20
  9
$PEXTMAX
 10
-1.0000000000000000E+20
 20
-1.0000000000000000E+20
 30
-1.0000000000000000E+20
  9
$PLIMMIN
 10
0.0
 20
0.0
  9
$PLIMMAX
 10
12.0
 20
9.0
  9
$UNITMODE
 70
     0
  9
$VISRETAIN
 70
     1
  9
$PLINEGEN
 70
     0
  9
$PSLTSCALE
 70
     1
  0
ENDSEC
  0
SECTION
  2
TABLES
  0
TABLE
  2
VPORT
 70
     1
  0
VPORT
  2
*ACTIVE
 70
     0
 10
0.0
 20
0.0
 11
1.0
 21
1.0
 12
114.2255405965923956
 22
-25.0978731620594608
 13
0.0
 23
0.0
 14
1.0
 24
1.0
 15
0.0
 25
0.0
 16
-0.0000000000000284
 26
0.0
 36
157.2215818301446859
 17
210.9789276123046875
 27
7.2024491855605604
 37
0.0
 40
12.7425102622186195
 41
2.0314625850340131
 42
50.0
 43
0.0
 44
0.0
 50
0.0
 51
0.0
 71
     0
 72
   100
 73
     1
 74
     1
 75
     0
 76
     0
 77
     0
 78
     0
  0
ENDTAB
  0
TABLE
  2
LTYPE
 70
     2
  0
LTYPE
  2
CONTINUOUS
 70
     0
  3
Solid line
 72
    65
 73
     0
 40
0.0
  0
LTYPE
  2
PHANTOM2
 70
     0
  3
___ _ _ ___ _ _ ___ _ _ ___ _ _
 72
    65
 73
     6
 40
1.25
 49
0.625
 49
-0.125
 49
0.125
 49
-0.125
 49
0.125
 49
-0.125
  0
ENDTAB
  0
TABLE
  2
LAYER
 70
     2
  0
LAYER
  2
0
 70
     0
 62
     7
  6
CONTINUOUS
  0
LAYER
  2
DEFPOINTS
 70
     0
 62
     7
  6
CONTINUOUS
  0
ENDTAB
  0
TABLE
  2
STYLE
 70
     1
  0
STYLE
  2
STANDARD
 70
     0
 40
0.0
 41
0.8
 50
0.0
 71
     0
 42
0.2
  3
txt
  4

  0
ENDTAB
  0
TABLE
  2
VIEW
 70
     0
  0
ENDTAB
  0
TABLE
  2
UCS
 70
     0
  0
ENDTAB
  0
TABLE
  2
APPID
 70
     9
  0
APPID
  2
ACAD
 70
     0
  0
APPID
  2
ACAD_MLEADERVER
 70
     0
  0
APPID
  2
ACAD_EXEMPT_FROM_CAD_STANDARDS
 70
     0
  0
APPID
  2
ACAD_NAV_VCDISPLAY
 70
     0
  0
APPID
  2
ACADANNOMONITORALERTICONDI
 70
     0
  0
APPID
  2
ACAD_DSTYLE_DIMJAG
 70
     0
  0
APPID
  2
ACAD_DSTYLE_DIMTALN
 70
     0
  0
APPID
  2
ACDBATTR
 70
     0
  0
APPID
  2
DCO15
 70
     0
  0
ENDTAB
  0
TABLE
  2
DIMSTYLE
 70
     1
  0
DIMSTYLE
  2
STANDARD
 70
     0
  3

  4

  5

  6

  7

 40
1.0
 41
0.1875
 42
0.0625
 43
0.38
 44
0.125
 45
0.0
 46
0.0
 47
1.5
 48
1.5
140
1.5
141
0.09
142
0.0
143
25.3999999999999986
144
1.0
145
0.0
146
1.0
147
0.09
 71
     0
 72
     0
 73
     1
 74
     1
 75
     0
 76
     0
 77
     0
 78
     4
170
     0
171
     2
172
     0
173
     0
174
     0
175
     0
176
     0
177
     0
178
     0
  0
ENDTAB
  0
ENDSEC
  0
SECTION
  2
BLOCKS
  0
BLOCK
  8
0
  2
$MODEL_SPACE
 70
     0
 10
0.0
 20
0.0
 30
0.0
  3
$MODEL_SPACE
  1

  0
ENDBLK
  5
21
  8
0
  0
BLOCK
 67
     1
  8
0
  2
$PAPER_SPACE
 70
     0
 10
0.0
 20
0.0
 30
0.0
  3
$PAPER_SPACE
  1

  0
ENDBLK
  5
1D
 67
     1
  8
0
  0
ENDSEC
  0
SECTION
  2
ENTITIES
  0
ATTDEF
  5
4EF9
  8
DEFPOINTS
 10
325.2058878250641101
 20
-14.6227920113118
 30
0.0
 40
0.001
  1
K-97896T
  3

  2
MODELNUMBER
 70
     0
1001
ACDBATTR
1070
     0
1070
     1
  0
ATTDEF
  5
4EFA
  8
DEFPOINTS
 10
325.2058878250641101
 20
-14.6244586779784793
 30
0.0
 40
0.001
  1
KUMIN
  3

  2
TRADENAME
 70
     0
1001
ACDBATTR
1070
     0
1070
     1
  0
ATTDEF
  5
4EFB
  8
DEFPOINTS
 10
325.2058878250641101
 20
-14.6261253446451605
 30
0.0
 40
0.001
  1
TOWEL SHELF
  3

  2
PRODUCT
 70
     0
1001
ACDBATTR
1070
     0
1070
     1
  0
LINE
  5
5D99
  8
0
 10
314.1226460784279766
 20
-20.6830117176431294
 30
0.0
 11
315.0163629093714803
 21
-20.6830128170281604
 31
0.0
  0
LINE
  5
5D9A
  8
0
 10
313.1974578212431766
 20
-21.1688384410541701
 30
0.0
 11
337.2132103103186864
 21
-21.1688384410541701
 31
0.0
  0
ARC
  5
5D9B
  8
0
 10
315.0990326928492209
 20
-20.0617020419115093
 30
0.0
 40
0.6267865445079883
 50
262.4209101411768756
 51
277.5797613247767117
  0
LINE
  5
5D9C
  8
0
 10
315.1817097576442279
 20
-20.6830118481541412
 30
0.0
 11
335.2289583741921888
 21
-20.6830118480542389
 31
0.0
  0
LINE
  5
5D9D
  8
0
 10
313.6874064990175839
 20
-16.634586472454199
 30
0.0
 11
336.7232616335674038
 21
-16.634586472454199
 31
0.0
  0
LINE
  5
5D9E
  8
0
 10
313.6874064989643784
 20
-17.10702741735426
 30
0.0
 11
336.7232616336222009
 21
-17.10702741735426
 31
0.0
  0
LINE
  5
5D9F
  8
0
 10
312.7053318369946169
 20
-14.9023030079541492
 30
0.0
 11
312.7053318369946169
 21
-20.9053407379542513
 31
0.0
  0
LINE
  5
5DA0
  8
0
 10
313.6895838054925889
 20
-14.9023030079541492
 30
0.0
 11
313.6895838054925889
 21
-16.6306494646541694
 31
0.0
  0
ARC
  5
5DA1
  8
0
 10
314.1191887035184891
 20
-16.8708069449542393
 30
0.0
 40
0.4921747492005179
 50
150.7939619279187866
 51
209.206038072080986
  0
ARC
  5
5DA2
  8
0
 10
314.3431104074830955
 20
-20.2500969762225296
 30
0.0
 40
0.6543508597201221
 50
177.1238640861107001
 51
197.0768870622320037
  0
LINE
  5
5DA3
  8
0
 10
312.3116320275238991
 20
-14.6267124567541504
 30
0.0
 11
314.0832845929442101
 21
-14.6267124567541504
 31
0.0
  0
LINE
  5
5DA4
  8
0
 10
313.6895838054925889
 20
-20.2172636378542485
 30
0.0
 11
313.6895838054925889
 21
-19.0794683622542109
 31
0.0
  0
LINE
  5
5DA5
  8
0
 10
313.6895838054925889
 20
-18.5991534016541493
 30
0.0
 11
313.6895838054925889
 21
-17.110964425254199
 31
0.0
  0
LINE
  5
5DA6
  8
0
 10
313.5974472290138237
 20
-20.8862274128542289
 30
0.0
 11
336.8132209035761093
 21
-20.8862274128542289
 31
0.0
  0
LINE
  5
5DA7
  8
0
 10
314.4376153016430067
 20
-21.1688384410541701
 30
0.0
 11
314.4376159255982088
 21
-20.6830120737337815
 31
0.0
  0
ARC
  5
5DA8
  8
0
 10
314.0377009626888025
 20
-20.3389373830350202
 30
0.0
 40
0.336351739359378
 50
197.8879870650389137
 51
224.5130222944104048
  0
ARC
  5
5DA9
  8
0
 10
314.0377949795008021
 20
-20.3286470241121506
 30
0.0
 40
0.3437099956833665
 50
225.7253493609536861
 51
253.4433397209660939
  0
ARC
  5
5DAA
  8
0
 10
314.1098729468878901
 20
-20.0934852756944586
 30
0.0
 40
0.5896648019392609
 50
253.2415230657776135
 51
271.2412200490771852
  0
ARC
  5
5DAB
  8
0
 10
314.1191887027795815
 20
-18.8393108819542512
 30
0.0
 40
0.4921747485561085
 50
150.7939618859934967
 51
209.2060381140063896
  0
LINE
  5
5DAC
  8
0
 10
313.6874064989603994
 20
-19.0755313543542115
 30
0.0
 11
336.7232616336265778
 21
-19.0755313543542115
 31
0.0
  0
LINE
  5
5DAD
  8
0
 10
336.7232616336265778
 20
-18.6030904095542304
 30
0.0
 11
313.6874064989603994
 21
-18.6030904095542304
 31
0.0
  0
LINE
  5
5DAE
  8
0
 10
313.6895838054925889
 20
-19.3904919843541599
 30
0.0
 11
336.7210843270938199
 21
-19.3904919843541492
 31
0.0
  0
LINE
  5
5DAF
  8
0
 10
336.7210843270938199
 20
-19.8629329291542582
 30
0.0
 11
313.6895838054925889
 21
-19.8629329291542582
 31
0.0
  0
ARC
  5
5DB0
  8
0
 10
313.1974578222677223
 20
-20.5488748716549416
 30
0.0
 40
0.6199635693992436
 50
248.3028906992441875
 51
269.9999999006258236
  0
ARC
  5
5DB1
  8
0
 10
313.1974578211222138
 20
-20.5488748759781608
 30
0.0
 40
0.6199635649584722
 50
219.4582087762215963
 51
248.3028906499748132
  0
ARC
  5
5DB2
  8
0
 10
312.764386955159523
 20
-20.9053407379428293
 30
0.0
 40
0.059055118165611
 50
180.0000000110636051
 51
219.4582087134483004
  0
LINE
  5
5DB3
  8
0
 10
312.7053318369946169
 20
-20.9053407379428293
 30
0.0
 11
313.1974578211926996
 21
-20.9053407379542513
 31
0.0
  0
ARC
  5
5DB4
  8
0
 10
313.7516949395487131
 20
-26.4909344584682493
 30
0.0
 40
5.6068291772945731
 50
91.5764450285749092
 51
95.2250621314445596
  0
ARC
  5
5DB5
  8
0
 10
313.1974008521676183
 20
-21.3690473724546486
 30
0.0
 40
0.4637066379999529
 50
84.5935878533436352
 51
89.9929608840790394
  0
LINE
  5
5DB6
  8
0
 10
314.0832845928945858
 20
-14.6267124567541504
 30
0.0
 11
314.0832845928945858
 21
-14.8432478896834397
 31
0.0
  0
LINE
  5
5DB7
  8
0
 10
312.311632027525377
 20
-14.6267124567541504
 30
0.0
 11
312.3116320274253894
 21
-14.8432478898541493
 31
0.0
  0
LINE
  5
5DB8
  8
0
 10
314.0242294746240077
 20
-14.9023030079541492
 30
0.0
 11
312.3706861676946005
 21
-14.9023030079541492
 31
0.0
  0
ARC
  5
5DB9
  8
0
 10
312.3706854762069725
 20
-14.8432495592530902
 30
0.0
 40
0.059053448705111
 50
179.9983802891221103
 51
270.0006709062150776
  0
ARC
  5
5DBA
  8
0
 10
314.0242294746240077
 20
-14.8432478896834397
 30
0.0
 40
0.0590551182707095
 50
270.0000000685997747
 51
359.9999998343741936
  0
LINE
  5
5DBB
  8
0
 10
336.288022054158489
 20
-20.6830117176431294
 30
0.0
 11
335.3943052232149853
 21
-20.6830128170281604
 31
0.0
  0
ARC
  5
5DBC
  8
0
 10
335.3116354397371879
 20
-20.0617020419115093
 30
0.0
 40
0.6267865445079883
 50
262.4202386752232883
 51
277.5790898588231244
  0
LINE
  5
5DBD
  8
0
 10
337.7053362955919056
 20
-14.9023030079541492
 30
0.0
 11
337.7053362955919056
 21
-20.9053407379542513
 31
0.0
  0
LINE
  5
5DBE
  8
0
 10
336.7210843270938199
 20
-14.9023030079541492
 30
0.0
 11
336.7210843270938199
 21
-16.6306494646541694
 31
0.0
  0
ARC
  5
5DBF
  8
0
 10
336.2914794290679197
 20
-16.8708069449542393
 30
0.0
 40
0.4921747492005179
 50
330.793961927918815
 51
29.2060380720811992
  0
ARC
  5
5DC0
  8
0
 10
336.0675577251033133
 20
-20.2500969762225296
 30
0.0
 40
0.6543508597201221
 50
342.9231129377678826
 51
2.876135913889259
  0
LINE
  5
5DC1
  8
0
 10
338.0990361050626234
 20
-14.6267124567541504
 30
0.0
 11
336.3273835396423124
 21
-14.6267124567541504
 31
0.0
  0
LINE
  5
5DC2
  8
0
 10
336.7210843270938199
 20
-20.2172636378542485
 30
0.0
 11
336.7210843270938199
 21
-19.0794683622542109
 31
0.0
  0
LINE
  5
5DC3
  8
0
 10
336.7210843270938199
 20
-18.5991534016541493
 30
0.0
 11
336.7210843270938199
 21
-17.110964425254199
 31
0.0
  0
LINE
  5
5DC4
  8
0
 10
335.9730528309435158
 20
-21.1688384410541701
 30
0.0
 11
335.9730522069883136
 21
-20.6830120737337815
 31
0.0
  0
ARC
  5
5DC5
  8
0
 10
336.3729671698977199
 20
-20.3389373830350202
 30
0.0
 40
0.336351739359378
 50
315.4869777055895952
 51
342.1120129349611148
  0
ARC
  5
5DC6
  8
0
 10
336.3728731530857203
 20
-20.3286470241121506
 30
0.0
 40
0.3437099956833665
 50
286.5566602790339061
 51
314.2746506390463992
  0
ARC
  5
5DC7
  8
0
 10
336.3007951856985756
 20
-20.0934852756944586
 30
0.0
 40
0.5896648019392609
 50
268.7587799509228148
 51
286.7584769342223012
  0
ARC
  5
5DC8
  8
0
 10
336.2914794298068841
 20
-18.8393108819542512
 30
0.0
 40
0.4921747485561085
 50
330.7939618859934967
 51
29.2060381140064891
  0
ARC
  5
5DC9
  8
0
 10
337.2132103103186864
 20
-20.5488748716549416
 30
0.0
 40
0.6199635693992436
 50
270.0000000993741764
 51
291.6971093007556988
  0
ARC
  5
5DCA
  8
0
 10
337.2132103114643087
 20
-20.5488748759781608
 30
0.0
 40
0.6199635649584722
 50
291.6971093500253005
 51
320.541791223778489
  0
ARC
  5
5DCB
  8
0
 10
337.6462811774269994
 20
-20.9053407379428293
 30
0.0
 40
0.059055118165611
 50
320.5417912865518133
 51
359.9999999889362812
  0
LINE
  5
5DCC
  8
0
 10
337.7053362955919056
 20
-20.9053407379428293
 30
0.0
 11
337.2132103113937092
 21
-20.9053407379542513
 31
0.0
  0
ARC
  5
5DCD
  8
0
 10
336.6589731930376956
 20
-26.4909344584682493
 30
0.0
 40
5.6068291772945731
 50
84.7749378685554547
 51
88.423554971425105
  0
ARC
  5
5DCE
  8
0
 10
337.2132672804187905
 20
-21.3690473724546486
 30
0.0
 40
0.4637066379999529
 50
90.0070391159209748
 51
95.4064121466563648
  0
LINE
  5
5DCF
  8
0
 10
336.327383539691823
 20
-14.6267124567541504
 30
0.0
 11
336.327383539691823
 21
-14.8432478896834397
 31
0.0
  0
LINE
  5
5DD0
  8
0
 10
338.0990361050609749
 20
-14.6267124567541504
 30
0.0
 11
338.0990361051610762
 21
-14.8432478898541493
 31
0.0
  0
LINE
  5
5DD1
  8
0
 10
336.3864386579625148
 20
-14.9023030079541492
 30
0.0
 11
338.0399819648918083
 21
-14.9023030079541492
 31
0.0
  0
ARC
  5
5DD2
  8
0
 10
338.0399826563794932
 20
-14.8432495592530902
 30
0.0
 40
0.059053448705111
 50
269.9993290937849224
 51
0.0016197108779162
  0
ARC
  5
5DD3
  8
0
 10
336.3864386579625148
 20
-14.8432478896834397
 30
0.0
 40
0.0590551182707095
 50
180.0000001656258064
 51
269.9999999314002253
  0
ENDSEC
  0
EOF
