  0
SECTION
  2
HEADER
  9
$ACADVER
  1
AC1009
  9
$INSBASE
 10
528.3842003869388009
 20
52.6739857138678786
 30
0.0
  9
$EXTMIN
 10
518.9799632665635727
 20
48.3645482055895286
 30
0.0
  9
$EXTMAX
 10
531.2975862137958529
 20
55.2919349342052726
 30
0.0
  9
$LIMMIN
 10
0.0
 20
0.0
  9
$LIMMAX
 10
11.6929133858000007
 20
8.2677165353999982
  9
$ORTHOMODE
 70
     0
  9
$REGENMODE
 70
     1
  9
$FILLMODE
 70
     1
  9
$QTEXTMODE
 70
     0
  9
$MIRRTEXT
 70
     0
  9
$DRAGMODE
 70
     2
  9
$LTSCALE
 40
0.6431102362
  9
$OSMODE
 70
  4095
  9
$ATTMODE
 70
     1
  9
$TEXTSIZE
 40
0.2
  9
$TRACEWID
 40
0.05
  9
$TEXTSTYLE
  7
STANDARD
  9
$CLAYER
  8
0
  9
$CELTYPE
  6
BYLAYER
  9
$CECOLOR
 62
   256
  9
$DIMSCALE
 40
1.0
  9
$DIMASZ
 40
0.1875
  9
$DIMEXO
 40
0.0625
  9
$DIMDLI
 40
0.4443307087
  9
$DIMRND
 40
0.0
  9
$DIMDLE
 40
0.0
  9
$DIMEXE
 40
0.125
  9
$DIMTP
 40
0.01
  9
$DIMTM
 40
0.01
  9
$DIMTXT
 40
1.0
  9
$DIMCEN
 40
0.1052362205
  9
$DIMTSZ
 40
0.0
  9
$DIMTOL
 70
     1
  9
$DIMLIM
 70
     0
  9
$DIMTIH
 70
     0
  9
$DIMTOH
 70
     1
  9
$DIMSE1
 70
     0
  9
$DIMSE2
 70
     0
  9
$DIMTAD
 70
     0
  9
$DIMZIN
 70
     0
  9
$DIMBLK
  1

  9
$DIMASO
 70
     1
  9
$DIMSHO
 70
     1
  9
$DIMPOST
  1
\X
  9
$DIMAPOST
  1

  9
$DIMALT
 70
     1
  9
$DIMALTD
 70
     2
  9
$DIMALTF
 40
25.3999999999999986
  9
$DIMLFAC
 40
1.0
  9
$DIMTOFL
 70
     0
  9
$DIMTVP
 40
0.0
  9
$DIMTIX
 70
     0
  9
$DIMSOXD
 70
     0
  9
$DIMSAH
 70
     0
  9
$DIMBLK1
  1

  9
$DIMBLK2
  1

  9
$DIMSTYLE
  2
STANDARD
  9
$DIMCLRD
 70
     0
  9
$DIMCLRE
 70
     0
  9
$DIMCLRT
 70
     0
  9
$DIMTFAC
 40
1.0
  9
$DIMGAP
 40
0.09
  9
$LUNITS
 70
     2
  9
$LUPREC
 70
     4
  9
$SKETCHINC
 40
0.1
  9
$FILLETRAD
 40
0.0
  9
$AUNITS
 70
     0
  9
$AUPREC
 70
     0
  9
$MENU
  1
.
  9
$ELEVATION
 40
0.0
  9
$PELEVATION
 40
0.0
  9
$THICKNESS
 40
0.0
  9
$LIMCHECK
 70
     0
  9
$BLIPMODE
 70
     0
  9
$CHAMFERA
 40
0.0
  9
$CHAMFERB
 40
0.0
  9
$SKPOLY
 70
     0
  9
$TDCREATE
 40
2458172.5207638889551163
  9
$TDUPDATE
 40
2459115.718356482218951
  9
$TDINDWG
 40
0.2790944213
  9
$TDUSRTIMER
 40
0.2790944213
  9
$USRTIMER
 70
     1
  9
$ANGBASE
 50
0.0
  9
$ANGDIR
 70
     0
  9
$PDMODE
 70
     0
  9
$PDSIZE
 40
0.3125
  9
$PLINEWID
 40
0.0
  9
$COORDS
 70
     1
  9
$SPLFRAME
 70
     0
  9
$SPLINETYPE
 70
     6
  9
$SPLINESEGS
 70
     8
  9
$ATTDIA
 70
     1
  9
$ATTREQ
 70
     1
  9
$HANDLING
 70
     1
  9
$HANDSEED
  5
107C6
  9
$SURFTAB1
 70
     6
  9
$SURFTAB2
 70
     6
  9
$SURFTYPE
 70
     6
  9
$SURFU
 70
     6
  9
$SURFV
 70
     6
  9
$UCSNAME
  2

  9
$UCSORG
 10
0.0
 20
0.0
 30
0.0
  9
$UCSXDIR
 10
1.0
 20
0.0
 30
0.0
  9
$UCSYDIR
 10
0.0
 20
1.0
 30
0.0
  9
$PUCSNAME
  2

  9
$PUCSORG
 10
0.0
 20
0.0
 30
0.0
  9
$PUCSXDIR
 10
1.0
 20
0.0
 30
0.0
  9
$PUCSYDIR
 10
0.0
 20
1.0
 30
0.0
  9
$USERI1
 70
     0
  9
$USERI2
 70
     0
  9
$USERI3
 70
     0
  9
$USERI4
 70
     0
  9
$USERI5
 70
     0
  9
$USERR1
 40
0.0
  9
$USERR2
 40
0.0
  9
$USERR3
 40
0.0
  9
$USERR4
 40
0.0
  9
$USERR5
 40
0.0
  9
$WORLDVIEW
 70
     1
  9
$SHADEDGE
 70
     3
  9
$SHADEDIF
 70
    70
  9
$TILEMODE
 70
     1
  9
$MAXACTVP
 70
    64
  9
$PLIMCHECK
 70
     0
  9
$PEXTMIN
 10
1.0000000000000000E+20
 20
1.0000000000000000E+20
 30
1.0000000000000000E+20
  9
$PEXTMAX
 10
-1.0000000000000000E+20
 20
-1.0000000000000000E+20
 30
-1.0000000000000000E+20
  9
$PLIMMIN
 10
0.0
 20
0.0
  9
$PLIMMAX
 10
12.0
 20
9.0
  9
$UNITMODE
 70
     0
  9
$VISRETAIN
 70
     1
  9
$PLINEGEN
 70
     0
  9
$PSLTSCALE
 70
     1
  0
ENDSEC
  0
SECTION
  2
TABLES
  0
TABLE
  2
VPORT
 70
     1
  0
VPORT
  2
*ACTIVE
 70
     0
 10
0.0
 20
0.0
 11
1.0
 21
1.0
 12
107.4330281705500028
 22
-21.4394778710285188
 13
0.0
 23
0.0
 14
1.0
 24
1.0
 15
0.0
 25
0.0
 16
0.0
 26
0.0
 36
14.6338572656650907
 17
429.6292891080536833
 27
69.7025415122186871
 37
0.0
 40
34.0617035626694999
 41
2.005224660397074
 42
50.0
 43
0.0
 44
0.0
 50
0.0
 51
0.0
 71
     0
 72
   100
 73
     1
 74
     1
 75
     0
 76
     0
 77
     0
 78
     0
  0
ENDTAB
  0
TABLE
  2
LTYPE
 70
     2
  0
LTYPE
  2
CONTINUOUS
 70
     0
  3
Solid line
 72
    65
 73
     0
 40
0.0
  0
LTYPE
  2
PHANTOM2
 70
     0
  3
___ _ _ ___ _ _ ___ _ _ ___ _ _
 72
    65
 73
     6
 40
1.25
 49
0.625
 49
-0.125
 49
0.125
 49
-0.125
 49
0.125
 49
-0.125
  0
ENDTAB
  0
TABLE
  2
LAYER
 70
     2
  0
LAYER
  2
0
 70
     0
 62
   255
  6
CONTINUOUS
  0
LAYER
  2
DEFPOINTS
 70
     0
 62
     7
  6
CONTINUOUS
  0
ENDTAB
  0
TABLE
  2
STYLE
 70
     1
  0
STYLE
  2
STANDARD
 70
     0
 40
0.0
 41
0.8
 50
0.0
 71
     0
 42
0.2
  3
txt
  4

  0
ENDTAB
  0
TABLE
  2
VIEW
 70
     0
  0
ENDTAB
  0
TABLE
  2
UCS
 70
     0
  0
ENDTAB
  0
TABLE
  2
APPID
 70
    10
  0
APPID
  2
ACAD
 70
     0
  0
APPID
  2
ACAD_MLEADERVER
 70
     0
  0
APPID
  2
ACAD_EXEMPT_FROM_CAD_STANDARDS
 70
     0
  0
APPID
  2
ACAD_DSTYLE_DIMJAG
 70
     0
  0
APPID
  2
ACAD_DSTYLE_DIMTALN
 70
     0
  0
APPID
  2
ACAD_NAV_VCDISPLAY
 70
     0
  0
APPID
  2
ACAECLAYERSTANDARD
 70
     0
  0
APPID
  2
ACCMTRANSPARENCY
 70
     0
  0
APPID
  2
DCO15
 70
     0
  0
APPID
  2
ACDBATTR
 70
     0
  0
ENDTAB
  0
TABLE
  2
DIMSTYLE
 70
     1
  0
DIMSTYLE
  2
STANDARD
 70
     0
  3

  4

  5

  6

  7

 40
1.0
 41
0.1875
 42
0.0625
 43
0.38
 44
0.125
 45
0.0
 46
0.0
 47
0.01
 48
0.01
140
0.15625
141
0.09
142
0.0
143
25.3999999999999986
144
1.0
145
0.0
146
1.0
147
0.09
 71
     1
 72
     0
 73
     1
 74
     1
 75
     0
 76
     0
 77
     0
 78
     4
170
     0
171
     2
172
     0
173
     0
174
     0
175
     0
176
     0
177
     0
178
     0
  0
ENDTAB
  0
ENDSEC
  0
SECTION
  2
BLOCKS
  0
BLOCK
  8
0
  2
$MODEL_SPACE
 70
     0
 10
0.0
 20
0.0
 30
0.0
  3
$MODEL_SPACE
  1

  0
ENDBLK
  5
21
  8
0
  0
BLOCK
 67
     1
  8
0
  2
$PAPER_SPACE
 70
     0
 10
0.0
 20
0.0
 30
0.0
  3
$PAPER_SPACE
  1

  0
ENDBLK
  5
1D
 67
     1
  8
0
  0
BLOCK
  8
0
  2
_FILLED
 70
     0
 10
0.0
 20
0.0
 30
0.0
  3
_FILLED
  1

  0
SOLID
  5
87E2
  8
0
  6
BYBLOCK
 62
     0
 10
0.0
 20
0.0
 30
0.0
 11
-1.0
 21
0.1666666667
 31
0.0
 12
-1.0
 22
-0.1666666667
 32
0.0
 13
-1.0
 23
-0.1666666667
 33
0.0
  0
ENDBLK
  5
87E3
  8
0
  6
BYBLOCK
 62
     0
  0
ENDSEC
  0
SECTION
  2
ENTITIES
  0
ATTDEF
  5
C848
  8
DEFPOINTS
 10
528.3888012622126098
 20
52.681709936023708
 30
0.0
 40
0.001
  1
K-97898T
  3

  2
MODELNUMBER
 70
     0
1001
ACDBATTR
1070
     0
1070
     1
  0
ATTDEF
  5
C849
  8
DEFPOINTS
 10
528.3888012622126098
 20
52.6800432693570428
 30
0.0
 40
0.001
  1
KUMIN
  3

  2
TRADENAME
 70
     0
1001
ACDBATTR
1070
     0
1070
     1
  0
ATTDEF
  5
C84A
  8
DEFPOINTS
 10
528.3888012622126098
 20
52.6783766026903706
 30
0.0
 40
0.001
  1
TOWEL RING
  3

  2
PRODUCT
 70
     0
1001
ACDBATTR
1070
     0
1070
     1
  0
LINE
  5
10729
  8
0
 10
527.4983502576072851
 20
52.4574502807678869
 30
0.0
 11
527.4983502576072851
 21
52.6739857138678786
 31
0.0
  0
LINE
  5
1072A
  8
0
 10
527.4983502576072851
 20
52.6739857138678786
 30
0.0
 11
529.2700505162700892
 21
52.6739857138678786
 31
0.0
  0
ARC
  5
1072B
  8
0
 10
527.5574053758781474
 20
52.4574502809386018
 30
0.0
 40
0.0590551182707113
 50
180.000000165627398
 51
269.9999999313969283
  0
LINE
  5
1072C
  8
0
 10
527.5574053758074342
 20
52.3983951626678888
 30
0.0
 11
529.2109486828072704
 21
52.3983951626678888
 31
0.0
  0
LINE
  5
1072D
  8
0
 10
529.2700505162700892
 20
52.4574502807678869
 30
0.0
 11
529.2700505162700892
 21
52.6739857138678786
 31
0.0
  0
ARC
  5
1072E
  8
0
 10
529.2109156184975518
 20
52.4575301050728697
 30
0.0
 40
0.0591349516486569
 50
270.0320359693556043
 51
359.9226583088403117
  0
LINE
  5
1072F
  8
0
 10
528.876326371238747
 20
52.3983951626678888
 30
0.0
 11
528.876326371238747
 21
50.2546943753678903
 31
0.0
  0
LINE
  5
10730
  8
0
 10
528.876326371238747
 20
49.8176865012678789
 30
0.0
 11
528.876326371238747
 21
49.6163823354148192
 31
0.0
  0
ARC
  5
10731
  8
0
 10
528.8375272885103868
 20
49.6164432709677712
 30
0.0
 40
0.0387991305792412
 50
318.4537133403591724
 51
359.9100146990589906
  0
ARC
  5
10732
  8
0
 10
528.3841998291068194
 20
49.9801697516514594
 30
0.0
 40
0.6199635652838288
 50
270.0000137750989779
 51
321.0828010399642949
  0
ARC
  5
10733
  8
0
 10
528.3840616202843421
 20
49.2034941762149103
 30
0.0
 40
0.6424960832875019
 50
39.988317598894767
 51
139.9731849981137941
  0
ARC
  5
10734
  8
0
 10
527.9317257448606142
 20
49.6167632063246629
 30
0.0
 40
0.039651374009757
 50
180.0725504086638864
 51
221.075464413984605
  0
ARC
  5
10735
  8
0
 10
528.3841998291068194
 20
49.9801697516514594
 30
0.0
 40
0.6199635652838295
 50
218.9172642842204084
 51
270.0000137750989779
  0
LINE
  5
10736
  8
0
 10
528.8556388814987486
 20
49.5775532565110382
 30
0.0
 11
527.9127607767146628
 21
49.5775532565110382
 31
0.0
  0
ARC
  5
10737
  8
0
 10
525.6283384246532933
 20
50.0361904383178882
 30
0.0
 40
0.157523864671642
 50
88.6526911920662144
 51
271.347308807933814
  0
ARC
  5
10738
  8
0
 10
531.1401058987959232
 20
50.0361904383678819
 30
0.0
 40
0.1574803150000008
 50
269.9999999974140223
 51
90.0000000025859634
  0
LINE
  5
10739
  8
0
 10
525.6320422529887537
 20
50.1936707532678881
 30
0.0
 11
527.9197755126685934
 21
50.193689963196519
 31
0.0
  0
LINE
  5
1073A
  8
0
 10
528.8486030183845514
 20
50.1936707532666588
 30
0.0
 11
531.1401058987886472
 21
50.1936707533678899
 31
0.0
  0
LINE
  5
1073B
  8
0
 10
531.1401058987898978
 20
49.8787101233678811
 30
0.0
 11
528.8486096824873357
 21
49.8786920271120096
 31
0.0
  0
LINE
  5
1073C
  8
0
 10
525.6320422529887537
 20
49.8787101233678882
 30
0.0
 11
527.9197825832977742
 21
49.8787101233678882
 31
0.0
  0
ARC
  5
1073D
  8
0
 10
527.4919005708181885
 20
50.0361904383178882
 30
0.0
 40
0.4559419548366279
 50
331.364464333403987
 51
28.635535666595981
  0
ARC
  5
1073E
  8
0
 10
529.2762660313757124
 20
50.0361904383178882
 30
0.0
 40
0.4557364394655714
 50
151.3503554394287107
 51
208.649644560571204
  0
LINE
  5
1073F
  8
0
 10
527.892074402638741
 20
49.8176865012678789
 30
0.0
 11
527.892074402638741
 21
49.6167129980432691
 31
0.0
  0
LINE
  5
10740
  8
0
 10
527.892074402638741
 20
50.2546943753679827
 30
0.0
 11
527.892074402638741
 21
52.3983951626678888
 31
0.0
  0
ENDSEC
  0
EOF
