  0
SECTION
  2
HEADER
  9
$ACADVER
  1
AC1009
  9
$INSBASE
 10
529.6159175085050492
 20
51.6147508975343428
 30
0.0
  9
$EXTMIN
 10
518.9799632665635727
 20
45.9556373267686027
 30
0.0
  9
$EXTMAX
 10
532.270337385003586
 20
55.2919349342052726
 30
0.0
  9
$LIMMIN
 10
0.0
 20
0.0
  9
$LIMMAX
 10
11.6929133858000007
 20
8.2677165353999982
  9
$ORTHOMODE
 70
     0
  9
$REGENMODE
 70
     1
  9
$FILLMODE
 70
     1
  9
$QTEXTMODE
 70
     0
  9
$MIRRTEXT
 70
     0
  9
$DRAGMODE
 70
     2
  9
$LTSCALE
 40
0.6431102362
  9
$OSMODE
 70
  4095
  9
$ATTMODE
 70
     1
  9
$TEXTSIZE
 40
0.2
  9
$TRACEWID
 40
0.05
  9
$TEXTSTYLE
  7
STANDARD
  9
$CLAYER
  8
0
  9
$CELTYPE
  6
BYLAYER
  9
$CECOLOR
 62
   256
  9
$DIMSCALE
 40
1.0
  9
$DIMASZ
 40
0.1875
  9
$DIMEXO
 40
0.0625
  9
$DIMDLI
 40
0.4443307087
  9
$DIMRND
 40
0.0
  9
$DIMDLE
 40
0.0
  9
$DIMEXE
 40
0.125
  9
$DIMTP
 40
0.01
  9
$DIMTM
 40
0.01
  9
$DIMTXT
 40
1.0
  9
$DIMCEN
 40
0.1052362205
  9
$DIMTSZ
 40
0.0
  9
$DIMTOL
 70
     1
  9
$DIMLIM
 70
     0
  9
$DIMTIH
 70
     0
  9
$DIMTOH
 70
     1
  9
$DIMSE1
 70
     0
  9
$DIMSE2
 70
     0
  9
$DIMTAD
 70
     0
  9
$DIMZIN
 70
     0
  9
$DIMBLK
  1

  9
$DIMASO
 70
     1
  9
$DIMSHO
 70
     1
  9
$DIMPOST
  1
\X
  9
$DIMAPOST
  1

  9
$DIMALT
 70
     1
  9
$DIMALTD
 70
     2
  9
$DIMALTF
 40
25.3999999999999986
  9
$DIMLFAC
 40
1.0
  9
$DIMTOFL
 70
     0
  9
$DIMTVP
 40
0.0
  9
$DIMTIX
 70
     0
  9
$DIMSOXD
 70
     0
  9
$DIMSAH
 70
     0
  9
$DIMBLK1
  1

  9
$DIMBLK2
  1

  9
$DIMSTYLE
  2
STANDARD
  9
$DIMCLRD
 70
     0
  9
$DIMCLRE
 70
     0
  9
$DIMCLRT
 70
     0
  9
$DIMTFAC
 40
1.0
  9
$DIMGAP
 40
0.09
  9
$LUNITS
 70
     2
  9
$LUPREC
 70
     4
  9
$SKETCHINC
 40
0.1
  9
$FILLETRAD
 40
0.0
  9
$AUNITS
 70
     0
  9
$AUPREC
 70
     0
  9
$MENU
  1
.
  9
$ELEVATION
 40
0.0
  9
$PELEVATION
 40
0.0
  9
$THICKNESS
 40
0.0
  9
$LIMCHECK
 70
     0
  9
$BLIPMODE
 70
     0
  9
$CHAMFERA
 40
0.0
  9
$CHAMFERB
 40
0.0
  9
$SKPOLY
 70
     0
  9
$TDCREATE
 40
2458172.5207638889551163
  9
$TDUPDATE
 40
2459115.7182754632085562
  9
$TDINDWG
 40
0.2790134028
  9
$TDUSRTIMER
 40
0.2790134028
  9
$USRTIMER
 70
     1
  9
$ANGBASE
 50
0.0
  9
$ANGDIR
 70
     0
  9
$PDMODE
 70
     0
  9
$PDSIZE
 40
0.3125
  9
$PLINEWID
 40
0.0
  9
$COORDS
 70
     1
  9
$SPLFRAME
 70
     0
  9
$SPLINETYPE
 70
     6
  9
$SPLINESEGS
 70
     8
  9
$ATTDIA
 70
     1
  9
$ATTREQ
 70
     1
  9
$HANDLING
 70
     1
  9
$HANDSEED
  5
107D2
  9
$SURFTAB1
 70
     6
  9
$SURFTAB2
 70
     6
  9
$SURFTYPE
 70
     6
  9
$SURFU
 70
     6
  9
$SURFV
 70
     6
  9
$UCSNAME
  2

  9
$UCSORG
 10
0.0
 20
0.0
 30
0.0
  9
$UCSXDIR
 10
1.0
 20
0.0
 30
0.0
  9
$UCSYDIR
 10
0.0
 20
1.0
 30
0.0
  9
$PUCSNAME
  2

  9
$PUCSORG
 10
0.0
 20
0.0
 30
0.0
  9
$PUCSXDIR
 10
1.0
 20
0.0
 30
0.0
  9
$PUCSYDIR
 10
0.0
 20
1.0
 30
0.0
  9
$USERI1
 70
     0
  9
$USERI2
 70
     0
  9
$USERI3
 70
     0
  9
$USERI4
 70
     0
  9
$USERI5
 70
     0
  9
$USERR1
 40
0.0
  9
$USERR2
 40
0.0
  9
$USERR3
 40
0.0
  9
$USERR4
 40
0.0
  9
$USERR5
 40
0.0
  9
$WORLDVIEW
 70
     1
  9
$SHADEDGE
 70
     3
  9
$SHADEDIF
 70
    70
  9
$TILEMODE
 70
     1
  9
$MAXACTVP
 70
    64
  9
$PLIMCHECK
 70
     0
  9
$PEXTMIN
 10
1.0000000000000000E+20
 20
1.0000000000000000E+20
 30
1.0000000000000000E+20
  9
$PEXTMAX
 10
-1.0000000000000000E+20
 20
-1.0000000000000000E+20
 30
-1.0000000000000000E+20
  9
$PLIMMIN
 10
0.0
 20
0.0
  9
$PLIMMAX
 10
12.0
 20
9.0
  9
$UNITMODE
 70
     0
  9
$VISRETAIN
 70
     1
  9
$PLINEGEN
 70
     0
  9
$PSLTSCALE
 70
     1
  0
ENDSEC
  0
SECTION
  2
TABLES
  0
TABLE
  2
VPORT
 70
     1
  0
VPORT
  2
*ACTIVE
 70
     0
 10
0.0
 20
0.0
 11
1.0
 21
1.0
 12
105.4684362669340061
 22
-20.9168885099057213
 13
0.0
 23
0.0
 14
1.0
 24
1.0
 15
0.0
 25
0.0
 16
0.0
 26
0.0
 36
14.6338572656650907
 17
429.6292891080536833
 27
69.7025415122186871
 37
0.0
 40
21.2897672878140405
 41
2.005224660397074
 42
50.0
 43
0.0
 44
0.0
 50
0.0
 51
0.0
 71
     0
 72
   100
 73
     1
 74
     1
 75
     0
 76
     0
 77
     0
 78
     0
  0
ENDTAB
  0
TABLE
  2
LTYPE
 70
     2
  0
LTYPE
  2
CONTINUOUS
 70
     0
  3
Solid line
 72
    65
 73
     0
 40
0.0
  0
LTYPE
  2
PHANTOM2
 70
     0
  3
___ _ _ ___ _ _ ___ _ _ ___ _ _
 72
    65
 73
     6
 40
1.25
 49
0.625
 49
-0.125
 49
0.125
 49
-0.125
 49
0.125
 49
-0.125
  0
ENDTAB
  0
TABLE
  2
LAYER
 70
     2
  0
LAYER
  2
0
 70
     0
 62
   255
  6
CONTINUOUS
  0
LAYER
  2
DEFPOINTS
 70
     0
 62
     7
  6
CONTINUOUS
  0
ENDTAB
  0
TABLE
  2
STYLE
 70
     1
  0
STYLE
  2
STANDARD
 70
     0
 40
0.0
 41
0.8
 50
0.0
 71
     0
 42
0.2
  3
txt
  4

  0
ENDTAB
  0
TABLE
  2
VIEW
 70
     0
  0
ENDTAB
  0
TABLE
  2
UCS
 70
     0
  0
ENDTAB
  0
TABLE
  2
APPID
 70
    10
  0
APPID
  2
ACAD
 70
     0
  0
APPID
  2
ACAD_MLEADERVER
 70
     0
  0
APPID
  2
ACAD_EXEMPT_FROM_CAD_STANDARDS
 70
     0
  0
APPID
  2
ACAD_DSTYLE_DIMJAG
 70
     0
  0
APPID
  2
ACAD_DSTYLE_DIMTALN
 70
     0
  0
APPID
  2
ACAD_NAV_VCDISPLAY
 70
     0
  0
APPID
  2
ACAECLAYERSTANDARD
 70
     0
  0
APPID
  2
ACCMTRANSPARENCY
 70
     0
  0
APPID
  2
DCO15
 70
     0
  0
APPID
  2
ACDBATTR
 70
     0
  0
ENDTAB
  0
TABLE
  2
DIMSTYLE
 70
     1
  0
DIMSTYLE
  2
STANDARD
 70
     0
  3

  4

  5

  6

  7

 40
1.0
 41
0.1875
 42
0.0625
 43
0.38
 44
0.125
 45
0.0
 46
0.0
 47
0.01
 48
0.01
140
0.15625
141
0.09
142
0.0
143
25.3999999999999986
144
1.0
145
0.0
146
1.0
147
0.09
 71
     1
 72
     0
 73
     1
 74
     1
 75
     0
 76
     0
 77
     0
 78
     4
170
     0
171
     2
172
     0
173
     0
174
     0
175
     0
176
     0
177
     0
178
     0
  0
ENDTAB
  0
ENDSEC
  0
SECTION
  2
BLOCKS
  0
BLOCK
  8
0
  2
$MODEL_SPACE
 70
     0
 10
0.0
 20
0.0
 30
0.0
  3
$MODEL_SPACE
  1

  0
ENDBLK
  5
21
  8
0
  0
BLOCK
 67
     1
  8
0
  2
$PAPER_SPACE
 70
     0
 10
0.0
 20
0.0
 30
0.0
  3
$PAPER_SPACE
  1

  0
ENDBLK
  5
1D
 67
     1
  8
0
  0
BLOCK
  8
0
  2
_FILLED
 70
     0
 10
0.0
 20
0.0
 30
0.0
  3
_FILLED
  1

  0
SOLID
  5
87E2
  8
0
  6
BYBLOCK
 62
     0
 10
0.0
 20
0.0
 30
0.0
 11
-1.0
 21
0.1666666667
 31
0.0
 12
-1.0
 22
-0.1666666667
 32
0.0
 13
-1.0
 23
-0.1666666667
 33
0.0
  0
ENDBLK
  5
87E3
  8
0
  6
BYBLOCK
 62
     0
  0
ENDSEC
  0
SECTION
  2
ENTITIES
  0
ATTDEF
  5
C848
  8
DEFPOINTS
 10
529.6191016537842415
 20
51.6190711793612707
 30
0.0
 40
0.001
  1
K-97898T
  3

  2
MODELNUMBER
 70
     0
1001
ACDBATTR
1070
     0
1070
     1
  0
ATTDEF
  5
C849
  8
DEFPOINTS
 10
529.6191016537842415
 20
51.6174045126946126
 30
0.0
 40
0.001
  1
KUMIN
  3

  2
TRADENAME
 70
     0
1001
ACDBATTR
1070
     0
1070
     1
  0
ATTDEF
  5
C84A
  8
DEFPOINTS
 10
529.6191016537842415
 20
51.6157378460279403
 30
0.0
 40
0.001
  1
TOWEL RING
  3

  2
PRODUCT
 70
     0
1001
ACDBATTR
1070
     0
1070
     1
  0
LINE
  5
1072F
  8
0
 10
526.5586446897051474
 20
51.1226267473843379
 30
0.0
 11
526.8206360634947032
 21
51.1226267473843379
 31
0.0
  0
LINE
  5
10730
  8
0
 10
528.9702604128912071
 20
51.1226267473843379
 30
0.0
 11
529.3403269573051375
 21
51.1226267473843379
 31
0.0
  0
LINE
  5
10731
  8
0
 10
529.3403269573051375
 20
52.4415210265843399
 30
0.0
 11
529.3403269573051375
 21
50.7879917736843396
 31
0.0
  0
LINE
  5
10732
  8
0
 10
529.3993820754051285
 20
50.7289259599843376
 30
0.0
 11
529.6159175085050492
 21
50.7289259599843376
 31
0.0
  0
LINE
  5
10733
  8
0
 10
529.6159175085050492
 20
50.7289259599843376
 30
0.0
 11
529.6159175085050492
 21
52.5005758350843408
 31
0.0
  0
LINE
  5
10734
  8
0
 10
529.6159175085050492
 20
52.5005758350843408
 30
0.0
 11
529.3993820754051285
 21
52.5005758350843408
 31
0.0
  0
ARC
  5
10735
  8
0
 10
529.3993695534843482
 20
52.4415332389698818
 30
0.0
 40
0.0590425974423095
 50
89.9878485492862552
 51
180.0118510733628057
  0
LINE
  5
10736
  8
0
 10
526.302137981005103
 20
52.4021543064843414
 30
0.0
 11
526.3021379809050586
 21
51.6147452648807104
 31
0.0
  0
ARC
  5
10737
  8
0
 10
526.9220234577118163
 20
51.614734974617491
 30
0.0
 40
0.619885476892131
 50
179.9990488748726989
 51
231.2471639607475993
  0
ARC
  5
10738
  8
0
 10
526.9221015465993787
 20
52.4021543061479917
 30
0.0
 40
0.6199635656443065
 50
130.4980367551297888
 51
179.9999999689158017
  0
ARC
  5
10739
  8
0
 10
526.5450513668050689
 20
52.8436539769879587
 30
0.0
 40
0.0393700783963746
 50
90.0000000000065086
 51
130.4980366201210131
  0
ARC
  5
1073A
  8
0
 10
526.2162052817300264
 20
52.4166360626517331
 30
0.0
 40
0.5706640933459742
 50
4.5948705264960266
 51
54.8126717412411608
  0
LINE
  5
1073B
  8
0
 10
527.1769052834904414
 20
52.1068955115279095
 30
0.0
 11
529.3403269573051375
 21
52.1068823843843418
 31
0.0
  0
ARC
  5
1073C
  8
0
 10
526.558621608358294
 20
51.1618617812154426
 30
0.0
 40
0.0392350406202957
 50
231.1285281122283095
 51
270.0337061924785189
  0
LINE
  5
1073D
  8
0
 10
526.5194835718042441
 20
52.8735920954039571
 30
0.0
 11
526.5194835713050452
 21
51.9403818073843411
 31
0.0
  0
LINE
  5
1073E
  8
0
 10
526.5339986587051726
 20
51.6147527316843409
 30
0.0
 11
526.5339986587051726
 21
51.1313151158843411
 31
0.0
  0
ARC
  5
1073F
  8
0
 10
528.8678921102980439
 20
50.680613129205021
 30
0.0
 40
0.4537128034690604
 50
76.9604509633519172
 51
103.0395490366545062
  0
LINE
  5
10740
  8
0
 10
527.1356084023151425
 20
51.1226267473843379
 30
0.0
 11
528.7655238077051081
 21
51.1226267473843379
 31
0.0
  0
ARC
  5
10741
  8
0
 10
527.1490162456804001
 20
52.4698846019588601
 30
0.0
 40
0.3640588938645215
 50
181.1856034331202068
 51
274.3934957252760114
  0
ARC
  5
10742
  8
0
 10
529.4006294984094438
 20
50.7892282761744767
 30
0.0
 40
0.0603152170024108
 50
181.1746842841043872
 51
268.8149396931486876
  0
ARC
  5
10743
  8
0
 10
530.2096843650294886
 20
51.9567244296480624
 30
0.0
 40
3.69023698145612
 50
180.2537415204963906
 51
184.805649300467195
  0
ARC
  5
10744
  8
0
 10
526.1905813652767847
 20
51.6146804940886597
 30
0.0
 40
0.3434173010258017
 50
0.0120521382671567
 51
5.495842945139362
  0
ARC
  5
10745
  8
0
 10
526.9781222329052071
 20
46.1131176417686106
 30
0.0
 40
0.1574803150000044
 50
179.9999999215106072
 51
0.0000000784893722
  0
ARC
  5
10746
  8
0
 10
526.9781222329052071
 20
51.6147527316843409
 30
0.0
 40
0.1988188976000007
 50
0.0
 51
180.0
  0
ARC
  5
10747
  8
0
 10
526.9781222329052071
 20
51.6147527316843409
 30
0.0
 40
0.1591471400999993
 50
351.7162723156992001
 51
188.2837276843002883
  0
ARC
  5
10748
  8
0
 10
526.9781222329052071
 20
51.6147527316843409
 30
0.0
 40
0.1614173228000003
 50
347.3299505166837093
 51
192.6700494833143011
  0
LINE
  5
10749
  8
0
 10
526.8206419179050499
 20
46.1131176419843385
 30
0.0
 11
526.8206355151637581
 21
51.5918235813058033
 31
0.0
  0
LINE
  5
1074A
  8
0
 10
527.1356089506464286
 20
51.5918235813058033
 30
0.0
 11
527.1356025479051368
 21
46.1131176419843385
 31
0.0
  0
ARC
  5
1074B
  8
0
 10
526.9781222329052071
 20
51.6147527316843409
 30
0.0
 40
0.198818897600022
 50
180.0000000000019895
 51
217.6167879642559058
  0
ARC
  5
1074C
  8
0
 10
526.9781222329050934
 20
51.6147527316843409
 30
0.0
 40
0.1988188976000024
 50
322.3832120357342887
 51
359.9999999999992042
  0
ENDSEC
  0
EOF
